  0
SECTION
  2
HEADER
  9
$ACADVER
  1
AC1009
  9
$INSBASE
 10
0.0
 20
0.0
 30
0.0
  9
$EXTMIN
 10
80719.0
 20
478700.0
 30
0.01
  9
$EXTMAX
 10
112137.0
 20
500778.0
 30
44.79999999999999
  9
$LIMMIN
 10
0.0
 20
0.0
  9
$LIMMAX
 10
12.0
 20
9.0
  9
$ORTHOMODE
 70
     0
  9
$REGENMODE
 70
     1
  9
$FILLMODE
 70
     1
  9
$QTEXTMODE
 70
     0
  9
$MIRRTEXT
 70
     0
  9
$DRAGMODE
 70
     2
  9
$LTSCALE
 40
1.0
  9
$OSMODE
 70
    37
  9
$ATTMODE
 70
     1
  9
$TEXTSIZE
 40
0.2
  9
$TRACEWID
 40
0.05
  9
$TEXTSTYLE
  7
STANDARD
  9
$CLAYER
  8
0
  9
$CELTYPE
  6
BYLAYER
  9
$CECOLOR
 62
   256
  9
$DIMSCALE
 40
1.0
  9
$DIMASZ
 40
0.18
  9
$DIMEXO
 40
0.0625
  9
$DIMDLI
 40
0.38
  9
$DIMRND
 40
0.0
  9
$DIMDLE
 40
0.0
  9
$DIMEXE
 40
0.18
  9
$DIMTP
 40
0.0
  9
$DIMTM
 40
0.0
  9
$DIMTXT
 40
0.18
  9
$DIMCEN
 40
0.09
  9
$DIMTSZ
 40
0.0
  9
$DIMTOL
 70
     0
  9
$DIMLIM
 70
     0
  9
$DIMTIH
 70
     1
  9
$DIMTOH
 70
     1
  9
$DIMSE1
 70
     0
  9
$DIMSE2
 70
     0
  9
$DIMTAD
 70
     0
  9
$DIMZIN
 70
     0
  9
$DIMBLK
  1

  9
$DIMASO
 70
     1
  9
$DIMSHO
 70
     1
  9
$DIMPOST
  1

  9
$DIMAPOST
  1

  9
$DIMALT
 70
     0
  9
$DIMALTD
 70
     2
  9
$DIMALTF
 40
25.399999999999999
  9
$DIMLFAC
 40
1.0
  9
$DIMTOFL
 70
     0
  9
$DIMTVP
 40
0.0
  9
$DIMTIX
 70
     0
  9
$DIMSOXD
 70
     0
  9
$DIMSAH
 70
     0
  9
$DIMBLK1
  1

  9
$DIMBLK2
  1

  9
$DIMSTYLE
  2
STANDARD
  9
$DIMCLRD
 70
     0
  9
$DIMCLRE
 70
     0
  9
$DIMCLRT
 70
     0
  9
$DIMTFAC
 40
1.0
  9
$DIMGAP
 40
0.09
  9
$LUNITS
 70
     2
  9
$LUPREC
 70
     4
  9
$SKETCHINC
 40
0.1
  9
$FILLETRAD
 40
0.0
  9
$AUNITS
 70
     0
  9
$AUPREC
 70
     0
  9
$MENU
  1
.
  9
$ELEVATION
 40
0.0
  9
$PELEVATION
 40
0.0
  9
$THICKNESS
 40
0.0
  9
$LIMCHECK
 70
     0
  9
$BLIPMODE
 70
     0
  9
$CHAMFERA
 40
0.0
  9
$CHAMFERB
 40
0.0
  9
$SKPOLY
 70
     0
  9
$TDCREATE
 40
2457430.8629885069
  9
$TDUPDATE
 40
2458148.4447221761
  9
$TDINDWG
 40
0.8418531019
  9
$TDUSRTIMER
 40
0.8418378356
  9
$USRTIMER
 70
     1
  9
$ANGBASE
 50
0.0
  9
$ANGDIR
 70
     0
  9
$PDMODE
 70
     0
  9
$PDSIZE
 40
0.0
  9
$PLINEWID
 40
0.0
  9
$COORDS
 70
     1
  9
$SPLFRAME
 70
     0
  9
$SPLINETYPE
 70
     6
  9
$SPLINESEGS
 70
     8
  9
$ATTDIA
 70
     1
  9
$ATTREQ
 70
     1
  9
$HANDLING
 70
     1
  9
$HANDSEED
  5
2205
  9
$SURFTAB1
 70
     6
  9
$SURFTAB2
 70
     6
  9
$SURFTYPE
 70
     6
  9
$SURFU
 70
     6
  9
$SURFV
 70
     6
  9
$UCSNAME
  2

  9
$UCSORG
 10
0.0
 20
0.0
 30
0.0
  9
$UCSXDIR
 10
1.0
 20
0.0
 30
0.0
  9
$UCSYDIR
 10
0.0
 20
1.0
 30
0.0
  9
$PUCSNAME
  2

  9
$PUCSORG
 10
0.0
 20
0.0
 30
0.0
  9
$PUCSXDIR
 10
1.0
 20
0.0
 30
0.0
  9
$PUCSYDIR
 10
0.0
 20
1.0
 30
0.0
  9
$USERI1
 70
     0
  9
$USERI2
 70
     0
  9
$USERI3
 70
     0
  9
$USERI4
 70
     0
  9
$USERI5
 70
     0
  9
$USERR1
 40
0.0
  9
$USERR2
 40
0.0
  9
$USERR3
 40
0.0
  9
$USERR4
 40
0.0
  9
$USERR5
 40
0.0
  9
$WORLDVIEW
 70
     1
  9
$SHADEDGE
 70
     3
  9
$SHADEDIF
 70
    70
  9
$TILEMODE
 70
     1
  9
$MAXACTVP
 70
    64
  9
$PLIMCHECK
 70
     0
  9
$PEXTMIN
 10
0.0
 20
0.0
 30
0.0
  9
$PEXTMAX
 10
0.0
 20
0.0
 30
0.0
  9
$PLIMMIN
 10
0.0
 20
0.0
  9
$PLIMMAX
 10
12.0
 20
9.0
  9
$UNITMODE
 70
     0
  9
$VISRETAIN
 70
     1
  9
$PLINEGEN
 70
     0
  9
$PSLTSCALE
 70
     1
  0
ENDSEC
  0
SECTION
  2
TABLES
  0
TABLE
  2
VPORT
 70
     1
  0
VPORT
  2
*ACTIVE
 70
     0
 10
0.0
 20
0.0
 11
1.0
 21
1.0
 12
92203.789152668745
 22
489477.1286252343
 13
0.0
 23
0.0
 14
0.5
 24
0.5
 15
0.5
 25
0.5
 16
0.0
 26
0.0
 36
1.0
 17
0.0
 27
0.0
 37
0.0
 40
206.327767506323
 41
2.0426179604261789
 42
50.0
 43
0.0
 44
0.0
 50
0.0
 51
0.0
 71
     0
 72
  1000
 73
     1
 74
     3
 75
     0
 76
     0
 77
     0
 78
     0
  0
ENDTAB
  0
TABLE
  2
LTYPE
 70
     1
  0
LTYPE
  2
CONTINUOUS
 70
     0
  3
Solid line
 72
    65
 73
     0
 40
0.0
  0
ENDTAB
  0
TABLE
  2
LAYER
 70
     5
  0
LAYER
  2
0
 70
     0
 62
     7
  6
CONTINUOUS
  0
LAYER
  2
1BY1
 70
     0
 62
     4
  6
CONTINUOUS
  0
LAYER
  2
2BY2
 70
     0
 62
     2
  6
CONTINUOUS
  0
LAYER
  2
10BY10
 70
     0
 62
     6
  6
CONTINUOUS
  0
LAYER
  2
R10BY10
 70
     0
 62
     3
  6
CONTINUOUS
  0
ENDTAB
  0
TABLE
  2
STYLE
 70
     3
  0
STYLE
  2
STANDARD
 70
     0
 40
0.0
 41
1.0
 50
0.0
 71
     0
 42
0.2
  3
txt
  4

  0
STYLE
  2
ANNOTATIVE
 70
     0
 40
0.0
 41
1.0
 50
0.0
 71
     0
 42
0.2
  3
txt
  4

  0
STYLE
  2
LEGEND
 70
     0
 40
0.0
 41
1.0
 50
0.0
 71
     0
 42
0.2
  3
txt
  4

  0
ENDTAB
  0
TABLE
  2
VIEW
 70
     0
  0
ENDTAB
  0
TABLE
  2
UCS
 70
     0
  0
ENDTAB
  0
TABLE
  2
APPID
 70
    14
  0
APPID
  2
ACAD
 70
     0
  0
APPID
  2
ACADANNOTATIVE
 70
     0
  0
APPID
  2
ACAD_DSTYLE_DIMJAG
 70
     0
  0
APPID
  2
ACAD_DSTYLE_DIMTALN
 70
     0
  0
APPID
  2
ACAD_NAV_VCDISPLAY
 70
     0
  0
APPID
  2
ADE
 70
     0
  0
APPID
  2
DCO15
 70
     0
  0
APPID
  2
ACAECLAYERSTANDARD
 70
     0
  0
APPID
  2
ACCMTRANSPARENCY
 70
     0
  0
APPID
  2
ADE_PROJECTION
 70
     0
  0
APPID
  2
ACMAPDMDISPLAYSTYLEREGAPP
 70
     0
  0
APPID
  2
MAPGWS
 70
     0
  0
APPID
  2
ACAD_MLEADERVER
 70
     0
  0
APPID
  2
MAPMANAGEMENTAPPNAME
 70
     0
  0
ENDTAB
  0
TABLE
  2
DIMSTYLE
 70
     2
  0
DIMSTYLE
  2
STANDARD
 70
     0
  3

  4

  5

  6

  7

 40
1.0
 41
0.18
 42
0.0625
 43
0.38
 44
0.18
 45
0.0
 46
0.0
 47
0.0
 48
0.0
140
0.18
141
0.09
142
0.0
143
25.399999999999999
144
1.0
145
0.0
146
1.0
147
0.09
 71
     0
 72
     0
 73
     1
 74
     1
 75
     0
 76
     0
 77
     0
 78
     0
170
     0
171
     2
172
     0
173
     0
174
     0
175
     0
176
     0
177
     0
178
     0
  0
DIMSTYLE
  2
ANNOTATIVE
 70
     0
  3

  4

  5

  6

  7

 40
0.0
 41
0.18
 42
0.0625
 43
0.38
 44
0.18
 45
0.0
 46
0.0
 47
0.0
 48
0.0
140
0.18
141
0.09
142
0.0
143
25.399999999999999
144
1.0
145
0.0
146
1.0
147
0.09
 71
     0
 72
     0
 73
     1
 74
     1
 75
     0
 76
     0
 77
     0
 78
     0
170
     0
171
     2
172
     0
173
     0
174
     0
175
     0
176
     0
177
     0
178
     0
  0
ENDTAB
  0
ENDSEC
  0
SECTION
  2
BLOCKS
  0
BLOCK
  8
0
  2
$MODEL_SPACE
 70
     0
 10
0.0
 20
0.0
 30
0.0
  3
$MODEL_SPACE
  1

  0
ENDBLK
  5
179C
  8
0
  0
BLOCK
 67
     1
  8
0
  2
$PAPER_SPACE
 70
     0
 10
0.0
 20
0.0
 30
0.0
  3
$PAPER_SPACE
  1

  0
ENDBLK
  5
1798
 67
     1
  8
0
  0
ENDSEC
  0
SECTION
  2
ENTITIES
  0
POLYLINE
  5
6B
  8
1BY1
 66
     1
 10
0.0
 20
0.0
 30
2.0
 70
     1
1001
DCO15
1071
        2
1071
        2
1000
new-all-density-link
1004
000000000000F03F
  0
VERTEX
  5
17E8
  8
1BY1
 10
99766.0
 20
482407.0
 30
2.0
  0
VERTEX
  5
17E9
  8
1BY1
 10
99767.0
 20
482407.0
 30
2.0
  0
VERTEX
  5
17EA
  8
1BY1
 10
99767.0
 20
482408.0
 30
2.0
  0
VERTEX
  5
17EB
  8
1BY1
 10
99766.0
 20
482408.0
 30
2.0
  0
SEQEND
  5
17EC
  8
1BY1
  0
POLYLINE
  5
70
  8
1BY1
 66
     1
 10
0.0
 20
0.0
 30
1.0
 70
     1
1001
DCO15
1071
        2
1071
        2
1000
new-all-density-link
1004
0000000000000040
  0
VERTEX
  5
17ED
  8
1BY1
 10
99783.0
 20
482414.0
 30
1.0
  0
VERTEX
  5
17EE
  8
1BY1
 10
99784.0
 20
482414.0
 30
1.0
  0
VERTEX
  5
17EF
  8
1BY1
 10
99784.0
 20
482415.0
 30
1.0
  0
VERTEX
  5
17F0
  8
1BY1
 10
99783.0
 20
482415.0
 30
1.0
  0
SEQEND
  5
17F1
  8
1BY1
  0
POLYLINE
  5
71
  8
1BY1
 66
     1
 10
0.0
 20
0.0
 30
1.6000000000000001
 70
     1
1001
DCO15
1071
        2
1071
        2
1000
new-all-density-link
1004
0000000000000840
  0
VERTEX
  5
17F2
  8
1BY1
 10
99750.0
 20
482430.0
 30
1.6000000000000001
  0
VERTEX
  5
17F3
  8
1BY1
 10
99751.0
 20
482430.0
 30
1.6000000000000001
  0
VERTEX
  5
17F4
  8
1BY1
 10
99751.0
 20
482431.0
 30
1.6000000000000001
  0
VERTEX
  5
17F5
  8
1BY1
 10
99750.0
 20
482431.0
 30
1.6000000000000001
  0
SEQEND
  5
17F6
  8
1BY1
  0
POLYLINE
  5
72
  8
1BY1
 66
     1
 10
0.0
 20
0.0
 30
1.6000000000000001
 70
     1
1001
DCO15
1071
        2
1071
        2
1000
new-all-density-link
1004
0000000000001040
  0
VERTEX
  5
17F7
  8
1BY1
 10
99747.0
 20
482431.0
 30
1.6000000000000001
  0
VERTEX
  5
17F8
  8
1BY1
 10
99748.0
 20
482431.0
 30
1.6000000000000001
  0
VERTEX
  5
17F9
  8
1BY1
 10
99748.0
 20
482432.0
 30
1.6000000000000001
  0
VERTEX
  5
17FA
  8
1BY1
 10
99747.0
 20
482432.0
 30
1.6000000000000001
  0
SEQEND
  5
17FB
  8
1BY1
  0
POLYLINE
  5
73
  8
1BY1
 66
     1
 10
0.0
 20
0.0
 30
1.6000000000000001
 70
     1
1001
DCO15
1071
        2
1071
        2
1000
new-all-density-link
1004
0000000000001440
  0
VERTEX
  5
17FC
  8
1BY1
 10
99748.0
 20
482432.0
 30
1.6000000000000001
  0
VERTEX
  5
17FD
  8
1BY1
 10
99749.0
 20
482432.0
 30
1.6000000000000001
  0
VERTEX
  5
17FE
  8
1BY1
 10
99749.0
 20
482433.0
 30
1.6000000000000001
  0
VERTEX
  5
17FF
  8
1BY1
 10
99748.0
 20
482433.0
 30
1.6000000000000001
  0
SEQEND
  5
1800
  8
1BY1
  0
POLYLINE
  5
74
  8
1BY1
 66
     1
 10
0.0
 20
0.0
 30
1.6000000000000001
 70
     1
1001
DCO15
1071
        2
1071
        2
1000
new-all-density-link
1004
0000000000001840
  0
VERTEX
  5
1801
  8
1BY1
 10
99748.0
 20
482431.0
 30
1.6000000000000001
  0
VERTEX
  5
1802
  8
1BY1
 10
99749.0
 20
482431.0
 30
1.6000000000000001
  0
VERTEX
  5
1803
  8
1BY1
 10
99749.0
 20
482432.0
 30
1.6000000000000001
  0
VERTEX
  5
1804
  8
1BY1
 10
99748.0
 20
482432.0
 30
1.6000000000000001
  0
SEQEND
  5
1805
  8
1BY1
  0
POLYLINE
  5
75
  8
1BY1
 66
     1
 10
0.0
 20
0.0
 30
1.6000000000000001
 70
     1
1001
DCO15
1071
        2
1071
        2
1000
new-all-density-link
1004
0000000000001C40
  0
VERTEX
  5
1806
  8
1BY1
 10
99745.0
 20
482429.0
 30
1.6000000000000001
  0
VERTEX
  5
1807
  8
1BY1
 10
99746.0
 20
482429.0
 30
1.6000000000000001
  0
VERTEX
  5
1808
  8
1BY1
 10
99746.0
 20
482430.0
 30
1.6000000000000001
  0
VERTEX
  5
1809
  8
1BY1
 10
99745.0
 20
482430.0
 30
1.6000000000000001
  0
SEQEND
  5
180A
  8
1BY1
  0
POLYLINE
  5
76
  8
1BY1
 66
     1
 10
0.0
 20
0.0
 30
3.2000000000000002
 70
     1
1001
DCO15
1071
        2
1071
        2
1000
new-all-density-link
1004
0000000000002040
  0
VERTEX
  5
180B
  8
1BY1
 10
99748.0
 20
482433.0
 30
3.2000000000000002
  0
VERTEX
  5
180C
  8
1BY1
 10
99749.0
 20
482433.0
 30
3.2000000000000002
  0
VERTEX
  5
180D
  8
1BY1
 10
99749.0
 20
482434.0
 30
3.2000000000000002
  0
VERTEX
  5
180E
  8
1BY1
 10
99748.0
 20
482434.0
 30
3.2000000000000002
  0
SEQEND
  5
180F
  8
1BY1
  0
POLYLINE
  5
77
  8
1BY1
 66
     1
 10
0.0
 20
0.0
 30
1.6000000000000001
 70
     1
1001
DCO15
1071
        2
1071
        2
1000
new-all-density-link
1004
0000000000002440
  0
VERTEX
  5
1810
  8
1BY1
 10
99741.0
 20
482439.0
 30
1.6000000000000001
  0
VERTEX
  5
1811
  8
1BY1
 10
99742.0
 20
482439.0
 30
1.6000000000000001
  0
VERTEX
  5
1812
  8
1BY1
 10
99742.0
 20
482440.0
 30
1.6000000000000001
  0
VERTEX
  5
1813
  8
1BY1
 10
99741.0
 20
482440.0
 30
1.6000000000000001
  0
SEQEND
  5
1814
  8
1BY1
  0
POLYLINE
  5
78
  8
1BY1
 66
     1
 10
0.0
 20
0.0
 30
1.0
 70
     1
1001
DCO15
1071
        2
1071
        2
1000
new-all-density-link
1004
0000000000002640
  0
VERTEX
  5
1815
  8
1BY1
 10
99761.0
 20
482459.0
 30
1.0
  0
VERTEX
  5
1816
  8
1BY1
 10
99762.0
 20
482459.0
 30
1.0
  0
VERTEX
  5
1817
  8
1BY1
 10
99762.0
 20
482460.0
 30
1.0
  0
VERTEX
  5
1818
  8
1BY1
 10
99761.0
 20
482460.0
 30
1.0
  0
SEQEND
  5
1819
  8
1BY1
  0
POLYLINE
  5
79
  8
1BY1
 66
     1
 10
0.0
 20
0.0
 30
1.0
 70
     1
1001
DCO15
1071
        2
1071
        2
1000
new-all-density-link
1004
0000000000002E40
  0
VERTEX
  5
181A
  8
1BY1
 10
99684.0
 20
482550.0
 30
1.0
  0
VERTEX
  5
181B
  8
1BY1
 10
99685.0
 20
482550.0
 30
1.0
  0
VERTEX
  5
181C
  8
1BY1
 10
99685.0
 20
482551.0
 30
1.0
  0
VERTEX
  5
181D
  8
1BY1
 10
99684.0
 20
482551.0
 30
1.0
  0
SEQEND
  5
181E
  8
1BY1
  0
POLYLINE
  5
7A
  8
1BY1
 66
     1
 10
0.0
 20
0.0
 30
1.0
 70
     1
1001
DCO15
1071
        2
1071
        2
1000
new-all-density-link
1004
0000000000003040
  0
VERTEX
  5
181F
  8
1BY1
 10
99638.0
 20
482615.0
 30
1.0
  0
VERTEX
  5
1820
  8
1BY1
 10
99639.0
 20
482615.0
 30
1.0
  0
VERTEX
  5
1821
  8
1BY1
 10
99639.0
 20
482616.0
 30
1.0
  0
VERTEX
  5
1822
  8
1BY1
 10
99638.0
 20
482616.0
 30
1.0
  0
SEQEND
  5
1823
  8
1BY1
  0
POLYLINE
  5
7B
  8
1BY1
 66
     1
 10
0.0
 20
0.0
 30
1.0
 70
     1
1001
DCO15
1071
        2
1071
        2
1000
new-all-density-link
1004
0000000000003140
  0
VERTEX
  5
1824
  8
1BY1
 10
99647.0
 20
482668.0
 30
1.0
  0
VERTEX
  5
1825
  8
1BY1
 10
99648.0
 20
482668.0
 30
1.0
  0
VERTEX
  5
1826
  8
1BY1
 10
99648.0
 20
482669.0
 30
1.0
  0
VERTEX
  5
1827
  8
1BY1
 10
99647.0
 20
482669.0
 30
1.0
  0
SEQEND
  5
1828
  8
1BY1
  0
POLYLINE
  5
7C
  8
1BY1
 66
     1
 10
0.0
 20
0.0
 30
1.0
 70
     1
1001
DCO15
1071
        2
1071
        2
1000
new-all-density-link
1004
0000000000003240
  0
VERTEX
  5
1829
  8
1BY1
 10
99637.0
 20
482663.0
 30
1.0
  0
VERTEX
  5
182A
  8
1BY1
 10
99638.0
 20
482663.0
 30
1.0
  0
VERTEX
  5
182B
  8
1BY1
 10
99638.0
 20
482664.0
 30
1.0
  0
VERTEX
  5
182C
  8
1BY1
 10
99637.0
 20
482664.0
 30
1.0
  0
SEQEND
  5
182D
  8
1BY1
  0
POLYLINE
  5
7D
  8
1BY1
 66
     1
 10
0.0
 20
0.0
 30
1.0
 70
     1
1001
DCO15
1071
        2
1071
        2
1000
new-all-density-link
1004
0000000000003340
  0
VERTEX
  5
182E
  8
1BY1
 10
99889.0
 20
482431.0
 30
1.0
  0
VERTEX
  5
182F
  8
1BY1
 10
99890.0
 20
482431.0
 30
1.0
  0
VERTEX
  5
1830
  8
1BY1
 10
99890.0
 20
482432.0
 30
1.0
  0
VERTEX
  5
1831
  8
1BY1
 10
99889.0
 20
482432.0
 30
1.0
  0
SEQEND
  5
1832
  8
1BY1
  0
POLYLINE
  5
7E
  8
1BY1
 66
     1
 10
0.0
 20
0.0
 30
1.6000000000000001
 70
     1
1001
DCO15
1071
        2
1071
        2
1000
new-all-density-link
1004
0000000000003540
  0
VERTEX
  5
1833
  8
1BY1
 10
99733.0
 20
482530.0
 30
1.6000000000000001
  0
VERTEX
  5
1834
  8
1BY1
 10
99734.0
 20
482530.0
 30
1.6000000000000001
  0
VERTEX
  5
1835
  8
1BY1
 10
99734.0
 20
482531.0
 30
1.6000000000000001
  0
VERTEX
  5
1836
  8
1BY1
 10
99733.0
 20
482531.0
 30
1.6000000000000001
  0
SEQEND
  5
1837
  8
1BY1
  0
POLYLINE
  5
7F
  8
1BY1
 66
     1
 10
0.0
 20
0.0
 30
1.6000000000000001
 70
     1
1001
DCO15
1071
        2
1071
        2
1000
new-all-density-link
1004
0000000000003640
  0
VERTEX
  5
1838
  8
1BY1
 10
99735.0
 20
482535.0
 30
1.6000000000000001
  0
VERTEX
  5
1839
  8
1BY1
 10
99736.0
 20
482535.0
 30
1.6000000000000001
  0
VERTEX
  5
183A
  8
1BY1
 10
99736.0
 20
482536.0
 30
1.6000000000000001
  0
VERTEX
  5
183B
  8
1BY1
 10
99735.0
 20
482536.0
 30
1.6000000000000001
  0
SEQEND
  5
183C
  8
1BY1
  0
POLYLINE
  5
80
  8
1BY1
 66
     1
 10
0.0
 20
0.0
 30
1.0
 70
     1
1001
DCO15
1071
        2
1071
        2
1000
new-all-density-link
1004
0000000000003840
  0
VERTEX
  5
183D
  8
1BY1
 10
99711.0
 20
482555.0
 30
1.0
  0
VERTEX
  5
183E
  8
1BY1
 10
99712.0
 20
482555.0
 30
1.0
  0
VERTEX
  5
183F
  8
1BY1
 10
99712.0
 20
482556.0
 30
1.0
  0
VERTEX
  5
1840
  8
1BY1
 10
99711.0
 20
482556.0
 30
1.0
  0
SEQEND
  5
1841
  8
1BY1
  0
POLYLINE
  5
81
  8
1BY1
 66
     1
 10
0.0
 20
0.0
 30
1.0
 70
     1
1001
DCO15
1071
        2
1071
        2
1000
new-all-density-link
1004
0000000000003A40
  0
VERTEX
  5
1842
  8
1BY1
 10
99694.0
 20
482691.0
 30
1.0
  0
VERTEX
  5
1843
  8
1BY1
 10
99695.0
 20
482691.0
 30
1.0
  0
VERTEX
  5
1844
  8
1BY1
 10
99695.0
 20
482692.0
 30
1.0
  0
VERTEX
  5
1845
  8
1BY1
 10
99694.0
 20
482692.0
 30
1.0
  0
SEQEND
  5
1846
  8
1BY1
  0
POLYLINE
  5
82
  8
1BY1
 66
     1
 10
0.0
 20
0.0
 30
1.0
 70
     1
1001
DCO15
1071
        2
1071
        2
1000
new-all-density-link
1004
0000000000003B40
  0
VERTEX
  5
1847
  8
1BY1
 10
99821.0
 20
482448.0
 30
1.0
  0
VERTEX
  5
1848
  8
1BY1
 10
99822.0
 20
482448.0
 30
1.0
  0
VERTEX
  5
1849
  8
1BY1
 10
99822.0
 20
482449.0
 30
1.0
  0
VERTEX
  5
184A
  8
1BY1
 10
99821.0
 20
482449.0
 30
1.0
  0
SEQEND
  5
184B
  8
1BY1
  0
POLYLINE
  5
83
  8
1BY1
 66
     1
 10
0.0
 20
0.0
 30
1.0
 70
     1
1001
DCO15
1071
        2
1071
        2
1000
new-all-density-link
1004
0000000000003C40
  0
VERTEX
  5
184C
  8
1BY1
 10
100017.0
 20
482757.0
 30
1.0
  0
VERTEX
  5
184D
  8
1BY1
 10
100018.0
 20
482757.0
 30
1.0
  0
VERTEX
  5
184E
  8
1BY1
 10
100018.0
 20
482758.0
 30
1.0
  0
VERTEX
  5
184F
  8
1BY1
 10
100017.0
 20
482758.0
 30
1.0
  0
SEQEND
  5
1850
  8
1BY1
  0
POLYLINE
  5
84
  8
1BY1
 66
     1
 10
0.0
 20
0.0
 30
1.6000000000000001
 70
     1
1001
DCO15
1071
        2
1071
        2
1000
new-all-density-link
1004
0000000000003D40
  0
VERTEX
  5
1851
  8
1BY1
 10
100006.0
 20
482762.0
 30
1.6000000000000001
  0
VERTEX
  5
1852
  8
1BY1
 10
100007.0
 20
482762.0
 30
1.6000000000000001
  0
VERTEX
  5
1853
  8
1BY1
 10
100007.0
 20
482763.0
 30
1.6000000000000001
  0
VERTEX
  5
1854
  8
1BY1
 10
100006.0
 20
482763.0
 30
1.6000000000000001
  0
SEQEND
  5
1855
  8
1BY1
  0
POLYLINE
  5
85
  8
1BY1
 66
     1
 10
0.0
 20
0.0
 30
1.0
 70
     1
1001
DCO15
1071
        2
1071
        2
1000
new-all-density-link
1004
0000000000003E40
  0
VERTEX
  5
1856
  8
1BY1
 10
99824.0
 20
482339.0
 30
1.0
  0
VERTEX
  5
1857
  8
1BY1
 10
99825.0
 20
482339.0
 30
1.0
  0
VERTEX
  5
1858
  8
1BY1
 10
99825.0
 20
482340.0
 30
1.0
  0
VERTEX
  5
1859
  8
1BY1
 10
99824.0
 20
482340.0
 30
1.0
  0
SEQEND
  5
185A
  8
1BY1
  0
POLYLINE
  5
86
  8
1BY1
 66
     1
 10
0.0
 20
0.0
 30
1.0
 70
     1
1001
DCO15
1071
        2
1071
        2
1000
new-all-density-link
1004
0000000000004340
  0
VERTEX
  5
185B
  8
1BY1
 10
99821.0
 20
482252.0
 30
1.0
  0
VERTEX
  5
185C
  8
1BY1
 10
99822.0
 20
482252.0
 30
1.0
  0
VERTEX
  5
185D
  8
1BY1
 10
99822.0
 20
482253.0
 30
1.0
  0
VERTEX
  5
185E
  8
1BY1
 10
99821.0
 20
482253.0
 30
1.0
  0
SEQEND
  5
185F
  8
1BY1
  0
POLYLINE
  5
87
  8
1BY1
 66
     1
 10
0.0
 20
0.0
 30
2.0
 70
     1
1001
DCO15
1071
        2
1071
        2
1000
new-all-density-link
1004
0000000000804340
  0
VERTEX
  5
1860
  8
1BY1
 10
99823.0
 20
482258.0
 30
2.0
  0
VERTEX
  5
1861
  8
1BY1
 10
99824.0
 20
482258.0
 30
2.0
  0
VERTEX
  5
1862
  8
1BY1
 10
99824.0
 20
482259.0
 30
2.0
  0
VERTEX
  5
1863
  8
1BY1
 10
99823.0
 20
482259.0
 30
2.0
  0
SEQEND
  5
1864
  8
1BY1
  0
POLYLINE
  5
88
  8
1BY1
 66
     1
 10
0.0
 20
0.0
 30
1.0
 70
     1
1001
DCO15
1071
        2
1071
        2
1000
new-all-density-link
1004
0000000000004440
  0
VERTEX
  5
1865
  8
1BY1
 10
99813.0
 20
482279.0
 30
1.0
  0
VERTEX
  5
1866
  8
1BY1
 10
99814.0
 20
482279.0
 30
1.0
  0
VERTEX
  5
1867
  8
1BY1
 10
99814.0
 20
482280.0
 30
1.0
  0
VERTEX
  5
1868
  8
1BY1
 10
99813.0
 20
482280.0
 30
1.0
  0
SEQEND
  5
1869
  8
1BY1
  0
POLYLINE
  5
89
  8
1BY1
 66
     1
 10
0.0
 20
0.0
 30
1.0
 70
     1
1001
DCO15
1071
        2
1071
        2
1000
new-all-density-link
1004
0000000000004540
  0
VERTEX
  5
186A
  8
1BY1
 10
99806.0
 20
482310.0
 30
1.0
  0
VERTEX
  5
186B
  8
1BY1
 10
99807.0
 20
482310.0
 30
1.0
  0
VERTEX
  5
186C
  8
1BY1
 10
99807.0
 20
482311.0
 30
1.0
  0
VERTEX
  5
186D
  8
1BY1
 10
99806.0
 20
482311.0
 30
1.0
  0
SEQEND
  5
186E
  8
1BY1
  0
POLYLINE
  5
8A
  8
1BY1
 66
     1
 10
0.0
 20
0.0
 30
1.0
 70
     1
1001
DCO15
1071
        2
1071
        2
1000
new-all-density-link
1004
0000000000804540
  0
VERTEX
  5
186F
  8
1BY1
 10
99809.0
 20
482307.0
 30
1.0
  0
VERTEX
  5
1870
  8
1BY1
 10
99810.0
 20
482307.0
 30
1.0
  0
VERTEX
  5
1871
  8
1BY1
 10
99810.0
 20
482308.0
 30
1.0
  0
VERTEX
  5
1872
  8
1BY1
 10
99809.0
 20
482308.0
 30
1.0
  0
SEQEND
  5
1873
  8
1BY1
  0
POLYLINE
  5
8B
  8
1BY1
 66
     1
 10
0.0
 20
0.0
 30
2.0
 70
     1
1001
DCO15
1071
        2
1071
        2
1000
new-all-density-link
1004
0000000000004640
  0
VERTEX
  5
1874
  8
1BY1
 10
99810.0
 20
482297.0
 30
2.0
  0
VERTEX
  5
1875
  8
1BY1
 10
99811.0
 20
482297.0
 30
2.0
  0
VERTEX
  5
1876
  8
1BY1
 10
99811.0
 20
482298.0
 30
2.0
  0
VERTEX
  5
1877
  8
1BY1
 10
99810.0
 20
482298.0
 30
2.0
  0
SEQEND
  5
1878
  8
1BY1
  0
POLYLINE
  5
8C
  8
1BY1
 66
     1
 10
0.0
 20
0.0
 30
1.6000000000000001
 70
     1
1001
DCO15
1071
        2
1071
        2
1000
new-all-density-link
1004
0000000000804640
  0
VERTEX
  5
1879
  8
1BY1
 10
99839.0
 20
482351.0
 30
1.6000000000000001
  0
VERTEX
  5
187A
  8
1BY1
 10
99840.0
 20
482351.0
 30
1.6000000000000001
  0
VERTEX
  5
187B
  8
1BY1
 10
99840.0
 20
482352.0
 30
1.6000000000000001
  0
VERTEX
  5
187C
  8
1BY1
 10
99839.0
 20
482352.0
 30
1.6000000000000001
  0
SEQEND
  5
187D
  8
1BY1
  0
POLYLINE
  5
8D
  8
1BY1
 66
     1
 10
0.0
 20
0.0
 30
3.2000000000000002
 70
     1
1001
DCO15
1071
        2
1071
        2
1000
new-all-density-link
1004
0000000000004740
  0
VERTEX
  5
187E
  8
1BY1
 10
99838.0
 20
482353.0
 30
3.2000000000000002
  0
VERTEX
  5
187F
  8
1BY1
 10
99839.0
 20
482353.0
 30
3.2000000000000002
  0
VERTEX
  5
1880
  8
1BY1
 10
99839.0
 20
482354.0
 30
3.2000000000000002
  0
VERTEX
  5
1881
  8
1BY1
 10
99838.0
 20
482354.0
 30
3.2000000000000002
  0
SEQEND
  5
1882
  8
1BY1
  0
POLYLINE
  5
8E
  8
1BY1
 66
     1
 10
0.0
 20
0.0
 30
1.6000000000000001
 70
     1
1001
DCO15
1071
        2
1071
        2
1000
new-all-density-link
1004
0000000000804B40
  0
VERTEX
  5
1883
  8
1BY1
 10
99969.0
 20
482493.0
 30
1.6000000000000001
  0
VERTEX
  5
1884
  8
1BY1
 10
99970.0
 20
482493.0
 30
1.6000000000000001
  0
VERTEX
  5
1885
  8
1BY1
 10
99970.0
 20
482494.0
 30
1.6000000000000001
  0
VERTEX
  5
1886
  8
1BY1
 10
99969.0
 20
482494.0
 30
1.6000000000000001
  0
SEQEND
  5
1887
  8
1BY1
  0
POLYLINE
  5
8F
  8
1BY1
 66
     1
 10
0.0
 20
0.0
 30
1.6000000000000001
 70
     1
1001
DCO15
1071
        2
1071
        2
1000
new-all-density-link
1004
0000000000004C40
  0
VERTEX
  5
1888
  8
1BY1
 10
99881.0
 20
482356.0
 30
1.6000000000000001
  0
VERTEX
  5
1889
  8
1BY1
 10
99882.0
 20
482356.0
 30
1.6000000000000001
  0
VERTEX
  5
188A
  8
1BY1
 10
99882.0
 20
482357.0
 30
1.6000000000000001
  0
VERTEX
  5
188B
  8
1BY1
 10
99881.0
 20
482357.0
 30
1.6000000000000001
  0
SEQEND
  5
188C
  8
1BY1
  0
POLYLINE
  5
90
  8
1BY1
 66
     1
 10
0.0
 20
0.0
 30
1.6000000000000001
 70
     1
1001
DCO15
1071
        2
1071
        2
1000
new-all-density-link
1004
0000000000804C40
  0
VERTEX
  5
188D
  8
1BY1
 10
99837.0
 20
482179.0
 30
1.6000000000000001
  0
VERTEX
  5
188E
  8
1BY1
 10
99838.0
 20
482179.0
 30
1.6000000000000001
  0
VERTEX
  5
188F
  8
1BY1
 10
99838.0
 20
482180.0
 30
1.6000000000000001
  0
VERTEX
  5
1890
  8
1BY1
 10
99837.0
 20
482180.0
 30
1.6000000000000001
  0
SEQEND
  5
1891
  8
1BY1
  0
POLYLINE
  5
91
  8
1BY1
 66
     1
 10
0.0
 20
0.0
 30
3.2000000000000002
 70
     1
1001
DCO15
1071
        2
1071
        2
1000
new-all-density-link
1004
0000000000004D40
  0
VERTEX
  5
1892
  8
1BY1
 10
99849.0
 20
482248.0
 30
3.2000000000000002
  0
VERTEX
  5
1893
  8
1BY1
 10
99850.0
 20
482248.0
 30
3.2000000000000002
  0
VERTEX
  5
1894
  8
1BY1
 10
99850.0
 20
482249.0
 30
3.2000000000000002
  0
VERTEX
  5
1895
  8
1BY1
 10
99849.0
 20
482249.0
 30
3.2000000000000002
  0
SEQEND
  5
1896
  8
1BY1
  0
POLYLINE
  5
92
  8
1BY1
 66
     1
 10
0.0
 20
0.0
 30
4.7999999999999989
 70
     1
1001
DCO15
1071
        2
1071
        2
1000
new-all-density-link
1004
0000000000805140
  0
VERTEX
  5
1897
  8
1BY1
 10
99882.0
 20
482322.0
 30
4.7999999999999989
  0
VERTEX
  5
1898
  8
1BY1
 10
99883.0
 20
482322.0
 30
4.7999999999999989
  0
VERTEX
  5
1899
  8
1BY1
 10
99883.0
 20
482323.0
 30
4.7999999999999989
  0
VERTEX
  5
189A
  8
1BY1
 10
99882.0
 20
482323.0
 30
4.7999999999999989
  0
SEQEND
  5
189B
  8
1BY1
  0
POLYLINE
  5
93
  8
1BY1
 66
     1
 10
0.0
 20
0.0
 30
4.7999999999999989
 70
     1
1001
DCO15
1071
        2
1071
        2
1000
new-all-density-link
1004
0000000000C05240
  0
VERTEX
  5
189C
  8
1BY1
 10
99885.0
 20
482304.0
 30
4.7999999999999989
  0
VERTEX
  5
189D
  8
1BY1
 10
99886.0
 20
482304.0
 30
4.7999999999999989
  0
VERTEX
  5
189E
  8
1BY1
 10
99886.0
 20
482305.0
 30
4.7999999999999989
  0
VERTEX
  5
189F
  8
1BY1
 10
99885.0
 20
482305.0
 30
4.7999999999999989
  0
SEQEND
  5
18A0
  8
1BY1
  0
POLYLINE
  5
94
  8
1BY1
 66
     1
 10
0.0
 20
0.0
 30
1.6000000000000001
 70
     1
1001
DCO15
1071
        2
1071
        2
1000
new-all-density-link
1004
0000000000C05340
  0
VERTEX
  5
18A1
  8
1BY1
 10
99883.0
 20
482341.0
 30
1.6000000000000001
  0
VERTEX
  5
18A2
  8
1BY1
 10
99884.0
 20
482341.0
 30
1.6000000000000001
  0
VERTEX
  5
18A3
  8
1BY1
 10
99884.0
 20
482342.0
 30
1.6000000000000001
  0
VERTEX
  5
18A4
  8
1BY1
 10
99883.0
 20
482342.0
 30
1.6000000000000001
  0
SEQEND
  5
18A5
  8
1BY1
  0
POLYLINE
  5
95
  8
1BY1
 66
     1
 10
0.0
 20
0.0
 30
1.6000000000000001
 70
     1
1001
DCO15
1071
        2
1071
        2
1000
new-all-density-link
1004
0000000000405440
  0
VERTEX
  5
18A6
  8
1BY1
 10
99645.0
 20
482838.0
 30
1.6000000000000001
  0
VERTEX
  5
18A7
  8
1BY1
 10
99646.0
 20
482838.0
 30
1.6000000000000001
  0
VERTEX
  5
18A8
  8
1BY1
 10
99646.0
 20
482839.0
 30
1.6000000000000001
  0
VERTEX
  5
18A9
  8
1BY1
 10
99645.0
 20
482839.0
 30
1.6000000000000001
  0
SEQEND
  5
18AA
  8
1BY1
  0
POLYLINE
  5
96
  8
1BY1
 66
     1
 10
0.0
 20
0.0
 30
1.0
 70
     1
1001
DCO15
1071
        2
1071
        2
1000
new-all-density-link
1004
0000000000805440
  0
VERTEX
  5
18AB
  8
1BY1
 10
99647.0
 20
482833.0
 30
1.0
  0
VERTEX
  5
18AC
  8
1BY1
 10
99648.0
 20
482833.0
 30
1.0
  0
VERTEX
  5
18AD
  8
1BY1
 10
99648.0
 20
482834.0
 30
1.0
  0
VERTEX
  5
18AE
  8
1BY1
 10
99647.0
 20
482834.0
 30
1.0
  0
SEQEND
  5
18AF
  8
1BY1
  0
POLYLINE
  5
97
  8
1BY1
 66
     1
 10
0.0
 20
0.0
 30
3.2000000000000002
 70
     1
1001
DCO15
1071
        2
1071
        2
1000
new-all-density-link
1004
0000000000C05440
  0
VERTEX
  5
18B0
  8
1BY1
 10
99884.0
 20
482334.0
 30
3.2000000000000002
  0
VERTEX
  5
18B1
  8
1BY1
 10
99885.0
 20
482334.0
 30
3.2000000000000002
  0
VERTEX
  5
18B2
  8
1BY1
 10
99885.0
 20
482335.0
 30
3.2000000000000002
  0
VERTEX
  5
18B3
  8
1BY1
 10
99884.0
 20
482335.0
 30
3.2000000000000002
  0
SEQEND
  5
18B4
  8
1BY1
  0
POLYLINE
  5
98
  8
1BY1
 66
     1
 10
0.0
 20
0.0
 30
1.0
 70
     1
1001
DCO15
1071
        2
1071
        2
1000
new-all-density-link
1004
0000000000005540
  0
VERTEX
  5
18B5
  8
1BY1
 10
99625.0
 20
482839.0
 30
1.0
  0
VERTEX
  5
18B6
  8
1BY1
 10
99626.0
 20
482839.0
 30
1.0
  0
VERTEX
  5
18B7
  8
1BY1
 10
99626.0
 20
482840.0
 30
1.0
  0
VERTEX
  5
18B8
  8
1BY1
 10
99625.0
 20
482840.0
 30
1.0
  0
SEQEND
  5
18B9
  8
1BY1
  0
POLYLINE
  5
99
  8
1BY1
 66
     1
 10
0.0
 20
0.0
 30
1.6000000000000001
 70
     1
1001
DCO15
1071
        2
1071
        2
1000
new-all-density-link
1004
0000000000405540
  0
VERTEX
  5
18BA
  8
1BY1
 10
99628.0
 20
482839.0
 30
1.6000000000000001
  0
VERTEX
  5
18BB
  8
1BY1
 10
99629.0
 20
482839.0
 30
1.6000000000000001
  0
VERTEX
  5
18BC
  8
1BY1
 10
99629.0
 20
482840.0
 30
1.6000000000000001
  0
VERTEX
  5
18BD
  8
1BY1
 10
99628.0
 20
482840.0
 30
1.6000000000000001
  0
SEQEND
  5
18BE
  8
1BY1
  0
POLYLINE
  5
9A
  8
1BY1
 66
     1
 10
0.0
 20
0.0
 30
1.0
 70
     1
1001
DCO15
1071
        2
1071
        2
1000
new-all-density-link
1004
0000000000805540
  0
VERTEX
  5
18BF
  8
1BY1
 10
99615.0
 20
482706.0
 30
1.0
  0
VERTEX
  5
18C0
  8
1BY1
 10
99616.0
 20
482706.0
 30
1.0
  0
VERTEX
  5
18C1
  8
1BY1
 10
99616.0
 20
482707.0
 30
1.0
  0
VERTEX
  5
18C2
  8
1BY1
 10
99615.0
 20
482707.0
 30
1.0
  0
SEQEND
  5
18C3
  8
1BY1
  0
POLYLINE
  5
9B
  8
1BY1
 66
     1
 10
0.0
 20
0.0
 30
4.0
 70
     1
1001
DCO15
1071
        2
1071
        2
1000
new-all-density-link
1004
0000000000405940
  0
VERTEX
  5
18C4
  8
1BY1
 10
99747.0
 20
483703.0
 30
4.0
  0
VERTEX
  5
18C5
  8
1BY1
 10
99748.0
 20
483703.0
 30
4.0
  0
VERTEX
  5
18C6
  8
1BY1
 10
99748.0
 20
483704.0
 30
4.0
  0
VERTEX
  5
18C7
  8
1BY1
 10
99747.0
 20
483704.0
 30
4.0
  0
SEQEND
  5
18C8
  8
1BY1
  0
POLYLINE
  5
9C
  8
1BY1
 66
     1
 10
0.0
 20
0.0
 30
1.0
 70
     1
1001
DCO15
1071
        2
1071
        2
1000
new-all-density-link
1004
0000000000406840
  0
VERTEX
  5
18C9
  8
1BY1
 10
99681.0
 20
483633.0
 30
1.0
  0
VERTEX
  5
18CA
  8
1BY1
 10
99682.0
 20
483633.0
 30
1.0
  0
VERTEX
  5
18CB
  8
1BY1
 10
99682.0
 20
483634.0
 30
1.0
  0
VERTEX
  5
18CC
  8
1BY1
 10
99681.0
 20
483634.0
 30
1.0
  0
SEQEND
  5
18CD
  8
1BY1
  0
POLYLINE
  5
9D
  8
1BY1
 66
     1
 10
0.0
 20
0.0
 30
1.0
 70
     1
1001
DCO15
1071
        2
1071
        2
1000
new-all-density-link
1004
0000000000606840
  0
VERTEX
  5
18CE
  8
1BY1
 10
99681.0
 20
483649.0
 30
1.0
  0
VERTEX
  5
18CF
  8
1BY1
 10
99682.0
 20
483649.0
 30
1.0
  0
VERTEX
  5
18D0
  8
1BY1
 10
99682.0
 20
483650.0
 30
1.0
  0
VERTEX
  5
18D1
  8
1BY1
 10
99681.0
 20
483650.0
 30
1.0
  0
SEQEND
  5
18D2
  8
1BY1
  0
POLYLINE
  5
9E
  8
1BY1
 66
     1
 10
0.0
 20
0.0
 30
1.0
 70
     1
1001
DCO15
1071
        2
1071
        2
1000
new-all-density-link
1004
0000000000606B40
  0
VERTEX
  5
18D3
  8
1BY1
 10
99655.0
 20
483617.0
 30
1.0
  0
VERTEX
  5
18D4
  8
1BY1
 10
99656.0
 20
483617.0
 30
1.0
  0
VERTEX
  5
18D5
  8
1BY1
 10
99656.0
 20
483618.0
 30
1.0
  0
VERTEX
  5
18D6
  8
1BY1
 10
99655.0
 20
483618.0
 30
1.0
  0
SEQEND
  5
18D7
  8
1BY1
  0
POLYLINE
  5
9F
  8
1BY1
 66
     1
 10
0.0
 20
0.0
 30
1.0
 70
     1
1001
DCO15
1071
        2
1071
        2
1000
new-all-density-link
1004
0000000000A06B40
  0
VERTEX
  5
18D8
  8
1BY1
 10
99585.0
 20
483665.0
 30
1.0
  0
VERTEX
  5
18D9
  8
1BY1
 10
99586.0
 20
483665.0
 30
1.0
  0
VERTEX
  5
18DA
  8
1BY1
 10
99586.0
 20
483666.0
 30
1.0
  0
VERTEX
  5
18DB
  8
1BY1
 10
99585.0
 20
483666.0
 30
1.0
  0
SEQEND
  5
18DC
  8
1BY1
  0
POLYLINE
  5
A0
  8
1BY1
 66
     1
 10
0.0
 20
0.0
 30
1.0
 70
     1
1001
DCO15
1071
        2
1071
        2
1000
new-all-density-link
1004
0000000000A06C40
  0
VERTEX
  5
18DD
  8
1BY1
 10
99535.0
 20
483589.0
 30
1.0
  0
VERTEX
  5
18DE
  8
1BY1
 10
99536.0
 20
483589.0
 30
1.0
  0
VERTEX
  5
18DF
  8
1BY1
 10
99536.0
 20
483590.0
 30
1.0
  0
VERTEX
  5
18E0
  8
1BY1
 10
99535.0
 20
483590.0
 30
1.0
  0
SEQEND
  5
18E1
  8
1BY1
  0
POLYLINE
  5
A1
  8
1BY1
 66
     1
 10
0.0
 20
0.0
 30
1.0
 70
     1
1001
DCO15
1071
        2
1071
        2
1000
new-all-density-link
1004
0000000000C06C40
  0
VERTEX
  5
18E2
  8
1BY1
 10
99509.0
 20
483645.0
 30
1.0
  0
VERTEX
  5
18E3
  8
1BY1
 10
99510.0
 20
483645.0
 30
1.0
  0
VERTEX
  5
18E4
  8
1BY1
 10
99510.0
 20
483646.0
 30
1.0
  0
VERTEX
  5
18E5
  8
1BY1
 10
99509.0
 20
483646.0
 30
1.0
  0
SEQEND
  5
18E6
  8
1BY1
  0
POLYLINE
  5
A2
  8
1BY1
 66
     1
 10
0.0
 20
0.0
 30
1.0
 70
     1
1001
DCO15
1071
        2
1071
        2
1000
new-all-density-link
1004
0000000000E06C40
  0
VERTEX
  5
18E7
  8
1BY1
 10
99503.0
 20
483643.0
 30
1.0
  0
VERTEX
  5
18E8
  8
1BY1
 10
99504.0
 20
483643.0
 30
1.0
  0
VERTEX
  5
18E9
  8
1BY1
 10
99504.0
 20
483644.0
 30
1.0
  0
VERTEX
  5
18EA
  8
1BY1
 10
99503.0
 20
483644.0
 30
1.0
  0
SEQEND
  5
18EB
  8
1BY1
  0
POLYLINE
  5
A3
  8
1BY1
 66
     1
 10
0.0
 20
0.0
 30
5.0
 70
     1
1001
DCO15
1071
        2
1071
        2
1000
new-all-density-link
1004
0000000000006E40
  0
VERTEX
  5
18EC
  8
1BY1
 10
99656.0
 20
483795.0
 30
5.0
  0
VERTEX
  5
18ED
  8
1BY1
 10
99657.0
 20
483795.0
 30
5.0
  0
VERTEX
  5
18EE
  8
1BY1
 10
99657.0
 20
483796.0
 30
5.0
  0
VERTEX
  5
18EF
  8
1BY1
 10
99656.0
 20
483796.0
 30
5.0
  0
SEQEND
  5
18F0
  8
1BY1
  0
POLYLINE
  5
A4
  8
1BY1
 66
     1
 10
0.0
 20
0.0
 30
1.0
 70
     1
1001
DCO15
1071
        2
1071
        2
1000
new-all-density-link
1004
0000000000307740
  0
VERTEX
  5
18F1
  8
1BY1
 10
99560.0
 20
483646.0
 30
1.0
  0
VERTEX
  5
18F2
  8
1BY1
 10
99561.0
 20
483646.0
 30
1.0
  0
VERTEX
  5
18F3
  8
1BY1
 10
99561.0
 20
483647.0
 30
1.0
  0
VERTEX
  5
18F4
  8
1BY1
 10
99560.0
 20
483647.0
 30
1.0
  0
SEQEND
  5
18F5
  8
1BY1
  0
POLYLINE
  5
A5
  8
1BY1
 66
     1
 10
0.0
 20
0.0
 30
1.0
 70
     1
1001
DCO15
1071
        2
1071
        2
1000
new-all-density-link
1004
0000000000407940
  0
VERTEX
  5
18F6
  8
1BY1
 10
99624.0
 20
482021.0
 30
1.0
  0
VERTEX
  5
18F7
  8
1BY1
 10
99625.0
 20
482021.0
 30
1.0
  0
VERTEX
  5
18F8
  8
1BY1
 10
99625.0
 20
482022.0
 30
1.0
  0
VERTEX
  5
18F9
  8
1BY1
 10
99624.0
 20
482022.0
 30
1.0
  0
SEQEND
  5
18FA
  8
1BY1
  0
POLYLINE
  5
A6
  8
1BY1
 66
     1
 10
0.0
 20
0.0
 30
1.7
 70
     1
1001
DCO15
1071
        2
1071
        2
1000
new-all-density-link
1004
0000000000507940
  0
VERTEX
  5
18FB
  8
1BY1
 10
99756.0
 20
481986.0
 30
1.7
  0
VERTEX
  5
18FC
  8
1BY1
 10
99757.0
 20
481986.0
 30
1.7
  0
VERTEX
  5
18FD
  8
1BY1
 10
99757.0
 20
481987.0
 30
1.7
  0
VERTEX
  5
18FE
  8
1BY1
 10
99756.0
 20
481987.0
 30
1.7
  0
SEQEND
  5
18FF
  8
1BY1
  0
POLYLINE
  5
A7
  8
1BY1
 66
     1
 10
0.0
 20
0.0
 30
1.7
 70
     1
1001
DCO15
1071
        2
1071
        2
1000
new-all-density-link
1004
0000000000607940
  0
VERTEX
  5
1900
  8
1BY1
 10
99779.0
 20
482073.0
 30
1.7
  0
VERTEX
  5
1901
  8
1BY1
 10
99780.0
 20
482073.0
 30
1.7
  0
VERTEX
  5
1902
  8
1BY1
 10
99780.0
 20
482074.0
 30
1.7
  0
VERTEX
  5
1903
  8
1BY1
 10
99779.0
 20
482074.0
 30
1.7
  0
SEQEND
  5
1904
  8
1BY1
  0
POLYLINE
  5
A8
  8
1BY1
 66
     1
 10
0.0
 20
0.0
 30
3.2000000000000002
 70
     1
1001
DCO15
1071
        2
1071
        2
1000
new-all-density-link
1004
0000000000707940
  0
VERTEX
  5
1905
  8
1BY1
 10
99763.0
 20
482381.0
 30
3.2000000000000002
  0
VERTEX
  5
1906
  8
1BY1
 10
99764.0
 20
482381.0
 30
3.2000000000000002
  0
VERTEX
  5
1907
  8
1BY1
 10
99764.0
 20
482382.0
 30
3.2000000000000002
  0
VERTEX
  5
1908
  8
1BY1
 10
99763.0
 20
482382.0
 30
3.2000000000000002
  0
SEQEND
  5
1909
  8
1BY1
  0
POLYLINE
  5
A9
  8
1BY1
 66
     1
 10
0.0
 20
0.0
 30
1.0
 70
     1
1001
DCO15
1071
        2
1071
        2
1000
new-all-density-link
1004
0000000000807940
  0
VERTEX
  5
190A
  8
1BY1
 10
99708.0
 20
482422.0
 30
1.0
  0
VERTEX
  5
190B
  8
1BY1
 10
99709.0
 20
482422.0
 30
1.0
  0
VERTEX
  5
190C
  8
1BY1
 10
99709.0
 20
482423.0
 30
1.0
  0
VERTEX
  5
190D
  8
1BY1
 10
99708.0
 20
482423.0
 30
1.0
  0
SEQEND
  5
190E
  8
1BY1
  0
POLYLINE
  5
AA
  8
1BY1
 66
     1
 10
0.0
 20
0.0
 30
1.0
 70
     1
1001
DCO15
1071
        2
1071
        2
1000
new-all-density-link
1004
0000000000A07940
  0
VERTEX
  5
190F
  8
1BY1
 10
99594.0
 20
482033.0
 30
1.0
  0
VERTEX
  5
1910
  8
1BY1
 10
99595.0
 20
482033.0
 30
1.0
  0
VERTEX
  5
1911
  8
1BY1
 10
99595.0
 20
482034.0
 30
1.0
  0
VERTEX
  5
1912
  8
1BY1
 10
99594.0
 20
482034.0
 30
1.0
  0
SEQEND
  5
1913
  8
1BY1
  0
POLYLINE
  5
AB
  8
1BY1
 66
     1
 10
0.0
 20
0.0
 30
1.6000000000000001
 70
     1
1001
DCO15
1071
        2
1071
        2
1000
new-all-density-link
1004
0000000000B07940
  0
VERTEX
  5
1914
  8
1BY1
 10
99608.0
 20
482046.0
 30
1.6000000000000001
  0
VERTEX
  5
1915
  8
1BY1
 10
99609.0
 20
482046.0
 30
1.6000000000000001
  0
VERTEX
  5
1916
  8
1BY1
 10
99609.0
 20
482047.0
 30
1.6000000000000001
  0
VERTEX
  5
1917
  8
1BY1
 10
99608.0
 20
482047.0
 30
1.6000000000000001
  0
SEQEND
  5
1918
  8
1BY1
  0
POLYLINE
  5
AC
  8
1BY1
 66
     1
 10
0.0
 20
0.0
 30
1.6000000000000001
 70
     1
1001
DCO15
1071
        2
1071
        2
1000
new-all-density-link
1004
0000000000C07940
  0
VERTEX
  5
1919
  8
1BY1
 10
99605.0
 20
482052.0
 30
1.6000000000000001
  0
VERTEX
  5
191A
  8
1BY1
 10
99606.0
 20
482052.0
 30
1.6000000000000001
  0
VERTEX
  5
191B
  8
1BY1
 10
99606.0
 20
482053.0
 30
1.6000000000000001
  0
VERTEX
  5
191C
  8
1BY1
 10
99605.0
 20
482053.0
 30
1.6000000000000001
  0
SEQEND
  5
191D
  8
1BY1
  0
POLYLINE
  5
AD
  8
1BY1
 66
     1
 10
0.0
 20
0.0
 30
1.0
 70
     1
1001
DCO15
1071
        2
1071
        2
1000
new-all-density-link
1004
0000000000D07940
  0
VERTEX
  5
191E
  8
1BY1
 10
99605.0
 20
482055.0
 30
1.0
  0
VERTEX
  5
191F
  8
1BY1
 10
99606.0
 20
482055.0
 30
1.0
  0
VERTEX
  5
1920
  8
1BY1
 10
99606.0
 20
482056.0
 30
1.0
  0
VERTEX
  5
1921
  8
1BY1
 10
99605.0
 20
482056.0
 30
1.0
  0
SEQEND
  5
1922
  8
1BY1
  0
POLYLINE
  5
AE
  8
1BY1
 66
     1
 10
0.0
 20
0.0
 30
1.0
 70
     1
1001
DCO15
1071
        2
1071
        2
1000
new-all-density-link
1004
0000000000E07940
  0
VERTEX
  5
1923
  8
1BY1
 10
99599.0
 20
482052.0
 30
1.0
  0
VERTEX
  5
1924
  8
1BY1
 10
99600.0
 20
482052.0
 30
1.0
  0
VERTEX
  5
1925
  8
1BY1
 10
99600.0
 20
482053.0
 30
1.0
  0
VERTEX
  5
1926
  8
1BY1
 10
99599.0
 20
482053.0
 30
1.0
  0
SEQEND
  5
1927
  8
1BY1
  0
POLYLINE
  5
AF
  8
1BY1
 66
     1
 10
0.0
 20
0.0
 30
1.7
 70
     1
1001
DCO15
1071
        2
1071
        2
1000
new-all-density-link
1004
0000000000F07940
  0
VERTEX
  5
1928
  8
1BY1
 10
99622.0
 20
482016.0
 30
1.7
  0
VERTEX
  5
1929
  8
1BY1
 10
99623.0
 20
482016.0
 30
1.7
  0
VERTEX
  5
192A
  8
1BY1
 10
99623.0
 20
482017.0
 30
1.7
  0
VERTEX
  5
192B
  8
1BY1
 10
99622.0
 20
482017.0
 30
1.7
  0
SEQEND
  5
192C
  8
1BY1
  0
POLYLINE
  5
B0
  8
1BY1
 66
     1
 10
0.0
 20
0.0
 30
1.0
 70
     1
1001
DCO15
1071
        2
1071
        2
1000
new-all-density-link
1004
0000000000007A40
  0
VERTEX
  5
192D
  8
1BY1
 10
99621.0
 20
482020.0
 30
1.0
  0
VERTEX
  5
192E
  8
1BY1
 10
99622.0
 20
482020.0
 30
1.0
  0
VERTEX
  5
192F
  8
1BY1
 10
99622.0
 20
482021.0
 30
1.0
  0
VERTEX
  5
1930
  8
1BY1
 10
99621.0
 20
482021.0
 30
1.0
  0
SEQEND
  5
1931
  8
1BY1
  0
POLYLINE
  5
B1
  8
1BY1
 66
     1
 10
0.0
 20
0.0
 30
3.399999999999999
 70
     1
1001
DCO15
1071
        2
1071
        2
1000
new-all-density-link
1004
0000000000107A40
  0
VERTEX
  5
1932
  8
1BY1
 10
99620.0
 20
482013.0
 30
3.399999999999999
  0
VERTEX
  5
1933
  8
1BY1
 10
99621.0
 20
482013.0
 30
3.399999999999999
  0
VERTEX
  5
1934
  8
1BY1
 10
99621.0
 20
482014.0
 30
3.399999999999999
  0
VERTEX
  5
1935
  8
1BY1
 10
99620.0
 20
482014.0
 30
3.399999999999999
  0
SEQEND
  5
1936
  8
1BY1
  0
POLYLINE
  5
B2
  8
1BY1
 66
     1
 10
0.0
 20
0.0
 30
1.0
 70
     1
1001
DCO15
1071
        2
1071
        2
1000
new-all-density-link
1004
0000000000207A40
  0
VERTEX
  5
1937
  8
1BY1
 10
99732.0
 20
482400.0
 30
1.0
  0
VERTEX
  5
1938
  8
1BY1
 10
99733.0
 20
482400.0
 30
1.0
  0
VERTEX
  5
1939
  8
1BY1
 10
99733.0
 20
482401.0
 30
1.0
  0
VERTEX
  5
193A
  8
1BY1
 10
99732.0
 20
482401.0
 30
1.0
  0
SEQEND
  5
193B
  8
1BY1
  0
POLYLINE
  5
B3
  8
1BY1
 66
     1
 10
0.0
 20
0.0
 30
1.0
 70
     1
1001
DCO15
1071
        2
1071
        2
1000
new-all-density-link
1004
0000000000307A40
  0
VERTEX
  5
193C
  8
1BY1
 10
99570.0
 20
482393.0
 30
1.0
  0
VERTEX
  5
193D
  8
1BY1
 10
99571.0
 20
482393.0
 30
1.0
  0
VERTEX
  5
193E
  8
1BY1
 10
99571.0
 20
482394.0
 30
1.0
  0
VERTEX
  5
193F
  8
1BY1
 10
99570.0
 20
482394.0
 30
1.0
  0
SEQEND
  5
1940
  8
1BY1
  0
POLYLINE
  5
B4
  8
1BY1
 66
     1
 10
0.0
 20
0.0
 30
1.0
 70
     1
1001
DCO15
1071
        2
1071
        2
1000
new-all-density-link
1004
0000000000407A40
  0
VERTEX
  5
1941
  8
1BY1
 10
99563.0
 20
482372.0
 30
1.0
  0
VERTEX
  5
1942
  8
1BY1
 10
99564.0
 20
482372.0
 30
1.0
  0
VERTEX
  5
1943
  8
1BY1
 10
99564.0
 20
482373.0
 30
1.0
  0
VERTEX
  5
1944
  8
1BY1
 10
99563.0
 20
482373.0
 30
1.0
  0
SEQEND
  5
1945
  8
1BY1
  0
POLYLINE
  5
B5
  8
1BY1
 66
     1
 10
0.0
 20
0.0
 30
6.0
 70
     1
1001
DCO15
1071
        2
1071
        2
1000
new-all-density-link
1004
0000000000507A40
  0
VERTEX
  5
1946
  8
1BY1
 10
99599.0
 20
482461.0
 30
6.0
  0
VERTEX
  5
1947
  8
1BY1
 10
99600.0
 20
482461.0
 30
6.0
  0
VERTEX
  5
1948
  8
1BY1
 10
99600.0
 20
482462.0
 30
6.0
  0
VERTEX
  5
1949
  8
1BY1
 10
99599.0
 20
482462.0
 30
6.0
  0
SEQEND
  5
194A
  8
1BY1
  0
POLYLINE
  5
B6
  8
1BY1
 66
     1
 10
0.0
 20
0.0
 30
1.0
 70
     1
1001
DCO15
1071
        2
1071
        2
1000
new-all-density-link
1004
0000000000607A40
  0
VERTEX
  5
194B
  8
1BY1
 10
99625.0
 20
482496.0
 30
1.0
  0
VERTEX
  5
194C
  8
1BY1
 10
99626.0
 20
482496.0
 30
1.0
  0
VERTEX
  5
194D
  8
1BY1
 10
99626.0
 20
482497.0
 30
1.0
  0
VERTEX
  5
194E
  8
1BY1
 10
99625.0
 20
482497.0
 30
1.0
  0
SEQEND
  5
194F
  8
1BY1
  0
POLYLINE
  5
B7
  8
1BY1
 66
     1
 10
0.0
 20
0.0
 30
7.0
 70
     1
1001
DCO15
1071
        2
1071
        2
1000
new-all-density-link
1004
0000000000707A40
  0
VERTEX
  5
1950
  8
1BY1
 10
99594.0
 20
482023.0
 30
7.0
  0
VERTEX
  5
1951
  8
1BY1
 10
99595.0
 20
482023.0
 30
7.0
  0
VERTEX
  5
1952
  8
1BY1
 10
99595.0
 20
482024.0
 30
7.0
  0
VERTEX
  5
1953
  8
1BY1
 10
99594.0
 20
482024.0
 30
7.0
  0
SEQEND
  5
1954
  8
1BY1
  0
POLYLINE
  5
B8
  8
1BY1
 66
     1
 10
0.0
 20
0.0
 30
1.6000000000000001
 70
     1
1001
DCO15
1071
        2
1071
        2
1000
new-all-density-link
1004
0000000000807A40
  0
VERTEX
  5
1955
  8
1BY1
 10
99678.0
 20
482009.0
 30
1.6000000000000001
  0
VERTEX
  5
1956
  8
1BY1
 10
99679.0
 20
482009.0
 30
1.6000000000000001
  0
VERTEX
  5
1957
  8
1BY1
 10
99679.0
 20
482010.0
 30
1.6000000000000001
  0
VERTEX
  5
1958
  8
1BY1
 10
99678.0
 20
482010.0
 30
1.6000000000000001
  0
SEQEND
  5
1959
  8
1BY1
  0
POLYLINE
  5
B9
  8
1BY1
 66
     1
 10
0.0
 20
0.0
 30
1.6000000000000001
 70
     1
1001
DCO15
1071
        2
1071
        2
1000
new-all-density-link
1004
0000000000907A40
  0
VERTEX
  5
195A
  8
1BY1
 10
99732.0
 20
482028.0
 30
1.6000000000000001
  0
VERTEX
  5
195B
  8
1BY1
 10
99733.0
 20
482028.0
 30
1.6000000000000001
  0
VERTEX
  5
195C
  8
1BY1
 10
99733.0
 20
482029.0
 30
1.6000000000000001
  0
VERTEX
  5
195D
  8
1BY1
 10
99732.0
 20
482029.0
 30
1.6000000000000001
  0
SEQEND
  5
195E
  8
1BY1
  0
POLYLINE
  5
BA
  8
1BY1
 66
     1
 10
0.0
 20
0.0
 30
1.0
 70
     1
1001
DCO15
1071
        2
1071
        2
1000
new-all-density-link
1004
0000000000A07A40
  0
VERTEX
  5
195F
  8
1BY1
 10
99635.0
 20
482409.0
 30
1.0
  0
VERTEX
  5
1960
  8
1BY1
 10
99636.0
 20
482409.0
 30
1.0
  0
VERTEX
  5
1961
  8
1BY1
 10
99636.0
 20
482410.0
 30
1.0
  0
VERTEX
  5
1962
  8
1BY1
 10
99635.0
 20
482410.0
 30
1.0
  0
SEQEND
  5
1963
  8
1BY1
  0
POLYLINE
  5
BB
  8
1BY1
 66
     1
 10
0.0
 20
0.0
 30
1.0
 70
     1
1001
DCO15
1071
        2
1071
        2
1000
new-all-density-link
1004
0000000000B07A40
  0
VERTEX
  5
1964
  8
1BY1
 10
99655.0
 20
482421.0
 30
1.0
  0
VERTEX
  5
1965
  8
1BY1
 10
99656.0
 20
482421.0
 30
1.0
  0
VERTEX
  5
1966
  8
1BY1
 10
99656.0
 20
482422.0
 30
1.0
  0
VERTEX
  5
1967
  8
1BY1
 10
99655.0
 20
482422.0
 30
1.0
  0
SEQEND
  5
1968
  8
1BY1
  0
POLYLINE
  5
BC
  8
1BY1
 66
     1
 10
0.0
 20
0.0
 30
1.0
 70
     1
1001
DCO15
1071
        2
1071
        2
1000
new-all-density-link
1004
0000000000C07A40
  0
VERTEX
  5
1969
  8
1BY1
 10
99586.0
 20
482419.0
 30
1.0
  0
VERTEX
  5
196A
  8
1BY1
 10
99587.0
 20
482419.0
 30
1.0
  0
VERTEX
  5
196B
  8
1BY1
 10
99587.0
 20
482420.0
 30
1.0
  0
VERTEX
  5
196C
  8
1BY1
 10
99586.0
 20
482420.0
 30
1.0
  0
SEQEND
  5
196D
  8
1BY1
  0
POLYLINE
  5
BD
  8
1BY1
 66
     1
 10
0.0
 20
0.0
 30
1.0
 70
     1
1001
DCO15
1071
        2
1071
        2
1000
new-all-density-link
1004
0000000000D07A40
  0
VERTEX
  5
196E
  8
1BY1
 10
99600.0
 20
482373.0
 30
1.0
  0
VERTEX
  5
196F
  8
1BY1
 10
99601.0
 20
482373.0
 30
1.0
  0
VERTEX
  5
1970
  8
1BY1
 10
99601.0
 20
482374.0
 30
1.0
  0
VERTEX
  5
1971
  8
1BY1
 10
99600.0
 20
482374.0
 30
1.0
  0
SEQEND
  5
1972
  8
1BY1
  0
POLYLINE
  5
BE
  8
1BY1
 66
     1
 10
0.0
 20
0.0
 30
1.6000000000000001
 70
     1
1001
DCO15
1071
        2
1071
        2
1000
new-all-density-link
1004
0000000000E07A40
  0
VERTEX
  5
1973
  8
1BY1
 10
99595.0
 20
482336.0
 30
1.6000000000000001
  0
VERTEX
  5
1974
  8
1BY1
 10
99596.0
 20
482336.0
 30
1.6000000000000001
  0
VERTEX
  5
1975
  8
1BY1
 10
99596.0
 20
482337.0
 30
1.6000000000000001
  0
VERTEX
  5
1976
  8
1BY1
 10
99595.0
 20
482337.0
 30
1.6000000000000001
  0
SEQEND
  5
1977
  8
1BY1
  0
POLYLINE
  5
BF
  8
1BY1
 66
     1
 10
0.0
 20
0.0
 30
1.0
 70
     1
1001
DCO15
1071
        2
1071
        2
1000
new-all-density-link
1004
0000000000207B40
  0
VERTEX
  5
1978
  8
1BY1
 10
99403.0
 20
483353.0
 30
1.0
  0
VERTEX
  5
1979
  8
1BY1
 10
99404.0
 20
483353.0
 30
1.0
  0
VERTEX
  5
197A
  8
1BY1
 10
99404.0
 20
483354.0
 30
1.0
  0
VERTEX
  5
197B
  8
1BY1
 10
99403.0
 20
483354.0
 30
1.0
  0
SEQEND
  5
197C
  8
1BY1
  0
POLYLINE
  5
C0
  8
1BY1
 66
     1
 10
0.0
 20
0.0
 30
1.0
 70
     1
1001
DCO15
1071
        2
1071
        2
1000
new-all-density-link
1004
0000000000807B40
  0
VERTEX
  5
197D
  8
1BY1
 10
99431.0
 20
482092.0
 30
1.0
  0
VERTEX
  5
197E
  8
1BY1
 10
99432.0
 20
482092.0
 30
1.0
  0
VERTEX
  5
197F
  8
1BY1
 10
99432.0
 20
482093.0
 30
1.0
  0
VERTEX
  5
1980
  8
1BY1
 10
99431.0
 20
482093.0
 30
1.0
  0
SEQEND
  5
1981
  8
1BY1
  0
POLYLINE
  5
C1
  8
1BY1
 66
     1
 10
0.0
 20
0.0
 30
1.0
 70
     1
1001
DCO15
1071
        2
1071
        2
1000
new-all-density-link
1004
0000000000907B40
  0
VERTEX
  5
1982
  8
1BY1
 10
99448.0
 20
482101.0
 30
1.0
  0
VERTEX
  5
1983
  8
1BY1
 10
99449.0
 20
482101.0
 30
1.0
  0
VERTEX
  5
1984
  8
1BY1
 10
99449.0
 20
482102.0
 30
1.0
  0
VERTEX
  5
1985
  8
1BY1
 10
99448.0
 20
482102.0
 30
1.0
  0
SEQEND
  5
1986
  8
1BY1
  0
POLYLINE
  5
C2
  8
1BY1
 66
     1
 10
0.0
 20
0.0
 30
5.0999999999999979
 70
     1
1001
DCO15
1071
        2
1071
        2
1000
new-all-density-link
1004
0000000000A07B40
  0
VERTEX
  5
1987
  8
1BY1
 10
99397.0
 20
482102.0
 30
5.0999999999999979
  0
VERTEX
  5
1988
  8
1BY1
 10
99398.0
 20
482102.0
 30
5.0999999999999979
  0
VERTEX
  5
1989
  8
1BY1
 10
99398.0
 20
482103.0
 30
5.0999999999999979
  0
VERTEX
  5
198A
  8
1BY1
 10
99397.0
 20
482103.0
 30
5.0999999999999979
  0
SEQEND
  5
198B
  8
1BY1
  0
POLYLINE
  5
C3
  8
1BY1
 66
     1
 10
0.0
 20
0.0
 30
17.0
 70
     1
1001
DCO15
1071
        2
1071
        2
1000
new-all-density-link
1004
0000000000C07B40
  0
VERTEX
  5
198C
  8
1BY1
 10
99342.0
 20
482097.0
 30
17.0
  0
VERTEX
  5
198D
  8
1BY1
 10
99343.0
 20
482097.0
 30
17.0
  0
VERTEX
  5
198E
  8
1BY1
 10
99343.0
 20
482098.0
 30
17.0
  0
VERTEX
  5
198F
  8
1BY1
 10
99342.0
 20
482098.0
 30
17.0
  0
SEQEND
  5
1990
  8
1BY1
  0
POLYLINE
  5
C4
  8
1BY1
 66
     1
 10
0.0
 20
0.0
 30
1.7
 70
     1
1001
DCO15
1071
        2
1071
        2
1000
new-all-density-link
1004
0000000000D07B40
  0
VERTEX
  5
1991
  8
1BY1
 10
99399.0
 20
482101.0
 30
1.7
  0
VERTEX
  5
1992
  8
1BY1
 10
99400.0
 20
482101.0
 30
1.7
  0
VERTEX
  5
1993
  8
1BY1
 10
99400.0
 20
482102.0
 30
1.7
  0
VERTEX
  5
1994
  8
1BY1
 10
99399.0
 20
482102.0
 30
1.7
  0
SEQEND
  5
1995
  8
1BY1
  0
POLYLINE
  5
C5
  8
1BY1
 66
     1
 10
0.0
 20
0.0
 30
3.4500000000000002
 70
     1
1001
DCO15
1071
        2
1071
        2
1000
new-all-density-link
1004
0000000000E07B40
  0
VERTEX
  5
1996
  8
1BY1
 10
99379.0
 20
482104.0
 30
3.4500000000000002
  0
VERTEX
  5
1997
  8
1BY1
 10
99380.0
 20
482104.0
 30
3.4500000000000002
  0
VERTEX
  5
1998
  8
1BY1
 10
99380.0
 20
482105.0
 30
3.4500000000000002
  0
VERTEX
  5
1999
  8
1BY1
 10
99379.0
 20
482105.0
 30
3.4500000000000002
  0
SEQEND
  5
199A
  8
1BY1
  0
POLYLINE
  5
C6
  8
1BY1
 66
     1
 10
0.0
 20
0.0
 30
1.6000000000000001
 70
     1
1001
DCO15
1071
        2
1071
        2
1000
new-all-density-link
1004
0000000000F07B40
  0
VERTEX
  5
199B
  8
1BY1
 10
99468.0
 20
482043.0
 30
1.6000000000000001
  0
VERTEX
  5
199C
  8
1BY1
 10
99469.0
 20
482043.0
 30
1.6000000000000001
  0
VERTEX
  5
199D
  8
1BY1
 10
99469.0
 20
482044.0
 30
1.6000000000000001
  0
VERTEX
  5
199E
  8
1BY1
 10
99468.0
 20
482044.0
 30
1.6000000000000001
  0
SEQEND
  5
199F
  8
1BY1
  0
POLYLINE
  5
C7
  8
1BY1
 66
     1
 10
0.0
 20
0.0
 30
1.7
 70
     1
1001
DCO15
1071
        2
1071
        2
1000
new-all-density-link
1004
0000000000007C40
  0
VERTEX
  5
19A0
  8
1BY1
 10
99362.0
 20
482054.0
 30
1.7
  0
VERTEX
  5
19A1
  8
1BY1
 10
99363.0
 20
482054.0
 30
1.7
  0
VERTEX
  5
19A2
  8
1BY1
 10
99363.0
 20
482055.0
 30
1.7
  0
VERTEX
  5
19A3
  8
1BY1
 10
99362.0
 20
482055.0
 30
1.7
  0
SEQEND
  5
19A4
  8
1BY1
  0
POLYLINE
  5
C8
  8
1BY1
 66
     1
 10
0.0
 20
0.0
 30
1.6000000000000001
 70
     1
1001
DCO15
1071
        2
1071
        2
1000
new-all-density-link
1004
0000000000107C40
  0
VERTEX
  5
19A5
  8
1BY1
 10
99238.0
 20
482011.0
 30
1.6000000000000001
  0
VERTEX
  5
19A6
  8
1BY1
 10
99239.0
 20
482011.0
 30
1.6000000000000001
  0
VERTEX
  5
19A7
  8
1BY1
 10
99239.0
 20
482012.0
 30
1.6000000000000001
  0
VERTEX
  5
19A8
  8
1BY1
 10
99238.0
 20
482012.0
 30
1.6000000000000001
  0
SEQEND
  5
19A9
  8
1BY1
  0
POLYLINE
  5
C9
  8
1BY1
 66
     1
 10
0.0
 20
0.0
 30
12.800000000000001
 70
     1
1001
DCO15
1071
        2
1071
        2
1000
new-all-density-link
1004
0000000000207C40
  0
VERTEX
  5
19AA
  8
1BY1
 10
99237.0
 20
482019.0
 30
12.800000000000001
  0
VERTEX
  5
19AB
  8
1BY1
 10
99238.0
 20
482019.0
 30
12.800000000000001
  0
VERTEX
  5
19AC
  8
1BY1
 10
99238.0
 20
482020.0
 30
12.800000000000001
  0
VERTEX
  5
19AD
  8
1BY1
 10
99237.0
 20
482020.0
 30
12.800000000000001
  0
SEQEND
  5
19AE
  8
1BY1
  0
POLYLINE
  5
CA
  8
1BY1
 66
     1
 10
0.0
 20
0.0
 30
1.6000000000000001
 70
     1
1001
DCO15
1071
        2
1071
        2
1000
new-all-density-link
1004
0000000000307C40
  0
VERTEX
  5
19AF
  8
1BY1
 10
99376.0
 20
482142.0
 30
1.6000000000000001
  0
VERTEX
  5
19B0
  8
1BY1
 10
99377.0
 20
482142.0
 30
1.6000000000000001
  0
VERTEX
  5
19B1
  8
1BY1
 10
99377.0
 20
482143.0
 30
1.6000000000000001
  0
VERTEX
  5
19B2
  8
1BY1
 10
99376.0
 20
482143.0
 30
1.6000000000000001
  0
SEQEND
  5
19B3
  8
1BY1
  0
POLYLINE
  5
CB
  8
1BY1
 66
     1
 10
0.0
 20
0.0
 30
6.0
 70
     1
1001
DCO15
1071
        2
1071
        2
1000
new-all-density-link
1004
0000000000407C40
  0
VERTEX
  5
19B4
  8
1BY1
 10
99407.0
 20
482275.0
 30
6.0
  0
VERTEX
  5
19B5
  8
1BY1
 10
99408.0
 20
482275.0
 30
6.0
  0
VERTEX
  5
19B6
  8
1BY1
 10
99408.0
 20
482276.0
 30
6.0
  0
VERTEX
  5
19B7
  8
1BY1
 10
99407.0
 20
482276.0
 30
6.0
  0
SEQEND
  5
19B8
  8
1BY1
  0
POLYLINE
  5
CC
  8
1BY1
 66
     1
 10
0.0
 20
0.0
 30
4.0
 70
     1
1001
DCO15
1071
        2
1071
        2
1000
new-all-density-link
1004
0000000000607C40
  0
VERTEX
  5
19B9
  8
1BY1
 10
99273.0
 20
482800.0
 30
4.0
  0
VERTEX
  5
19BA
  8
1BY1
 10
99274.0
 20
482800.0
 30
4.0
  0
VERTEX
  5
19BB
  8
1BY1
 10
99274.0
 20
482801.0
 30
4.0
  0
VERTEX
  5
19BC
  8
1BY1
 10
99273.0
 20
482801.0
 30
4.0
  0
SEQEND
  5
19BD
  8
1BY1
  0
POLYLINE
  5
CD
  8
1BY1
 66
     1
 10
0.0
 20
0.0
 30
1.0
 70
     1
1001
DCO15
1071
        2
1071
        2
1000
new-all-density-link
1004
0000000000907C40
  0
VERTEX
  5
19BE
  8
1BY1
 10
99296.0
 20
482189.0
 30
1.0
  0
VERTEX
  5
19BF
  8
1BY1
 10
99297.0
 20
482189.0
 30
1.0
  0
VERTEX
  5
19C0
  8
1BY1
 10
99297.0
 20
482190.0
 30
1.0
  0
VERTEX
  5
19C1
  8
1BY1
 10
99296.0
 20
482190.0
 30
1.0
  0
SEQEND
  5
19C2
  8
1BY1
  0
POLYLINE
  5
CE
  8
1BY1
 66
     1
 10
0.0
 20
0.0
 30
1.6000000000000001
 70
     1
1001
DCO15
1071
        2
1071
        2
1000
new-all-density-link
1004
0000000000A07C40
  0
VERTEX
  5
19C3
  8
1BY1
 10
99294.0
 20
482174.0
 30
1.6000000000000001
  0
VERTEX
  5
19C4
  8
1BY1
 10
99295.0
 20
482174.0
 30
1.6000000000000001
  0
VERTEX
  5
19C5
  8
1BY1
 10
99295.0
 20
482175.0
 30
1.6000000000000001
  0
VERTEX
  5
19C6
  8
1BY1
 10
99294.0
 20
482175.0
 30
1.6000000000000001
  0
SEQEND
  5
19C7
  8
1BY1
  0
POLYLINE
  5
CF
  8
1BY1
 66
     1
 10
0.0
 20
0.0
 30
1.6000000000000001
 70
     1
1001
DCO15
1071
        2
1071
        2
1000
new-all-density-link
1004
0000000000B07C40
  0
VERTEX
  5
19C8
  8
1BY1
 10
99276.0
 20
482219.0
 30
1.6000000000000001
  0
VERTEX
  5
19C9
  8
1BY1
 10
99277.0
 20
482219.0
 30
1.6000000000000001
  0
VERTEX
  5
19CA
  8
1BY1
 10
99277.0
 20
482220.0
 30
1.6000000000000001
  0
VERTEX
  5
19CB
  8
1BY1
 10
99276.0
 20
482220.0
 30
1.6000000000000001
  0
SEQEND
  5
19CC
  8
1BY1
  0
POLYLINE
  5
D0
  8
1BY1
 66
     1
 10
0.0
 20
0.0
 30
4.0
 70
     1
1001
DCO15
1071
        2
1071
        2
1000
new-all-density-link
1004
0000000000C07C40
  0
VERTEX
  5
19CD
  8
1BY1
 10
99000.0
 20
482340.0
 30
4.0
  0
VERTEX
  5
19CE
  8
1BY1
 10
99001.0
 20
482340.0
 30
4.0
  0
VERTEX
  5
19CF
  8
1BY1
 10
99001.0
 20
482341.0
 30
4.0
  0
VERTEX
  5
19D0
  8
1BY1
 10
99000.0
 20
482341.0
 30
4.0
  0
SEQEND
  5
19D1
  8
1BY1
  0
POLYLINE
  5
D1
  8
1BY1
 66
     1
 10
0.0
 20
0.0
 30
1.0
 70
     1
1001
DCO15
1071
        2
1071
        2
1000
new-all-density-link
1004
0000000000D07C40
  0
VERTEX
  5
19D2
  8
1BY1
 10
99325.0
 20
482171.0
 30
1.0
  0
VERTEX
  5
19D3
  8
1BY1
 10
99326.0
 20
482171.0
 30
1.0
  0
VERTEX
  5
19D4
  8
1BY1
 10
99326.0
 20
482172.0
 30
1.0
  0
VERTEX
  5
19D5
  8
1BY1
 10
99325.0
 20
482172.0
 30
1.0
  0
SEQEND
  5
19D6
  8
1BY1
  0
POLYLINE
  5
D2
  8
1BY1
 66
     1
 10
0.0
 20
0.0
 30
8.0
 70
     1
1001
DCO15
1071
        2
1071
        2
1000
new-all-density-link
1004
0000000000E07C40
  0
VERTEX
  5
19D7
  8
1BY1
 10
99303.0
 20
482097.0
 30
8.0
  0
VERTEX
  5
19D8
  8
1BY1
 10
99304.0
 20
482097.0
 30
8.0
  0
VERTEX
  5
19D9
  8
1BY1
 10
99304.0
 20
482098.0
 30
8.0
  0
VERTEX
  5
19DA
  8
1BY1
 10
99303.0
 20
482098.0
 30
8.0
  0
SEQEND
  5
19DB
  8
1BY1
  0
POLYLINE
  5
D3
  8
1BY1
 66
     1
 10
0.0
 20
0.0
 30
1.0
 70
     1
1001
DCO15
1071
        2
1071
        2
1000
new-all-density-link
1004
0000000000F07C40
  0
VERTEX
  5
19DC
  8
1BY1
 10
99136.0
 20
482144.0
 30
1.0
  0
VERTEX
  5
19DD
  8
1BY1
 10
99137.0
 20
482144.0
 30
1.0
  0
VERTEX
  5
19DE
  8
1BY1
 10
99137.0
 20
482145.0
 30
1.0
  0
VERTEX
  5
19DF
  8
1BY1
 10
99136.0
 20
482145.0
 30
1.0
  0
SEQEND
  5
19E0
  8
1BY1
  0
POLYLINE
  5
D4
  8
1BY1
 66
     1
 10
0.0
 20
0.0
 30
2.0
 70
     1
1001
DCO15
1071
        2
1071
        2
1000
new-all-density-link
1004
0000000000007D40
  0
VERTEX
  5
19E1
  8
1BY1
 10
99312.0
 20
482331.0
 30
2.0
  0
VERTEX
  5
19E2
  8
1BY1
 10
99313.0
 20
482331.0
 30
2.0
  0
VERTEX
  5
19E3
  8
1BY1
 10
99313.0
 20
482332.0
 30
2.0
  0
VERTEX
  5
19E4
  8
1BY1
 10
99312.0
 20
482332.0
 30
2.0
  0
SEQEND
  5
19E5
  8
1BY1
  0
POLYLINE
  5
D5
  8
1BY1
 66
     1
 10
0.0
 20
0.0
 30
1.6000000000000001
 70
     1
1001
DCO15
1071
        2
1071
        2
1000
new-all-density-link
1004
0000000000407D40
  0
VERTEX
  5
19E6
  8
1BY1
 10
99122.0
 20
482171.0
 30
1.6000000000000001
  0
VERTEX
  5
19E7
  8
1BY1
 10
99123.0
 20
482171.0
 30
1.6000000000000001
  0
VERTEX
  5
19E8
  8
1BY1
 10
99123.0
 20
482172.0
 30
1.6000000000000001
  0
VERTEX
  5
19E9
  8
1BY1
 10
99122.0
 20
482172.0
 30
1.6000000000000001
  0
SEQEND
  5
19EA
  8
1BY1
  0
POLYLINE
  5
D6
  8
1BY1
 66
     1
 10
0.0
 20
0.0
 30
6.4000000000000004
 70
     1
1001
DCO15
1071
        2
1071
        2
1000
new-all-density-link
1004
0000000000507D40
  0
VERTEX
  5
19EB
  8
1BY1
 10
99130.0
 20
482135.0
 30
6.4000000000000004
  0
VERTEX
  5
19EC
  8
1BY1
 10
99131.0
 20
482135.0
 30
6.4000000000000004
  0
VERTEX
  5
19ED
  8
1BY1
 10
99131.0
 20
482136.0
 30
6.4000000000000004
  0
VERTEX
  5
19EE
  8
1BY1
 10
99130.0
 20
482136.0
 30
6.4000000000000004
  0
SEQEND
  5
19EF
  8
1BY1
  0
POLYLINE
  5
D7
  8
1BY1
 66
     1
 10
0.0
 20
0.0
 30
1.0
 70
     1
1001
DCO15
1071
        2
1071
        2
1000
new-all-density-link
1004
0000000000607D40
  0
VERTEX
  5
19F0
  8
1BY1
 10
99108.0
 20
482167.0
 30
1.0
  0
VERTEX
  5
19F1
  8
1BY1
 10
99109.0
 20
482167.0
 30
1.0
  0
VERTEX
  5
19F2
  8
1BY1
 10
99109.0
 20
482168.0
 30
1.0
  0
VERTEX
  5
19F3
  8
1BY1
 10
99108.0
 20
482168.0
 30
1.0
  0
SEQEND
  5
19F4
  8
1BY1
  0
POLYLINE
  5
D8
  8
1BY1
 66
     1
 10
0.0
 20
0.0
 30
4.7999999999999989
 70
     1
1001
DCO15
1071
        2
1071
        2
1000
new-all-density-link
1004
0000000000707D40
  0
VERTEX
  5
19F5
  8
1BY1
 10
99088.0
 20
482173.0
 30
4.7999999999999989
  0
VERTEX
  5
19F6
  8
1BY1
 10
99089.0
 20
482173.0
 30
4.7999999999999989
  0
VERTEX
  5
19F7
  8
1BY1
 10
99089.0
 20
482174.0
 30
4.7999999999999989
  0
VERTEX
  5
19F8
  8
1BY1
 10
99088.0
 20
482174.0
 30
4.7999999999999989
  0
SEQEND
  5
19F9
  8
1BY1
  0
POLYLINE
  5
D9
  8
1BY1
 66
     1
 10
0.0
 20
0.0
 30
1.0
 70
     1
1001
DCO15
1071
        2
1071
        2
1000
new-all-density-link
1004
0000000000807D40
  0
VERTEX
  5
19FA
  8
1BY1
 10
99060.0
 20
482168.0
 30
1.0
  0
VERTEX
  5
19FB
  8
1BY1
 10
99061.0
 20
482168.0
 30
1.0
  0
VERTEX
  5
19FC
  8
1BY1
 10
99061.0
 20
482169.0
 30
1.0
  0
VERTEX
  5
19FD
  8
1BY1
 10
99060.0
 20
482169.0
 30
1.0
  0
SEQEND
  5
19FE
  8
1BY1
  0
POLYLINE
  5
DA
  8
1BY1
 66
     1
 10
0.0
 20
0.0
 30
2.0
 70
     1
1001
DCO15
1071
        2
1071
        2
1000
new-all-density-link
1004
0000000000907D40
  0
VERTEX
  5
19FF
  8
1BY1
 10
99144.0
 20
482124.0
 30
2.0
  0
VERTEX
  5
1A00
  8
1BY1
 10
99145.0
 20
482124.0
 30
2.0
  0
VERTEX
  5
1A01
  8
1BY1
 10
99145.0
 20
482125.0
 30
2.0
  0
VERTEX
  5
1A02
  8
1BY1
 10
99144.0
 20
482125.0
 30
2.0
  0
SEQEND
  5
1A03
  8
1BY1
  0
POLYLINE
  5
DB
  8
1BY1
 66
     1
 10
0.0
 20
0.0
 30
1.6000000000000001
 70
     1
1001
DCO15
1071
        2
1071
        2
1000
new-all-density-link
1004
0000000000A07D40
  0
VERTEX
  5
1A04
  8
1BY1
 10
99080.0
 20
482172.0
 30
1.6000000000000001
  0
VERTEX
  5
1A05
  8
1BY1
 10
99081.0
 20
482172.0
 30
1.6000000000000001
  0
VERTEX
  5
1A06
  8
1BY1
 10
99081.0
 20
482173.0
 30
1.6000000000000001
  0
VERTEX
  5
1A07
  8
1BY1
 10
99080.0
 20
482173.0
 30
1.6000000000000001
  0
SEQEND
  5
1A08
  8
1BY1
  0
POLYLINE
  5
DC
  8
1BY1
 66
     1
 10
0.0
 20
0.0
 30
1.6000000000000001
 70
     1
1001
DCO15
1071
        2
1071
        2
1000
new-all-density-link
1004
0000000000B07D40
  0
VERTEX
  5
1A09
  8
1BY1
 10
99088.0
 20
482226.0
 30
1.6000000000000001
  0
VERTEX
  5
1A0A
  8
1BY1
 10
99089.0
 20
482226.0
 30
1.6000000000000001
  0
VERTEX
  5
1A0B
  8
1BY1
 10
99089.0
 20
482227.0
 30
1.6000000000000001
  0
VERTEX
  5
1A0C
  8
1BY1
 10
99088.0
 20
482227.0
 30
1.6000000000000001
  0
SEQEND
  5
1A0D
  8
1BY1
  0
POLYLINE
  5
DD
  8
1BY1
 66
     1
 10
0.0
 20
0.0
 30
3.2000000000000002
 70
     1
1001
DCO15
1071
        2
1071
        2
1000
new-all-density-link
1004
0000000000C07D40
  0
VERTEX
  5
1A0E
  8
1BY1
 10
99082.0
 20
482118.0
 30
3.2000000000000002
  0
VERTEX
  5
1A0F
  8
1BY1
 10
99083.0
 20
482118.0
 30
3.2000000000000002
  0
VERTEX
  5
1A10
  8
1BY1
 10
99083.0
 20
482119.0
 30
3.2000000000000002
  0
VERTEX
  5
1A11
  8
1BY1
 10
99082.0
 20
482119.0
 30
3.2000000000000002
  0
SEQEND
  5
1A12
  8
1BY1
  0
POLYLINE
  5
DE
  8
1BY1
 66
     1
 10
0.0
 20
0.0
 30
1.0
 70
     1
1001
DCO15
1071
        2
1071
        2
1000
new-all-density-link
1004
0000000000D07D40
  0
VERTEX
  5
1A13
  8
1BY1
 10
99631.0
 20
482473.0
 30
1.0
  0
VERTEX
  5
1A14
  8
1BY1
 10
99632.0
 20
482473.0
 30
1.0
  0
VERTEX
  5
1A15
  8
1BY1
 10
99632.0
 20
482474.0
 30
1.0
  0
VERTEX
  5
1A16
  8
1BY1
 10
99631.0
 20
482474.0
 30
1.0
  0
SEQEND
  5
1A17
  8
1BY1
  0
POLYLINE
  5
DF
  8
1BY1
 66
     1
 10
0.0
 20
0.0
 30
1.0
 70
     1
1001
DCO15
1071
        2
1071
        2
1000
new-all-density-link
1004
0000000000E07D40
  0
VERTEX
  5
1A18
  8
1BY1
 10
99555.0
 20
482422.0
 30
1.0
  0
VERTEX
  5
1A19
  8
1BY1
 10
99556.0
 20
482422.0
 30
1.0
  0
VERTEX
  5
1A1A
  8
1BY1
 10
99556.0
 20
482423.0
 30
1.0
  0
VERTEX
  5
1A1B
  8
1BY1
 10
99555.0
 20
482423.0
 30
1.0
  0
SEQEND
  5
1A1C
  8
1BY1
  0
POLYLINE
  5
E0
  8
1BY1
 66
     1
 10
0.0
 20
0.0
 30
1.0
 70
     1
1001
DCO15
1071
        2
1071
        2
1000
new-all-density-link
1004
0000000000F07D40
  0
VERTEX
  5
1A1D
  8
1BY1
 10
100097.0
 20
482080.0
 30
1.0
  0
VERTEX
  5
1A1E
  8
1BY1
 10
100098.0
 20
482080.0
 30
1.0
  0
VERTEX
  5
1A1F
  8
1BY1
 10
100098.0
 20
482081.0
 30
1.0
  0
VERTEX
  5
1A20
  8
1BY1
 10
100097.0
 20
482081.0
 30
1.0
  0
SEQEND
  5
1A21
  8
1BY1
  0
POLYLINE
  5
E1
  8
1BY1
 66
     1
 10
0.0
 20
0.0
 30
3.0
 70
     1
1001
DCO15
1071
        2
1071
        2
1000
new-all-density-link
1004
0000000000007E40
  0
VERTEX
  5
1A22
  8
1BY1
 10
99995.0
 20
482057.0
 30
3.0
  0
VERTEX
  5
1A23
  8
1BY1
 10
99996.0
 20
482057.0
 30
3.0
  0
VERTEX
  5
1A24
  8
1BY1
 10
99996.0
 20
482058.0
 30
3.0
  0
VERTEX
  5
1A25
  8
1BY1
 10
99995.0
 20
482058.0
 30
3.0
  0
SEQEND
  5
1A26
  8
1BY1
  0
POLYLINE
  5
E2
  8
1BY1
 66
     1
 10
0.0
 20
0.0
 30
1.0
 70
     1
1001
DCO15
1071
        2
1071
        2
1000
new-all-density-link
1004
0000000000107E40
  0
VERTEX
  5
1A27
  8
1BY1
 10
100031.0
 20
482046.0
 30
1.0
  0
VERTEX
  5
1A28
  8
1BY1
 10
100032.0
 20
482046.0
 30
1.0
  0
VERTEX
  5
1A29
  8
1BY1
 10
100032.0
 20
482047.0
 30
1.0
  0
VERTEX
  5
1A2A
  8
1BY1
 10
100031.0
 20
482047.0
 30
1.0
  0
SEQEND
  5
1A2B
  8
1BY1
  0
POLYLINE
  5
E3
  8
1BY1
 66
     1
 10
0.0
 20
0.0
 30
8.0
 70
     1
1001
DCO15
1071
        2
1071
        2
1000
new-all-density-link
1004
0000000000207E40
  0
VERTEX
  5
1A2C
  8
1BY1
 10
100026.0
 20
482049.0
 30
8.0
  0
VERTEX
  5
1A2D
  8
1BY1
 10
100027.0
 20
482049.0
 30
8.0
  0
VERTEX
  5
1A2E
  8
1BY1
 10
100027.0
 20
482050.0
 30
8.0
  0
VERTEX
  5
1A2F
  8
1BY1
 10
100026.0
 20
482050.0
 30
8.0
  0
SEQEND
  5
1A30
  8
1BY1
  0
POLYLINE
  5
E4
  8
1BY1
 66
     1
 10
0.0
 20
0.0
 30
4.0
 70
     1
1001
DCO15
1071
        2
1071
        2
1000
new-all-density-link
1004
0000000000307E40
  0
VERTEX
  5
1A31
  8
1BY1
 10
100065.0
 20
482042.0
 30
4.0
  0
VERTEX
  5
1A32
  8
1BY1
 10
100066.0
 20
482042.0
 30
4.0
  0
VERTEX
  5
1A33
  8
1BY1
 10
100066.0
 20
482043.0
 30
4.0
  0
VERTEX
  5
1A34
  8
1BY1
 10
100065.0
 20
482043.0
 30
4.0
  0
SEQEND
  5
1A35
  8
1BY1
  0
POLYLINE
  5
E5
  8
1BY1
 66
     1
 10
0.0
 20
0.0
 30
8.0
 70
     1
1001
DCO15
1071
        2
1071
        2
1000
new-all-density-link
1004
0000000000407E40
  0
VERTEX
  5
1A36
  8
1BY1
 10
100142.0
 20
482042.0
 30
8.0
  0
VERTEX
  5
1A37
  8
1BY1
 10
100143.0
 20
482042.0
 30
8.0
  0
VERTEX
  5
1A38
  8
1BY1
 10
100143.0
 20
482043.0
 30
8.0
  0
VERTEX
  5
1A39
  8
1BY1
 10
100142.0
 20
482043.0
 30
8.0
  0
SEQEND
  5
1A3A
  8
1BY1
  0
POLYLINE
  5
E6
  8
1BY1
 66
     1
 10
0.0
 20
0.0
 30
5.0
 70
     1
1001
DCO15
1071
        2
1071
        2
1000
new-all-density-link
1004
0000000000707E40
  0
VERTEX
  5
1A3B
  8
1BY1
 10
100156.0
 20
482037.0
 30
5.0
  0
VERTEX
  5
1A3C
  8
1BY1
 10
100157.0
 20
482037.0
 30
5.0
  0
VERTEX
  5
1A3D
  8
1BY1
 10
100157.0
 20
482038.0
 30
5.0
  0
VERTEX
  5
1A3E
  8
1BY1
 10
100156.0
 20
482038.0
 30
5.0
  0
SEQEND
  5
1A3F
  8
1BY1
  0
POLYLINE
  5
E7
  8
1BY1
 66
     1
 10
0.0
 20
0.0
 30
1.0
 70
     1
1001
DCO15
1071
        2
1071
        2
1000
new-all-density-link
1004
0000000000A07E40
  0
VERTEX
  5
1A40
  8
1BY1
 10
100248.0
 20
482021.0
 30
1.0
  0
VERTEX
  5
1A41
  8
1BY1
 10
100249.0
 20
482021.0
 30
1.0
  0
VERTEX
  5
1A42
  8
1BY1
 10
100249.0
 20
482022.0
 30
1.0
  0
VERTEX
  5
1A43
  8
1BY1
 10
100248.0
 20
482022.0
 30
1.0
  0
SEQEND
  5
1A44
  8
1BY1
  0
POLYLINE
  5
E8
  8
1BY1
 66
     1
 10
0.0
 20
0.0
 30
2.0
 70
     1
1001
DCO15
1071
        2
1071
        2
1000
new-all-density-link
1004
0000000000B07E40
  0
VERTEX
  5
1A45
  8
1BY1
 10
100372.0
 20
482016.0
 30
2.0
  0
VERTEX
  5
1A46
  8
1BY1
 10
100373.0
 20
482016.0
 30
2.0
  0
VERTEX
  5
1A47
  8
1BY1
 10
100373.0
 20
482017.0
 30
2.0
  0
VERTEX
  5
1A48
  8
1BY1
 10
100372.0
 20
482017.0
 30
2.0
  0
SEQEND
  5
1A49
  8
1BY1
  0
POLYLINE
  5
E9
  8
1BY1
 66
     1
 10
0.0
 20
0.0
 30
1.0
 70
     1
1001
DCO15
1071
        2
1071
        2
1000
new-all-density-link
1004
0000000000C07E40
  0
VERTEX
  5
1A4A
  8
1BY1
 10
100416.0
 20
482191.0
 30
1.0
  0
VERTEX
  5
1A4B
  8
1BY1
 10
100417.0
 20
482191.0
 30
1.0
  0
VERTEX
  5
1A4C
  8
1BY1
 10
100417.0
 20
482192.0
 30
1.0
  0
VERTEX
  5
1A4D
  8
1BY1
 10
100416.0
 20
482192.0
 30
1.0
  0
SEQEND
  5
1A4E
  8
1BY1
  0
POLYLINE
  5
EA
  8
1BY1
 66
     1
 10
0.0
 20
0.0
 30
1.0
 70
     1
1001
DCO15
1071
        2
1071
        2
1000
new-all-density-link
1004
0000000000D07E40
  0
VERTEX
  5
1A4F
  8
1BY1
 10
100125.0
 20
482038.0
 30
1.0
  0
VERTEX
  5
1A50
  8
1BY1
 10
100126.0
 20
482038.0
 30
1.0
  0
VERTEX
  5
1A51
  8
1BY1
 10
100126.0
 20
482039.0
 30
1.0
  0
VERTEX
  5
1A52
  8
1BY1
 10
100125.0
 20
482039.0
 30
1.0
  0
SEQEND
  5
1A53
  8
1BY1
  0
POLYLINE
  5
EB
  8
1BY1
 66
     1
 10
0.0
 20
0.0
 30
1.0
 70
     1
1001
DCO15
1071
        2
1071
        2
1000
new-all-density-link
1004
0000000000E07E40
  0
VERTEX
  5
1A54
  8
1BY1
 10
100134.0
 20
482031.0
 30
1.0
  0
VERTEX
  5
1A55
  8
1BY1
 10
100135.0
 20
482031.0
 30
1.0
  0
VERTEX
  5
1A56
  8
1BY1
 10
100135.0
 20
482032.0
 30
1.0
  0
VERTEX
  5
1A57
  8
1BY1
 10
100134.0
 20
482032.0
 30
1.0
  0
SEQEND
  5
1A58
  8
1BY1
  0
POLYLINE
  5
EC
  8
1BY1
 66
     1
 10
0.0
 20
0.0
 30
1.0
 70
     1
1001
DCO15
1071
        2
1071
        2
1000
new-all-density-link
1004
0000000000F07E40
  0
VERTEX
  5
1A59
  8
1BY1
 10
100170.0
 20
482017.0
 30
1.0
  0
VERTEX
  5
1A5A
  8
1BY1
 10
100171.0
 20
482017.0
 30
1.0
  0
VERTEX
  5
1A5B
  8
1BY1
 10
100171.0
 20
482018.0
 30
1.0
  0
VERTEX
  5
1A5C
  8
1BY1
 10
100170.0
 20
482018.0
 30
1.0
  0
SEQEND
  5
1A5D
  8
1BY1
  0
POLYLINE
  5
ED
  8
1BY1
 66
     1
 10
0.0
 20
0.0
 30
1.0
 70
     1
1001
DCO15
1071
        2
1071
        2
1000
new-all-density-link
1004
0000000000007F40
  0
VERTEX
  5
1A5E
  8
1BY1
 10
100187.0
 20
482002.0
 30
1.0
  0
VERTEX
  5
1A5F
  8
1BY1
 10
100188.0
 20
482002.0
 30
1.0
  0
VERTEX
  5
1A60
  8
1BY1
 10
100188.0
 20
482003.0
 30
1.0
  0
VERTEX
  5
1A61
  8
1BY1
 10
100187.0
 20
482003.0
 30
1.0
  0
SEQEND
  5
1A62
  8
1BY1
  0
POLYLINE
  5
EE
  8
1BY1
 66
     1
 10
0.0
 20
0.0
 30
1.0
 70
     1
1001
DCO15
1071
        2
1071
        2
1000
new-all-density-link
1004
0000000000107F40
  0
VERTEX
  5
1A63
  8
1BY1
 10
100239.0
 20
481989.0
 30
1.0
  0
VERTEX
  5
1A64
  8
1BY1
 10
100240.0
 20
481989.0
 30
1.0
  0
VERTEX
  5
1A65
  8
1BY1
 10
100240.0
 20
481990.0
 30
1.0
  0
VERTEX
  5
1A66
  8
1BY1
 10
100239.0
 20
481990.0
 30
1.0
  0
SEQEND
  5
1A67
  8
1BY1
  0
POLYLINE
  5
EF
  8
1BY1
 66
     1
 10
0.0
 20
0.0
 30
1.0
 70
     1
1001
DCO15
1071
        2
1071
        2
1000
new-all-density-link
1004
0000000000207F40
  0
VERTEX
  5
1A68
  8
1BY1
 10
100190.0
 20
482021.0
 30
1.0
  0
VERTEX
  5
1A69
  8
1BY1
 10
100191.0
 20
482021.0
 30
1.0
  0
VERTEX
  5
1A6A
  8
1BY1
 10
100191.0
 20
482022.0
 30
1.0
  0
VERTEX
  5
1A6B
  8
1BY1
 10
100190.0
 20
482022.0
 30
1.0
  0
SEQEND
  5
1A6C
  8
1BY1
  0
POLYLINE
  5
F0
  8
1BY1
 66
     1
 10
0.0
 20
0.0
 30
1.6000000000000001
 70
     1
1001
DCO15
1071
        2
1071
        2
1000
new-all-density-link
1004
0000000000407F40
  0
VERTEX
  5
1A6D
  8
1BY1
 10
100076.0
 20
482168.0
 30
1.6000000000000001
  0
VERTEX
  5
1A6E
  8
1BY1
 10
100077.0
 20
482168.0
 30
1.6000000000000001
  0
VERTEX
  5
1A6F
  8
1BY1
 10
100077.0
 20
482169.0
 30
1.6000000000000001
  0
VERTEX
  5
1A70
  8
1BY1
 10
100076.0
 20
482169.0
 30
1.6000000000000001
  0
SEQEND
  5
1A71
  8
1BY1
  0
POLYLINE
  5
F1
  8
1BY1
 66
     1
 10
0.0
 20
0.0
 30
1.0
 70
     1
1001
DCO15
1071
        2
1071
        2
1000
new-all-density-link
1004
0000000000507F40
  0
VERTEX
  5
1A72
  8
1BY1
 10
100334.0
 20
482160.0
 30
1.0
  0
VERTEX
  5
1A73
  8
1BY1
 10
100335.0
 20
482160.0
 30
1.0
  0
VERTEX
  5
1A74
  8
1BY1
 10
100335.0
 20
482161.0
 30
1.0
  0
VERTEX
  5
1A75
  8
1BY1
 10
100334.0
 20
482161.0
 30
1.0
  0
SEQEND
  5
1A76
  8
1BY1
  0
POLYLINE
  5
F2
  8
1BY1
 66
     1
 10
0.0
 20
0.0
 30
1.6000000000000001
 70
     1
1001
DCO15
1071
        2
1071
        2
1000
new-all-density-link
1004
0000000000607F40
  0
VERTEX
  5
1A77
  8
1BY1
 10
100081.0
 20
482031.0
 30
1.6000000000000001
  0
VERTEX
  5
1A78
  8
1BY1
 10
100082.0
 20
482031.0
 30
1.6000000000000001
  0
VERTEX
  5
1A79
  8
1BY1
 10
100082.0
 20
482032.0
 30
1.6000000000000001
  0
VERTEX
  5
1A7A
  8
1BY1
 10
100081.0
 20
482032.0
 30
1.6000000000000001
  0
SEQEND
  5
1A7B
  8
1BY1
  0
POLYLINE
  5
F3
  8
1BY1
 66
     1
 10
0.0
 20
0.0
 30
1.0
 70
     1
1001
DCO15
1071
        2
1071
        2
1000
new-all-density-link
1004
0000000000807F40
  0
VERTEX
  5
1A7C
  8
1BY1
 10
100123.0
 20
482015.0
 30
1.0
  0
VERTEX
  5
1A7D
  8
1BY1
 10
100124.0
 20
482015.0
 30
1.0
  0
VERTEX
  5
1A7E
  8
1BY1
 10
100124.0
 20
482016.0
 30
1.0
  0
VERTEX
  5
1A7F
  8
1BY1
 10
100123.0
 20
482016.0
 30
1.0
  0
SEQEND
  5
1A80
  8
1BY1
  0
POLYLINE
  5
F4
  8
1BY1
 66
     1
 10
0.0
 20
0.0
 30
2.0
 70
     1
1001
DCO15
1071
        2
1071
        2
1000
new-all-density-link
1004
0000000000907F40
  0
VERTEX
  5
1A81
  8
1BY1
 10
100178.0
 20
481991.0
 30
2.0
  0
VERTEX
  5
1A82
  8
1BY1
 10
100179.0
 20
481991.0
 30
2.0
  0
VERTEX
  5
1A83
  8
1BY1
 10
100179.0
 20
481992.0
 30
2.0
  0
VERTEX
  5
1A84
  8
1BY1
 10
100178.0
 20
481992.0
 30
2.0
  0
SEQEND
  5
1A85
  8
1BY1
  0
POLYLINE
  5
F5
  8
1BY1
 66
     1
 10
0.0
 20
0.0
 30
2.0
 70
     1
1001
DCO15
1071
        2
1071
        2
1000
new-all-density-link
1004
0000000000A07F40
  0
VERTEX
  5
1A86
  8
1BY1
 10
100178.0
 20
481988.0
 30
2.0
  0
VERTEX
  5
1A87
  8
1BY1
 10
100179.0
 20
481988.0
 30
2.0
  0
VERTEX
  5
1A88
  8
1BY1
 10
100179.0
 20
481989.0
 30
2.0
  0
VERTEX
  5
1A89
  8
1BY1
 10
100178.0
 20
481989.0
 30
2.0
  0
SEQEND
  5
1A8A
  8
1BY1
  0
POLYLINE
  5
F6
  8
1BY1
 66
     1
 10
0.0
 20
0.0
 30
1.0
 70
     1
1001
DCO15
1071
        2
1071
        2
1000
new-all-density-link
1004
0000000000B07F40
  0
VERTEX
  5
1A8B
  8
1BY1
 10
100187.0
 20
481997.0
 30
1.0
  0
VERTEX
  5
1A8C
  8
1BY1
 10
100188.0
 20
481997.0
 30
1.0
  0
VERTEX
  5
1A8D
  8
1BY1
 10
100188.0
 20
481998.0
 30
1.0
  0
VERTEX
  5
1A8E
  8
1BY1
 10
100187.0
 20
481998.0
 30
1.0
  0
SEQEND
  5
1A8F
  8
1BY1
  0
POLYLINE
  5
F7
  8
1BY1
 66
     1
 10
0.0
 20
0.0
 30
3.0
 70
     1
1001
DCO15
1071
        2
1071
        2
1000
new-all-density-link
1004
0000000000C07F40
  0
VERTEX
  5
1A90
  8
1BY1
 10
100200.0
 20
481984.0
 30
3.0
  0
VERTEX
  5
1A91
  8
1BY1
 10
100201.0
 20
481984.0
 30
3.0
  0
VERTEX
  5
1A92
  8
1BY1
 10
100201.0
 20
481985.0
 30
3.0
  0
VERTEX
  5
1A93
  8
1BY1
 10
100200.0
 20
481985.0
 30
3.0
  0
SEQEND
  5
1A94
  8
1BY1
  0
POLYLINE
  5
F8
  8
1BY1
 66
     1
 10
0.0
 20
0.0
 30
1.6000000000000001
 70
     1
1001
DCO15
1071
        2
1071
        2
1000
new-all-density-link
1004
0000000000D07F40
  0
VERTEX
  5
1A95
  8
1BY1
 10
100210.0
 20
482499.0
 30
1.6000000000000001
  0
VERTEX
  5
1A96
  8
1BY1
 10
100211.0
 20
482499.0
 30
1.6000000000000001
  0
VERTEX
  5
1A97
  8
1BY1
 10
100211.0
 20
482500.0
 30
1.6000000000000001
  0
VERTEX
  5
1A98
  8
1BY1
 10
100210.0
 20
482500.0
 30
1.6000000000000001
  0
SEQEND
  5
1A99
  8
1BY1
  0
POLYLINE
  5
F9
  8
1BY1
 66
     1
 10
0.0
 20
0.0
 30
1.0
 70
     1
1001
DCO15
1071
        2
1071
        2
1000
new-all-density-link
1004
0000000000508040
  0
VERTEX
  5
1A9A
  8
1BY1
 10
98978.0
 20
483504.0
 30
1.0
  0
VERTEX
  5
1A9B
  8
1BY1
 10
98979.0
 20
483504.0
 30
1.0
  0
VERTEX
  5
1A9C
  8
1BY1
 10
98979.0
 20
483505.0
 30
1.0
  0
VERTEX
  5
1A9D
  8
1BY1
 10
98978.0
 20
483505.0
 30
1.0
  0
SEQEND
  5
1A9E
  8
1BY1
  0
POLYLINE
  5
FA
  8
1BY1
 66
     1
 10
0.0
 20
0.0
 30
1.7
 70
     1
1001
DCO15
1071
        2
1071
        2
1000
new-all-density-link
1004
0000000000A88040
  0
VERTEX
  5
1A9F
  8
1BY1
 10
101001.0
 20
481697.0
 30
1.7
  0
VERTEX
  5
1AA0
  8
1BY1
 10
101002.0
 20
481697.0
 30
1.7
  0
VERTEX
  5
1AA1
  8
1BY1
 10
101002.0
 20
481698.0
 30
1.7
  0
VERTEX
  5
1AA2
  8
1BY1
 10
101001.0
 20
481698.0
 30
1.7
  0
SEQEND
  5
1AA3
  8
1BY1
  0
POLYLINE
  5
FB
  8
1BY1
 66
     1
 10
0.0
 20
0.0
 30
8.0
 70
     1
1001
DCO15
1071
        2
1071
        2
1000
new-all-density-link
1004
0000000000B08040
  0
VERTEX
  5
1AA4
  8
1BY1
 10
100621.0
 20
481908.0
 30
8.0
  0
VERTEX
  5
1AA5
  8
1BY1
 10
100622.0
 20
481908.0
 30
8.0
  0
VERTEX
  5
1AA6
  8
1BY1
 10
100622.0
 20
481909.0
 30
8.0
  0
VERTEX
  5
1AA7
  8
1BY1
 10
100621.0
 20
481909.0
 30
8.0
  0
SEQEND
  5
1AA8
  8
1BY1
  0
POLYLINE
  5
FC
  8
1BY1
 66
     1
 10
0.0
 20
0.0
 30
1.6000000000000001
 70
     1
1001
DCO15
1071
        2
1071
        2
1000
new-all-density-link
1004
0000000000C08040
  0
VERTEX
  5
1AA9
  8
1BY1
 10
99203.0
 20
482237.0
 30
1.6000000000000001
  0
VERTEX
  5
1AAA
  8
1BY1
 10
99204.0
 20
482237.0
 30
1.6000000000000001
  0
VERTEX
  5
1AAB
  8
1BY1
 10
99204.0
 20
482238.0
 30
1.6000000000000001
  0
VERTEX
  5
1AAC
  8
1BY1
 10
99203.0
 20
482238.0
 30
1.6000000000000001
  0
SEQEND
  5
1AAD
  8
1BY1
  0
POLYLINE
  5
FD
  8
1BY1
 66
     1
 10
0.0
 20
0.0
 30
1.0
 70
     1
1001
DCO15
1071
        2
1071
        2
1000
new-all-density-link
1004
0000000000C88040
  0
VERTEX
  5
1AAE
  8
1BY1
 10
99140.0
 20
482141.0
 30
1.0
  0
VERTEX
  5
1AAF
  8
1BY1
 10
99141.0
 20
482141.0
 30
1.0
  0
VERTEX
  5
1AB0
  8
1BY1
 10
99141.0
 20
482142.0
 30
1.0
  0
VERTEX
  5
1AB1
  8
1BY1
 10
99140.0
 20
482142.0
 30
1.0
  0
SEQEND
  5
1AB2
  8
1BY1
  0
POLYLINE
  5
FE
  8
1BY1
 66
     1
 10
0.0
 20
0.0
 30
1.0
 70
     1
1001
DCO15
1071
        2
1071
        2
1000
new-all-density-link
1004
0000000000D08040
  0
VERTEX
  5
1AB3
  8
1BY1
 10
99719.0
 20
482417.0
 30
1.0
  0
VERTEX
  5
1AB4
  8
1BY1
 10
99720.0
 20
482417.0
 30
1.0
  0
VERTEX
  5
1AB5
  8
1BY1
 10
99720.0
 20
482418.0
 30
1.0
  0
VERTEX
  5
1AB6
  8
1BY1
 10
99719.0
 20
482418.0
 30
1.0
  0
SEQEND
  5
1AB7
  8
1BY1
  0
POLYLINE
  5
FF
  8
1BY1
 66
     1
 10
0.0
 20
0.0
 30
35.20000000000001
 70
     1
1001
DCO15
1071
        2
1071
        2
1000
new-all-density-link
1004
0000000000E88040
  0
VERTEX
  5
1AB8
  8
1BY1
 10
99876.0
 20
482357.0
 30
35.20000000000001
  0
VERTEX
  5
1AB9
  8
1BY1
 10
99877.0
 20
482357.0
 30
35.20000000000001
  0
VERTEX
  5
1ABA
  8
1BY1
 10
99877.0
 20
482358.0
 30
35.20000000000001
  0
VERTEX
  5
1ABB
  8
1BY1
 10
99876.0
 20
482358.0
 30
35.20000000000001
  0
SEQEND
  5
1ABC
  8
1BY1
  0
POLYLINE
  5
100
  8
1BY1
 66
     1
 10
0.0
 20
0.0
 30
6.125
 70
     1
1001
DCO15
1071
        2
1071
        2
1000
new-all-density-link
1004
0000000000F88040
  0
VERTEX
  5
1ABD
  8
1BY1
 10
99309.0
 20
482932.0
 30
6.125
  0
VERTEX
  5
1ABE
  8
1BY1
 10
99310.0
 20
482932.0
 30
6.125
  0
VERTEX
  5
1ABF
  8
1BY1
 10
99310.0
 20
482933.0
 30
6.125
  0
VERTEX
  5
1AC0
  8
1BY1
 10
99309.0
 20
482933.0
 30
6.125
  0
SEQEND
  5
1AC1
  8
1BY1
  0
POLYLINE
  5
101
  8
1BY1
 66
     1
 10
0.0
 20
0.0
 30
1.6000000000000001
 70
     1
1001
DCO15
1071
        2
1071
        2
1000
new-all-density-link
1004
0000000000088140
  0
VERTEX
  5
1AC2
  8
1BY1
 10
100279.0
 20
482017.0
 30
1.6000000000000001
  0
VERTEX
  5
1AC3
  8
1BY1
 10
100280.0
 20
482017.0
 30
1.6000000000000001
  0
VERTEX
  5
1AC4
  8
1BY1
 10
100280.0
 20
482018.0
 30
1.6000000000000001
  0
VERTEX
  5
1AC5
  8
1BY1
 10
100279.0
 20
482018.0
 30
1.6000000000000001
  0
SEQEND
  5
1AC6
  8
1BY1
  0
POLYLINE
  5
102
  8
1BY1
 66
     1
 10
0.0
 20
0.0
 30
44.79999999999999
 70
     1
1001
DCO15
1071
        2
1071
        2
1000
new-all-density-link
1004
0000000000108140
  0
VERTEX
  5
1AC7
  8
1BY1
 10
99907.0
 20
482197.0
 30
44.79999999999999
  0
VERTEX
  5
1AC8
  8
1BY1
 10
99908.0
 20
482197.0
 30
44.79999999999999
  0
VERTEX
  5
1AC9
  8
1BY1
 10
99908.0
 20
482198.0
 30
44.79999999999999
  0
VERTEX
  5
1ACA
  8
1BY1
 10
99907.0
 20
482198.0
 30
44.79999999999999
  0
SEQEND
  5
1ACB
  8
1BY1
  0
POLYLINE
  5
103
  8
1BY1
 66
     1
 10
0.0
 20
0.0
 30
25.600000000000001
 70
     1
1001
DCO15
1071
        2
1071
        2
1000
new-all-density-link
1004
0000000000188140
  0
VERTEX
  5
1ACC
  8
1BY1
 10
99907.0
 20
482200.0
 30
25.600000000000001
  0
VERTEX
  5
1ACD
  8
1BY1
 10
99908.0
 20
482200.0
 30
25.600000000000001
  0
VERTEX
  5
1ACE
  8
1BY1
 10
99908.0
 20
482201.0
 30
25.600000000000001
  0
VERTEX
  5
1ACF
  8
1BY1
 10
99907.0
 20
482201.0
 30
25.600000000000001
  0
SEQEND
  5
1AD0
  8
1BY1
  0
POLYLINE
  5
104
  8
1BY1
 66
     1
 10
0.0
 20
0.0
 30
19.199999999999999
 70
     1
1001
DCO15
1071
        2
1071
        2
1000
new-all-density-link
1004
0000000000208140
  0
VERTEX
  5
1AD1
  8
1BY1
 10
99906.0
 20
482199.0
 30
19.199999999999999
  0
VERTEX
  5
1AD2
  8
1BY1
 10
99907.0
 20
482199.0
 30
19.199999999999999
  0
VERTEX
  5
1AD3
  8
1BY1
 10
99907.0
 20
482200.0
 30
19.199999999999999
  0
VERTEX
  5
1AD4
  8
1BY1
 10
99906.0
 20
482200.0
 30
19.199999999999999
  0
SEQEND
  5
1AD5
  8
1BY1
  0
POLYLINE
  5
105
  8
1BY1
 66
     1
 10
0.0
 20
0.0
 30
28.800000000000001
 70
     1
1001
DCO15
1071
        2
1071
        2
1000
new-all-density-link
1004
0000000000288140
  0
VERTEX
  5
1AD6
  8
1BY1
 10
99906.0
 20
482203.0
 30
28.800000000000001
  0
VERTEX
  5
1AD7
  8
1BY1
 10
99907.0
 20
482203.0
 30
28.800000000000001
  0
VERTEX
  5
1AD8
  8
1BY1
 10
99907.0
 20
482204.0
 30
28.800000000000001
  0
VERTEX
  5
1AD9
  8
1BY1
 10
99906.0
 20
482204.0
 30
28.800000000000001
  0
SEQEND
  5
1ADA
  8
1BY1
  0
POLYLINE
  5
106
  8
1BY1
 66
     1
 10
0.0
 20
0.0
 30
19.199999999999999
 70
     1
1001
DCO15
1071
        2
1071
        2
1000
new-all-density-link
1004
0000000000308140
  0
VERTEX
  5
1ADB
  8
1BY1
 10
99911.0
 20
482204.0
 30
19.199999999999999
  0
VERTEX
  5
1ADC
  8
1BY1
 10
99912.0
 20
482204.0
 30
19.199999999999999
  0
VERTEX
  5
1ADD
  8
1BY1
 10
99912.0
 20
482205.0
 30
19.199999999999999
  0
VERTEX
  5
1ADE
  8
1BY1
 10
99911.0
 20
482205.0
 30
19.199999999999999
  0
SEQEND
  5
1ADF
  8
1BY1
  0
POLYLINE
  5
107
  8
1BY1
 66
     1
 10
0.0
 20
0.0
 30
16.0
 70
     1
1001
DCO15
1071
        2
1071
        2
1000
new-all-density-link
1004
0000000000388140
  0
VERTEX
  5
1AE0
  8
1BY1
 10
99913.0
 20
482206.0
 30
16.0
  0
VERTEX
  5
1AE1
  8
1BY1
 10
99914.0
 20
482206.0
 30
16.0
  0
VERTEX
  5
1AE2
  8
1BY1
 10
99914.0
 20
482207.0
 30
16.0
  0
VERTEX
  5
1AE3
  8
1BY1
 10
99913.0
 20
482207.0
 30
16.0
  0
SEQEND
  5
1AE4
  8
1BY1
  0
POLYLINE
  5
108
  8
1BY1
 66
     1
 10
0.0
 20
0.0
 30
1.0
 70
     1
1001
DCO15
1071
        2
1071
        2
1000
new-all-density-link
1004
0000000000408140
  0
VERTEX
  5
1AE5
  8
1BY1
 10
99637.0
 20
482652.0
 30
1.0
  0
VERTEX
  5
1AE6
  8
1BY1
 10
99638.0
 20
482652.0
 30
1.0
  0
VERTEX
  5
1AE7
  8
1BY1
 10
99638.0
 20
482653.0
 30
1.0
  0
VERTEX
  5
1AE8
  8
1BY1
 10
99637.0
 20
482653.0
 30
1.0
  0
SEQEND
  5
1AE9
  8
1BY1
  0
POLYLINE
  5
109
  8
1BY1
 66
     1
 10
0.0
 20
0.0
 30
1.0
 70
     1
1001
DCO15
1071
        2
1071
        2
1000
new-all-density-link
1004
0000000000508140
  0
VERTEX
  5
1AEA
  8
1BY1
 10
96673.0
 20
483222.0
 30
1.0
  0
VERTEX
  5
1AEB
  8
1BY1
 10
96674.0
 20
483222.0
 30
1.0
  0
VERTEX
  5
1AEC
  8
1BY1
 10
96674.0
 20
483223.0
 30
1.0
  0
VERTEX
  5
1AED
  8
1BY1
 10
96673.0
 20
483223.0
 30
1.0
  0
SEQEND
  5
1AEE
  8
1BY1
  0
POLYLINE
  5
10A
  8
1BY1
 66
     1
 10
0.0
 20
0.0
 30
8.0
 70
     1
1001
DCO15
1071
        2
1071
        2
1000
new-all-density-link
1004
0000000000588140
  0
VERTEX
  5
1AEF
  8
1BY1
 10
99903.0
 20
482199.0
 30
8.0
  0
VERTEX
  5
1AF0
  8
1BY1
 10
99904.0
 20
482199.0
 30
8.0
  0
VERTEX
  5
1AF1
  8
1BY1
 10
99904.0
 20
482200.0
 30
8.0
  0
VERTEX
  5
1AF2
  8
1BY1
 10
99903.0
 20
482200.0
 30
8.0
  0
SEQEND
  5
1AF3
  8
1BY1
  0
POLYLINE
  5
10B
  8
1BY1
 66
     1
 10
0.0
 20
0.0
 30
1.6000000000000001
 70
     1
1001
DCO15
1071
        2
1071
        2
1000
new-all-density-link
1004
0000000000608140
  0
VERTEX
  5
1AF4
  8
1BY1
 10
100431.0
 20
482053.0
 30
1.6000000000000001
  0
VERTEX
  5
1AF5
  8
1BY1
 10
100432.0
 20
482053.0
 30
1.6000000000000001
  0
VERTEX
  5
1AF6
  8
1BY1
 10
100432.0
 20
482054.0
 30
1.6000000000000001
  0
VERTEX
  5
1AF7
  8
1BY1
 10
100431.0
 20
482054.0
 30
1.6000000000000001
  0
SEQEND
  5
1AF8
  8
1BY1
  0
POLYLINE
  5
10C
  8
1BY1
 66
     1
 10
0.0
 20
0.0
 30
3.0
 70
     1
1001
DCO15
1071
        2
1071
        2
1000
new-all-density-link
1004
0000000000688140
  0
VERTEX
  5
1AF9
  8
1BY1
 10
100229.0
 20
481873.0
 30
3.0
  0
VERTEX
  5
1AFA
  8
1BY1
 10
100230.0
 20
481873.0
 30
3.0
  0
VERTEX
  5
1AFB
  8
1BY1
 10
100230.0
 20
481874.0
 30
3.0
  0
VERTEX
  5
1AFC
  8
1BY1
 10
100229.0
 20
481874.0
 30
3.0
  0
SEQEND
  5
1AFD
  8
1BY1
  0
POLYLINE
  5
10D
  8
1BY1
 66
     1
 10
0.0
 20
0.0
 30
1.0
 70
     1
1001
DCO15
1071
        2
1071
        2
1000
new-all-density-link
1004
0000000000708140
  0
VERTEX
  5
1AFE
  8
1BY1
 10
99193.0
 20
482230.0
 30
1.0
  0
VERTEX
  5
1AFF
  8
1BY1
 10
99194.0
 20
482230.0
 30
1.0
  0
VERTEX
  5
1B00
  8
1BY1
 10
99194.0
 20
482231.0
 30
1.0
  0
VERTEX
  5
1B01
  8
1BY1
 10
99193.0
 20
482231.0
 30
1.0
  0
SEQEND
  5
1B02
  8
1BY1
  0
POLYLINE
  5
10E
  8
1BY1
 66
     1
 10
0.0
 20
0.0
 30
2.0
 70
     1
1001
DCO15
1071
        2
1071
        2
1000
new-all-density-link
1004
0000000000788140
  0
VERTEX
  5
1B03
  8
1BY1
 10
99189.0
 20
482229.0
 30
2.0
  0
VERTEX
  5
1B04
  8
1BY1
 10
99190.0
 20
482229.0
 30
2.0
  0
VERTEX
  5
1B05
  8
1BY1
 10
99190.0
 20
482230.0
 30
2.0
  0
VERTEX
  5
1B06
  8
1BY1
 10
99189.0
 20
482230.0
 30
2.0
  0
SEQEND
  5
1B07
  8
1BY1
  0
POLYLINE
  5
10F
  8
1BY1
 66
     1
 10
0.0
 20
0.0
 30
1.6000000000000001
 70
     1
1001
DCO15
1071
        2
1071
        2
1000
new-all-density-link
1004
0000000000808140
  0
VERTEX
  5
1B08
  8
1BY1
 10
99024.0
 20
482205.0
 30
1.6000000000000001
  0
VERTEX
  5
1B09
  8
1BY1
 10
99025.0
 20
482205.0
 30
1.6000000000000001
  0
VERTEX
  5
1B0A
  8
1BY1
 10
99025.0
 20
482206.0
 30
1.6000000000000001
  0
VERTEX
  5
1B0B
  8
1BY1
 10
99024.0
 20
482206.0
 30
1.6000000000000001
  0
SEQEND
  5
1B0C
  8
1BY1
  0
POLYLINE
  5
110
  8
2BY2
 66
     1
 10
0.0
 20
0.0
 30
20.0
 70
     1
1001
DCO15
1071
        2
1071
        2
1000
new-all-density-link
1004
0000000000003F40
  0
VERTEX
  5
1B0D
  8
2BY2
 10
99871.0
 20
482361.0
 30
20.0
  0
VERTEX
  5
1B0E
  8
2BY2
 10
99873.0
 20
482361.0
 30
20.0
  0
VERTEX
  5
1B0F
  8
2BY2
 10
99873.0
 20
482363.0
 30
20.0
  0
VERTEX
  5
1B10
  8
2BY2
 10
99871.0
 20
482363.0
 30
20.0
  0
SEQEND
  5
1B11
  8
2BY2
  0
POLYLINE
  5
112
  8
2BY2
 66
     1
 10
0.0
 20
0.0
 30
2.7999999999999989
 70
     1
1001
DCO15
1071
        2
1071
        2
1000
new-all-density-link
1004
0000000000004040
  0
VERTEX
  5
1B12
  8
2BY2
 10
99874.0
 20
482364.0
 30
2.7999999999999989
  0
VERTEX
  5
1B13
  8
2BY2
 10
99876.0
 20
482364.0
 30
2.7999999999999989
  0
VERTEX
  5
1B14
  8
2BY2
 10
99876.0
 20
482366.0
 30
2.7999999999999989
  0
VERTEX
  5
1B15
  8
2BY2
 10
99874.0
 20
482366.0
 30
2.7999999999999989
  0
SEQEND
  5
1B16
  8
2BY2
  0
POLYLINE
  5
113
  8
2BY2
 66
     1
 10
0.0
 20
0.0
 30
16.0
 70
     1
1001
DCO15
1071
        2
1071
        2
1000
new-all-density-link
1004
0000000000804040
  0
VERTEX
  5
1B17
  8
2BY2
 10
99884.0
 20
482362.0
 30
16.0
  0
VERTEX
  5
1B18
  8
2BY2
 10
99886.0
 20
482362.0
 30
16.0
  0
VERTEX
  5
1B19
  8
2BY2
 10
99886.0
 20
482364.0
 30
16.0
  0
VERTEX
  5
1B1A
  8
2BY2
 10
99884.0
 20
482364.0
 30
16.0
  0
SEQEND
  5
1B1B
  8
2BY2
  0
POLYLINE
  5
114
  8
2BY2
 66
     1
 10
0.0
 20
0.0
 30
12.0
 70
     1
1001
DCO15
1071
        2
1071
        2
1000
new-all-density-link
1004
0000000000004140
  0
VERTEX
  5
1B1C
  8
2BY2
 10
99881.0
 20
482357.0
 30
12.0
  0
VERTEX
  5
1B1D
  8
2BY2
 10
99883.0
 20
482357.0
 30
12.0
  0
VERTEX
  5
1B1E
  8
2BY2
 10
99883.0
 20
482359.0
 30
12.0
  0
VERTEX
  5
1B1F
  8
2BY2
 10
99881.0
 20
482359.0
 30
12.0
  0
SEQEND
  5
1B20
  8
2BY2
  0
POLYLINE
  5
115
  8
2BY2
 66
     1
 10
0.0
 20
0.0
 30
0.25
 70
     1
1001
DCO15
1071
        2
1071
        2
1000
new-all-density-link
1004
0000000000004240
  0
VERTEX
  5
1B21
  8
2BY2
 10
99886.0
 20
482355.0
 30
0.25
  0
VERTEX
  5
1B22
  8
2BY2
 10
99888.0
 20
482355.0
 30
0.25
  0
VERTEX
  5
1B23
  8
2BY2
 10
99888.0
 20
482357.0
 30
0.25
  0
VERTEX
  5
1B24
  8
2BY2
 10
99886.0
 20
482357.0
 30
0.25
  0
SEQEND
  5
1B25
  8
2BY2
  0
POLYLINE
  5
116
  8
2BY2
 66
     1
 10
0.0
 20
0.0
 30
11.6
 70
     1
1001
DCO15
1071
        2
1071
        2
1000
new-all-density-link
1004
0000000000804740
  0
VERTEX
  5
1B26
  8
2BY2
 10
99878.0
 20
482358.0
 30
11.6
  0
VERTEX
  5
1B27
  8
2BY2
 10
99880.0
 20
482358.0
 30
11.6
  0
VERTEX
  5
1B28
  8
2BY2
 10
99880.0
 20
482360.0
 30
11.6
  0
VERTEX
  5
1B29
  8
2BY2
 10
99878.0
 20
482360.0
 30
11.6
  0
SEQEND
  5
1B2A
  8
2BY2
  0
POLYLINE
  5
117
  8
2BY2
 66
     1
 10
0.0
 20
0.0
 30
8.8000000000000007
 70
     1
1001
DCO15
1071
        2
1071
        2
1000
new-all-density-link
1004
0000000000004840
  0
VERTEX
  5
1B2B
  8
2BY2
 10
99847.0
 20
482357.0
 30
8.8000000000000007
  0
VERTEX
  5
1B2C
  8
2BY2
 10
99849.0
 20
482357.0
 30
8.8000000000000007
  0
VERTEX
  5
1B2D
  8
2BY2
 10
99849.0
 20
482359.0
 30
8.8000000000000007
  0
VERTEX
  5
1B2E
  8
2BY2
 10
99847.0
 20
482359.0
 30
8.8000000000000007
  0
SEQEND
  5
1B2F
  8
2BY2
  0
POLYLINE
  5
118
  8
2BY2
 66
     1
 10
0.0
 20
0.0
 30
14.800000000000001
 70
     1
1001
DCO15
1071
        2
1071
        2
1000
new-all-density-link
1004
0000000000804840
  0
VERTEX
  5
1B30
  8
2BY2
 10
99887.0
 20
482351.0
 30
14.800000000000001
  0
VERTEX
  5
1B31
  8
2BY2
 10
99889.0
 20
482351.0
 30
14.800000000000001
  0
VERTEX
  5
1B32
  8
2BY2
 10
99889.0
 20
482353.0
 30
14.800000000000001
  0
VERTEX
  5
1B33
  8
2BY2
 10
99887.0
 20
482353.0
 30
14.800000000000001
  0
SEQEND
  5
1B34
  8
2BY2
  0
POLYLINE
  5
119
  8
2BY2
 66
     1
 10
0.0
 20
0.0
 30
6.4000000000000004
 70
     1
1001
DCO15
1071
        2
1071
        2
1000
new-all-density-link
1004
0000000000804940
  0
VERTEX
  5
1B35
  8
2BY2
 10
99885.0
 20
482352.0
 30
6.4000000000000004
  0
VERTEX
  5
1B36
  8
2BY2
 10
99887.0
 20
482352.0
 30
6.4000000000000004
  0
VERTEX
  5
1B37
  8
2BY2
 10
99887.0
 20
482354.0
 30
6.4000000000000004
  0
VERTEX
  5
1B38
  8
2BY2
 10
99885.0
 20
482354.0
 30
6.4000000000000004
  0
SEQEND
  5
1B39
  8
2BY2
  0
POLYLINE
  5
11A
  8
2BY2
 66
     1
 10
0.0
 20
0.0
 30
8.0
 70
     1
1001
DCO15
1071
        2
1071
        2
1000
new-all-density-link
1004
0000000000004A40
  0
VERTEX
  5
1B3A
  8
2BY2
 10
99883.0
 20
482355.0
 30
8.0
  0
VERTEX
  5
1B3B
  8
2BY2
 10
99885.0
 20
482355.0
 30
8.0
  0
VERTEX
  5
1B3C
  8
2BY2
 10
99885.0
 20
482357.0
 30
8.0
  0
VERTEX
  5
1B3D
  8
2BY2
 10
99883.0
 20
482357.0
 30
8.0
  0
SEQEND
  5
1B3E
  8
2BY2
  0
POLYLINE
  5
11B
  8
2BY2
 66
     1
 10
0.0
 20
0.0
 30
0.4
 70
     1
1001
DCO15
1071
        2
1071
        2
1000
new-all-density-link
1004
0000000000804A40
  0
VERTEX
  5
1B3F
  8
2BY2
 10
100029.0
 20
482610.0
 30
0.4
  0
VERTEX
  5
1B40
  8
2BY2
 10
100031.0
 20
482610.0
 30
0.4
  0
VERTEX
  5
1B41
  8
2BY2
 10
100031.0
 20
482612.0
 30
0.4
  0
VERTEX
  5
1B42
  8
2BY2
 10
100029.0
 20
482612.0
 30
0.4
  0
SEQEND
  5
1B43
  8
2BY2
  0
POLYLINE
  5
11C
  8
2BY2
 66
     1
 10
0.0
 20
0.0
 30
7.2000000000000002
 70
     1
1001
DCO15
1071
        2
1071
        2
1000
new-all-density-link
1004
0000000000804D40
  0
VERTEX
  5
1B44
  8
2BY2
 10
99882.0
 20
482347.0
 30
7.2000000000000002
  0
VERTEX
  5
1B45
  8
2BY2
 10
99884.0
 20
482347.0
 30
7.2000000000000002
  0
VERTEX
  5
1B46
  8
2BY2
 10
99884.0
 20
482349.0
 30
7.2000000000000002
  0
VERTEX
  5
1B47
  8
2BY2
 10
99882.0
 20
482349.0
 30
7.2000000000000002
  0
SEQEND
  5
1B48
  8
2BY2
  0
POLYLINE
  5
11D
  8
2BY2
 66
     1
 10
0.0
 20
0.0
 30
8.0
 70
     1
1001
DCO15
1071
        2
1071
        2
1000
new-all-density-link
1004
0000000000004E40
  0
VERTEX
  5
1B49
  8
2BY2
 10
99887.0
 20
482346.0
 30
8.0
  0
VERTEX
  5
1B4A
  8
2BY2
 10
99889.0
 20
482346.0
 30
8.0
  0
VERTEX
  5
1B4B
  8
2BY2
 10
99889.0
 20
482348.0
 30
8.0
  0
VERTEX
  5
1B4C
  8
2BY2
 10
99887.0
 20
482348.0
 30
8.0
  0
SEQEND
  5
1B4D
  8
2BY2
  0
POLYLINE
  5
11E
  8
2BY2
 66
     1
 10
0.0
 20
0.0
 30
4.7999999999999989
 70
     1
1001
DCO15
1071
        2
1071
        2
1000
new-all-density-link
1004
0000000000004F40
  0
VERTEX
  5
1B4E
  8
2BY2
 10
99885.0
 20
482346.0
 30
4.7999999999999989
  0
VERTEX
  5
1B4F
  8
2BY2
 10
99887.0
 20
482346.0
 30
4.7999999999999989
  0
VERTEX
  5
1B50
  8
2BY2
 10
99887.0
 20
482348.0
 30
4.7999999999999989
  0
VERTEX
  5
1B51
  8
2BY2
 10
99885.0
 20
482348.0
 30
4.7999999999999989
  0
SEQEND
  5
1B52
  8
2BY2
  0
POLYLINE
  5
11F
  8
2BY2
 66
     1
 10
0.0
 20
0.0
 30
1.6000000000000001
 70
     1
1001
DCO15
1071
        2
1071
        2
1000
new-all-density-link
1004
0000000000804F40
  0
VERTEX
  5
1B53
  8
2BY2
 10
99887.0
 20
482337.0
 30
1.6000000000000001
  0
VERTEX
  5
1B54
  8
2BY2
 10
99889.0
 20
482337.0
 30
1.6000000000000001
  0
VERTEX
  5
1B55
  8
2BY2
 10
99889.0
 20
482339.0
 30
1.6000000000000001
  0
VERTEX
  5
1B56
  8
2BY2
 10
99887.0
 20
482339.0
 30
1.6000000000000001
  0
SEQEND
  5
1B57
  8
2BY2
  0
POLYLINE
  5
120
  8
2BY2
 66
     1
 10
0.0
 20
0.0
 30
3.2000000000000002
 70
     1
1001
DCO15
1071
        2
1071
        2
1000
new-all-density-link
1004
0000000000005040
  0
VERTEX
  5
1B58
  8
2BY2
 10
99885.0
 20
482340.0
 30
3.2000000000000002
  0
VERTEX
  5
1B59
  8
2BY2
 10
99887.0
 20
482340.0
 30
3.2000000000000002
  0
VERTEX
  5
1B5A
  8
2BY2
 10
99887.0
 20
482342.0
 30
3.2000000000000002
  0
VERTEX
  5
1B5B
  8
2BY2
 10
99885.0
 20
482342.0
 30
3.2000000000000002
  0
SEQEND
  5
1B5C
  8
2BY2
  0
POLYLINE
  5
121
  8
2BY2
 66
     1
 10
0.0
 20
0.0
 30
11.199999999999999
 70
     1
1001
DCO15
1071
        2
1071
        2
1000
new-all-density-link
1004
0000000000405040
  0
VERTEX
  5
1B5D
  8
2BY2
 10
99888.0
 20
482331.0
 30
11.199999999999999
  0
VERTEX
  5
1B5E
  8
2BY2
 10
99890.0
 20
482331.0
 30
11.199999999999999
  0
VERTEX
  5
1B5F
  8
2BY2
 10
99890.0
 20
482333.0
 30
11.199999999999999
  0
VERTEX
  5
1B60
  8
2BY2
 10
99888.0
 20
482333.0
 30
11.199999999999999
  0
SEQEND
  5
1B61
  8
2BY2
  0
POLYLINE
  5
122
  8
2BY2
 66
     1
 10
0.0
 20
0.0
 30
10.800000000000001
 70
     1
1001
DCO15
1071
        2
1071
        2
1000
new-all-density-link
1004
0000000000805040
  0
VERTEX
  5
1B62
  8
2BY2
 10
99885.0
 20
482332.0
 30
10.800000000000001
  0
VERTEX
  5
1B63
  8
2BY2
 10
99887.0
 20
482332.0
 30
10.800000000000001
  0
VERTEX
  5
1B64
  8
2BY2
 10
99887.0
 20
482334.0
 30
10.800000000000001
  0
VERTEX
  5
1B65
  8
2BY2
 10
99885.0
 20
482334.0
 30
10.800000000000001
  0
SEQEND
  5
1B66
  8
2BY2
  0
POLYLINE
  5
123
  8
2BY2
 66
     1
 10
0.0
 20
0.0
 30
9.1999999999999993
 70
     1
1001
DCO15
1071
        2
1071
        2
1000
new-all-density-link
1004
0000000000C05040
  0
VERTEX
  5
1B67
  8
2BY2
 10
99885.0
 20
482322.0
 30
9.1999999999999993
  0
VERTEX
  5
1B68
  8
2BY2
 10
99887.0
 20
482322.0
 30
9.1999999999999993
  0
VERTEX
  5
1B69
  8
2BY2
 10
99887.0
 20
482324.0
 30
9.1999999999999993
  0
VERTEX
  5
1B6A
  8
2BY2
 10
99885.0
 20
482324.0
 30
9.1999999999999993
  0
SEQEND
  5
1B6B
  8
2BY2
  0
POLYLINE
  5
124
  8
2BY2
 66
     1
 10
0.0
 20
0.0
 30
4.0
 70
     1
1001
DCO15
1071
        2
1071
        2
1000
new-all-density-link
1004
0000000000005140
  0
VERTEX
  5
1B6C
  8
2BY2
 10
99885.0
 20
482325.0
 30
4.0
  0
VERTEX
  5
1B6D
  8
2BY2
 10
99887.0
 20
482325.0
 30
4.0
  0
VERTEX
  5
1B6E
  8
2BY2
 10
99887.0
 20
482327.0
 30
4.0
  0
VERTEX
  5
1B6F
  8
2BY2
 10
99885.0
 20
482327.0
 30
4.0
  0
SEQEND
  5
1B70
  8
2BY2
  0
POLYLINE
  5
125
  8
2BY2
 66
     1
 10
0.0
 20
0.0
 30
11.199999999999999
 70
     1
1001
DCO15
1071
        2
1071
        2
1000
new-all-density-link
1004
0000000000405140
  0
VERTEX
  5
1B71
  8
2BY2
 10
99889.0
 20
482320.0
 30
11.199999999999999
  0
VERTEX
  5
1B72
  8
2BY2
 10
99891.0
 20
482320.0
 30
11.199999999999999
  0
VERTEX
  5
1B73
  8
2BY2
 10
99891.0
 20
482322.0
 30
11.199999999999999
  0
VERTEX
  5
1B74
  8
2BY2
 10
99889.0
 20
482322.0
 30
11.199999999999999
  0
SEQEND
  5
1B75
  8
2BY2
  0
POLYLINE
  5
126
  8
2BY2
 66
     1
 10
0.0
 20
0.0
 30
8.0
 70
     1
1001
DCO15
1071
        2
1071
        2
1000
new-all-density-link
1004
0000000000C05140
  0
VERTEX
  5
1B76
  8
2BY2
 10
99875.0
 20
482313.0
 30
8.0
  0
VERTEX
  5
1B77
  8
2BY2
 10
99877.0
 20
482313.0
 30
8.0
  0
VERTEX
  5
1B78
  8
2BY2
 10
99877.0
 20
482315.0
 30
8.0
  0
VERTEX
  5
1B79
  8
2BY2
 10
99875.0
 20
482315.0
 30
8.0
  0
SEQEND
  5
1B7A
  8
2BY2
  0
POLYLINE
  5
127
  8
2BY2
 66
     1
 10
0.0
 20
0.0
 30
11.199999999999999
 70
     1
1001
DCO15
1071
        2
1071
        2
1000
new-all-density-link
1004
0000000000005240
  0
VERTEX
  5
1B7B
  8
2BY2
 10
99886.0
 20
482312.0
 30
11.199999999999999
  0
VERTEX
  5
1B7C
  8
2BY2
 10
99888.0
 20
482312.0
 30
11.199999999999999
  0
VERTEX
  5
1B7D
  8
2BY2
 10
99888.0
 20
482314.0
 30
11.199999999999999
  0
VERTEX
  5
1B7E
  8
2BY2
 10
99886.0
 20
482314.0
 30
11.199999999999999
  0
SEQEND
  5
1B7F
  8
2BY2
  0
POLYLINE
  5
128
  8
2BY2
 66
     1
 10
0.0
 20
0.0
 30
7.5999999999999979
 70
     1
1001
DCO15
1071
        2
1071
        2
1000
new-all-density-link
1004
0000000000405240
  0
VERTEX
  5
1B80
  8
2BY2
 10
99884.0
 20
482309.0
 30
7.5999999999999979
  0
VERTEX
  5
1B81
  8
2BY2
 10
99886.0
 20
482309.0
 30
7.5999999999999979
  0
VERTEX
  5
1B82
  8
2BY2
 10
99886.0
 20
482311.0
 30
7.5999999999999979
  0
VERTEX
  5
1B83
  8
2BY2
 10
99884.0
 20
482311.0
 30
7.5999999999999979
  0
SEQEND
  5
1B84
  8
2BY2
  0
POLYLINE
  5
129
  8
2BY2
 66
     1
 10
0.0
 20
0.0
 30
3.2000000000000002
 70
     1
1001
DCO15
1071
        2
1071
        2
1000
new-all-density-link
1004
0000000000805240
  0
VERTEX
  5
1B85
  8
2BY2
 10
99888.0
 20
482308.0
 30
3.2000000000000002
  0
VERTEX
  5
1B86
  8
2BY2
 10
99890.0
 20
482308.0
 30
3.2000000000000002
  0
VERTEX
  5
1B87
  8
2BY2
 10
99890.0
 20
482310.0
 30
3.2000000000000002
  0
VERTEX
  5
1B88
  8
2BY2
 10
99888.0
 20
482310.0
 30
3.2000000000000002
  0
SEQEND
  5
1B89
  8
2BY2
  0
POLYLINE
  5
12A
  8
2BY2
 66
     1
 10
0.0
 20
0.0
 30
1.1999999999999991
 70
     1
1001
DCO15
1071
        2
1071
        2
1000
new-all-density-link
1004
0000000000005340
  0
VERTEX
  5
1B8A
  8
2BY2
 10
99884.0
 20
482305.0
 30
1.1999999999999991
  0
VERTEX
  5
1B8B
  8
2BY2
 10
99886.0
 20
482305.0
 30
1.1999999999999991
  0
VERTEX
  5
1B8C
  8
2BY2
 10
99886.0
 20
482307.0
 30
1.1999999999999991
  0
VERTEX
  5
1B8D
  8
2BY2
 10
99884.0
 20
482307.0
 30
1.1999999999999991
  0
SEQEND
  5
1B8E
  8
2BY2
  0
POLYLINE
  5
12B
  8
2BY2
 66
     1
 10
0.0
 20
0.0
 30
10.800000000000001
 70
     1
1001
DCO15
1071
        2
1071
        2
1000
new-all-density-link
1004
0000000000405340
  0
VERTEX
  5
1B8F
  8
2BY2
 10
99886.0
 20
482348.0
 30
10.800000000000001
  0
VERTEX
  5
1B90
  8
2BY2
 10
99888.0
 20
482348.0
 30
10.800000000000001
  0
VERTEX
  5
1B91
  8
2BY2
 10
99888.0
 20
482350.0
 30
10.800000000000001
  0
VERTEX
  5
1B92
  8
2BY2
 10
99886.0
 20
482350.0
 30
10.800000000000001
  0
SEQEND
  5
1B93
  8
2BY2
  0
POLYLINE
  5
12C
  8
2BY2
 66
     1
 10
0.0
 20
0.0
 30
3.2000000000000002
 70
     1
1001
DCO15
1071
        2
1071
        2
1000
new-all-density-link
1004
0000000000805340
  0
VERTEX
  5
1B94
  8
2BY2
 10
99884.0
 20
482343.0
 30
3.2000000000000002
  0
VERTEX
  5
1B95
  8
2BY2
 10
99886.0
 20
482343.0
 30
3.2000000000000002
  0
VERTEX
  5
1B96
  8
2BY2
 10
99886.0
 20
482345.0
 30
3.2000000000000002
  0
VERTEX
  5
1B97
  8
2BY2
 10
99884.0
 20
482345.0
 30
3.2000000000000002
  0
SEQEND
  5
1B98
  8
2BY2
  0
POLYLINE
  5
12D
  8
2BY2
 66
     1
 10
0.0
 20
0.0
 30
6.0
 70
     1
1001
DCO15
1071
        2
1071
        2
1000
new-all-density-link
1004
0000000000005440
  0
VERTEX
  5
1B99
  8
2BY2
 10
99883.0
 20
482328.0
 30
6.0
  0
VERTEX
  5
1B9A
  8
2BY2
 10
99885.0
 20
482328.0
 30
6.0
  0
VERTEX
  5
1B9B
  8
2BY2
 10
99885.0
 20
482330.0
 30
6.0
  0
VERTEX
  5
1B9C
  8
2BY2
 10
99883.0
 20
482330.0
 30
6.0
  0
SEQEND
  5
1B9D
  8
2BY2
  0
POLYLINE
  5
12E
  8
2BY2
 66
     1
 10
0.0
 20
0.0
 30
4.4000000000000004
 70
     1
1001
DCO15
1071
        2
1071
        2
1000
new-all-density-link
1004
0000000000F07A40
  0
VERTEX
  5
1B9E
  8
2BY2
 10
99585.0
 20
482332.0
 30
4.4000000000000004
  0
VERTEX
  5
1B9F
  8
2BY2
 10
99587.0
 20
482332.0
 30
4.4000000000000004
  0
VERTEX
  5
1BA0
  8
2BY2
 10
99587.0
 20
482334.0
 30
4.4000000000000004
  0
VERTEX
  5
1BA1
  8
2BY2
 10
99585.0
 20
482334.0
 30
4.4000000000000004
  0
SEQEND
  5
1BA2
  8
2BY2
  0
POLYLINE
  5
12F
  8
2BY2
 66
     1
 10
0.0
 20
0.0
 30
2.0
 70
     1
1001
DCO15
1071
        2
1071
        2
1000
new-all-density-link
1004
0000000000507C40
  0
VERTEX
  5
1BA3
  8
2BY2
 10
99299.0
 20
482770.0
 30
2.0
  0
VERTEX
  5
1BA4
  8
2BY2
 10
99301.0
 20
482770.0
 30
2.0
  0
VERTEX
  5
1BA5
  8
2BY2
 10
99301.0
 20
482772.0
 30
2.0
  0
VERTEX
  5
1BA6
  8
2BY2
 10
99299.0
 20
482772.0
 30
2.0
  0
SEQEND
  5
1BA7
  8
2BY2
  0
POLYLINE
  5
130
  8
2BY2
 66
     1
 10
0.0
 20
0.0
 30
9.75
 70
     1
1001
DCO15
1071
        2
1071
        2
1000
new-all-density-link
1004
0000000000707C40
  0
VERTEX
  5
1BA8
  8
2BY2
 10
99298.0
 20
482920.0
 30
9.75
  0
VERTEX
  5
1BA9
  8
2BY2
 10
99300.0
 20
482920.0
 30
9.75
  0
VERTEX
  5
1BAA
  8
2BY2
 10
99300.0
 20
482922.0
 30
9.75
  0
VERTEX
  5
1BAB
  8
2BY2
 10
99298.0
 20
482922.0
 30
9.75
  0
SEQEND
  5
1BAC
  8
2BY2
  0
POLYLINE
  5
131
  8
2BY2
 66
     1
 10
0.0
 20
0.0
 30
2.5
 70
     1
1001
DCO15
1071
        2
1071
        2
1000
new-all-density-link
1004
0000000000807C40
  0
VERTEX
  5
1BAD
  8
2BY2
 10
99294.0
 20
482918.0
 30
2.5
  0
VERTEX
  5
1BAE
  8
2BY2
 10
99296.0
 20
482918.0
 30
2.5
  0
VERTEX
  5
1BAF
  8
2BY2
 10
99296.0
 20
482920.0
 30
2.5
  0
VERTEX
  5
1BB0
  8
2BY2
 10
99294.0
 20
482920.0
 30
2.5
  0
SEQEND
  5
1BB1
  8
2BY2
  0
POLYLINE
  5
132
  8
2BY2
 66
     1
 10
0.0
 20
0.0
 30
5.75
 70
     1
1001
DCO15
1071
        2
1071
        2
1000
new-all-density-link
1004
0000000000507E40
  0
VERTEX
  5
1BB2
  8
2BY2
 10
100153.0
 20
482042.0
 30
5.75
  0
VERTEX
  5
1BB3
  8
2BY2
 10
100155.0
 20
482042.0
 30
5.75
  0
VERTEX
  5
1BB4
  8
2BY2
 10
100155.0
 20
482044.0
 30
5.75
  0
VERTEX
  5
1BB5
  8
2BY2
 10
100153.0
 20
482044.0
 30
5.75
  0
SEQEND
  5
1BB6
  8
2BY2
  0
POLYLINE
  5
133
  8
2BY2
 66
     1
 10
0.0
 20
0.0
 30
8.5
 70
     1
1001
DCO15
1071
        2
1071
        2
1000
new-all-density-link
1004
0000000000607E40
  0
VERTEX
  5
1BB7
  8
2BY2
 10
100153.0
 20
482036.0
 30
8.5
  0
VERTEX
  5
1BB8
  8
2BY2
 10
100155.0
 20
482036.0
 30
8.5
  0
VERTEX
  5
1BB9
  8
2BY2
 10
100155.0
 20
482038.0
 30
8.5
  0
VERTEX
  5
1BBA
  8
2BY2
 10
100153.0
 20
482038.0
 30
8.5
  0
SEQEND
  5
1BBB
  8
2BY2
  0
POLYLINE
  5
134
  8
2BY2
 66
     1
 10
0.0
 20
0.0
 30
3.2000000000000002
 70
     1
1001
DCO15
1071
        2
1071
        2
1000
new-all-density-link
1004
0000000000807E40
  0
VERTEX
  5
1BBC
  8
2BY2
 10
100122.0
 20
482047.0
 30
3.2000000000000002
  0
VERTEX
  5
1BBD
  8
2BY2
 10
100124.0
 20
482047.0
 30
3.2000000000000002
  0
VERTEX
  5
1BBE
  8
2BY2
 10
100124.0
 20
482049.0
 30
3.2000000000000002
  0
VERTEX
  5
1BBF
  8
2BY2
 10
100122.0
 20
482049.0
 30
3.2000000000000002
  0
SEQEND
  5
1BC0
  8
2BY2
  0
POLYLINE
  5
135
  8
2BY2
 66
     1
 10
0.0
 20
0.0
 30
0.8
 70
     1
1001
DCO15
1071
        2
1071
        2
1000
new-all-density-link
1004
0000000000907E40
  0
VERTEX
  5
1BC1
  8
2BY2
 10
100166.0
 20
482029.0
 30
0.8
  0
VERTEX
  5
1BC2
  8
2BY2
 10
100168.0
 20
482029.0
 30
0.8
  0
VERTEX
  5
1BC3
  8
2BY2
 10
100168.0
 20
482031.0
 30
0.8
  0
VERTEX
  5
1BC4
  8
2BY2
 10
100166.0
 20
482031.0
 30
0.8
  0
SEQEND
  5
1BC5
  8
2BY2
  0
POLYLINE
  5
136
  8
2BY2
 66
     1
 10
0.0
 20
0.0
 30
14.4
 70
     1
1001
DCO15
1071
        2
1071
        2
1000
new-all-density-link
1004
0000000000307F40
  0
VERTEX
  5
1BC6
  8
2BY2
 10
100282.0
 20
482011.0
 30
14.4
  0
VERTEX
  5
1BC7
  8
2BY2
 10
100284.0
 20
482011.0
 30
14.4
  0
VERTEX
  5
1BC8
  8
2BY2
 10
100284.0
 20
482013.0
 30
14.4
  0
VERTEX
  5
1BC9
  8
2BY2
 10
100282.0
 20
482013.0
 30
14.4
  0
SEQEND
  5
1BCA
  8
2BY2
  0
POLYLINE
  5
137
  8
2BY2
 66
     1
 10
0.0
 20
0.0
 30
0.5
 70
     1
1001
DCO15
1071
        2
1071
        2
1000
new-all-density-link
1004
0000000000707F40
  0
VERTEX
  5
1BCB
  8
2BY2
 10
100085.0
 20
482030.0
 30
0.5
  0
VERTEX
  5
1BCC
  8
2BY2
 10
100087.0
 20
482030.0
 30
0.5
  0
VERTEX
  5
1BCD
  8
2BY2
 10
100087.0
 20
482032.0
 30
0.5
  0
VERTEX
  5
1BCE
  8
2BY2
 10
100085.0
 20
482032.0
 30
0.5
  0
SEQEND
  5
1BCF
  8
2BY2
  0
POLYLINE
  5
138
  8
10BY10
 66
     1
 10
0.0
 20
0.0
 30
0.09
 70
     1
1001
DCO15
1071
        2
1071
        2
1000
new-all-density-link
1004
0000000000C08140
  0
VERTEX
  5
1BD0
  8
10BY10
 10
101160.0
 20
482620.0
 30
0.09
  0
VERTEX
  5
1BD1
  8
10BY10
 10
101170.0
 20
482620.0
 30
0.09
  0
VERTEX
  5
1BD2
  8
10BY10
 10
101170.0
 20
482630.0
 30
0.09
  0
VERTEX
  5
1BD3
  8
10BY10
 10
101160.0
 20
482630.0
 30
0.09
  0
SEQEND
  5
1BD4
  8
10BY10
  0
POLYLINE
  5
13A
  8
10BY10
 66
     1
 10
0.0
 20
0.0
 30
0.25
 70
     1
1001
DCO15
1071
        2
1071
        2
1000
new-all-density-link
1004
0000000000C88140
  0
VERTEX
  5
1BD5
  8
10BY10
 10
101171.0
 20
482598.0
 30
0.25
  0
VERTEX
  5
1BD6
  8
10BY10
 10
101181.0
 20
482598.0
 30
0.25
  0
VERTEX
  5
1BD7
  8
10BY10
 10
101181.0
 20
482608.0
 30
0.25
  0
VERTEX
  5
1BD8
  8
10BY10
 10
101171.0
 20
482608.0
 30
0.25
  0
SEQEND
  5
1BD9
  8
10BY10
  0
POLYLINE
  5
13B
  8
10BY10
 66
     1
 10
0.0
 20
0.0
 30
0.16
 70
     1
1001
DCO15
1071
        2
1071
        2
1000
new-all-density-link
1004
0000000000D08140
  0
VERTEX
  5
1BDA
  8
10BY10
 10
101124.0
 20
482600.0
 30
0.16
  0
VERTEX
  5
1BDB
  8
10BY10
 10
101134.0
 20
482600.0
 30
0.16
  0
VERTEX
  5
1BDC
  8
10BY10
 10
101134.0
 20
482610.0
 30
0.16
  0
VERTEX
  5
1BDD
  8
10BY10
 10
101124.0
 20
482610.0
 30
0.16
  0
SEQEND
  5
1BDE
  8
10BY10
  0
POLYLINE
  5
13C
  8
10BY10
 66
     1
 10
0.0
 20
0.0
 30
0.03
 70
     1
1001
DCO15
1071
        2
1071
        2
1000
new-all-density-link
1004
0000000000D88140
  0
VERTEX
  5
1BDF
  8
10BY10
 10
101131.0
 20
482619.0
 30
0.03
  0
VERTEX
  5
1BE0
  8
10BY10
 10
101141.0
 20
482619.0
 30
0.03
  0
VERTEX
  5
1BE1
  8
10BY10
 10
101141.0
 20
482629.0
 30
0.03
  0
VERTEX
  5
1BE2
  8
10BY10
 10
101131.0
 20
482629.0
 30
0.03
  0
SEQEND
  5
1BE3
  8
10BY10
  0
POLYLINE
  5
13D
  8
10BY10
 66
     1
 10
0.0
 20
0.0
 30
0.016
 70
     1
1001
DCO15
1071
        2
1071
        2
1000
new-all-density-link
1004
0000000000F88140
  0
VERTEX
  5
1BE4
  8
10BY10
 10
101114.0
 20
481841.0
 30
0.016
  0
VERTEX
  5
1BE5
  8
10BY10
 10
101124.0
 20
481841.0
 30
0.016
  0
VERTEX
  5
1BE6
  8
10BY10
 10
101124.0
 20
481851.0
 30
0.016
  0
VERTEX
  5
1BE7
  8
10BY10
 10
101114.0
 20
481851.0
 30
0.016
  0
SEQEND
  5
1BE8
  8
10BY10
  0
POLYLINE
  5
13E
  8
10BY10
 66
     1
 10
0.0
 20
0.0
 30
0.4320000000000002
 70
     1
1001
DCO15
1071
        2
1071
        2
1000
new-all-density-link
1004
0000000000008240
  0
VERTEX
  5
1BE9
  8
10BY10
 10
101331.0
 20
482438.0
 30
0.4320000000000002
  0
VERTEX
  5
1BEA
  8
10BY10
 10
101341.0
 20
482438.0
 30
0.4320000000000002
  0
VERTEX
  5
1BEB
  8
10BY10
 10
101341.0
 20
482448.0
 30
0.4320000000000002
  0
VERTEX
  5
1BEC
  8
10BY10
 10
101331.0
 20
482448.0
 30
0.4320000000000002
  0
SEQEND
  5
1BED
  8
10BY10
  0
POLYLINE
  5
13F
  8
10BY10
 66
     1
 10
0.0
 20
0.0
 30
0.208
 70
     1
1001
DCO15
1071
        2
1071
        2
1000
new-all-density-link
1004
0000000000088240
  0
VERTEX
  5
1BEE
  8
10BY10
 10
101293.0
 20
482437.0
 30
0.208
  0
VERTEX
  5
1BEF
  8
10BY10
 10
101303.0
 20
482437.0
 30
0.208
  0
VERTEX
  5
1BF0
  8
10BY10
 10
101303.0
 20
482447.0
 30
0.208
  0
VERTEX
  5
1BF1
  8
10BY10
 10
101293.0
 20
482447.0
 30
0.208
  0
SEQEND
  5
1BF2
  8
10BY10
  0
POLYLINE
  5
140
  8
10BY10
 66
     1
 10
0.0
 20
0.0
 30
0.128
 70
     1
1001
DCO15
1071
        2
1071
        2
1000
new-all-density-link
1004
0000000000108240
  0
VERTEX
  5
1BF3
  8
10BY10
 10
101276.0
 20
482425.0
 30
0.128
  0
VERTEX
  5
1BF4
  8
10BY10
 10
101286.0
 20
482425.0
 30
0.128
  0
VERTEX
  5
1BF5
  8
10BY10
 10
101286.0
 20
482435.0
 30
0.128
  0
VERTEX
  5
1BF6
  8
10BY10
 10
101276.0
 20
482435.0
 30
0.128
  0
SEQEND
  5
1BF7
  8
10BY10
  0
POLYLINE
  5
141
  8
10BY10
 66
     1
 10
0.0
 20
0.0
 30
0.119
 70
     1
1001
DCO15
1071
        2
1071
        2
1000
new-all-density-link
1004
0000000000188240
  0
VERTEX
  5
1BF8
  8
10BY10
 10
96789.0
 20
483323.0
 30
0.119
  0
VERTEX
  5
1BF9
  8
10BY10
 10
96799.0
 20
483323.0
 30
0.119
  0
VERTEX
  5
1BFA
  8
10BY10
 10
96799.0
 20
483333.0
 30
0.119
  0
VERTEX
  5
1BFB
  8
10BY10
 10
96789.0
 20
483333.0
 30
0.119
  0
SEQEND
  5
1BFC
  8
10BY10
  0
POLYLINE
  5
142
  8
10BY10
 66
     1
 10
0.0
 20
0.0
 30
0.051
 70
     1
1001
DCO15
1071
        2
1071
        2
1000
new-all-density-link
1004
0000000000208240
  0
VERTEX
  5
1BFD
  8
10BY10
 10
96686.0
 20
482989.0
 30
0.051
  0
VERTEX
  5
1BFE
  8
10BY10
 10
96696.0
 20
482989.0
 30
0.051
  0
VERTEX
  5
1BFF
  8
10BY10
 10
96696.0
 20
482999.0
 30
0.051
  0
VERTEX
  5
1C00
  8
10BY10
 10
96686.0
 20
482999.0
 30
0.051
  0
SEQEND
  5
1C01
  8
10BY10
  0
POLYLINE
  5
143
  8
10BY10
 66
     1
 10
0.0
 20
0.0
 30
0.032
 70
     1
1001
DCO15
1071
        2
1071
        2
1000
new-all-density-link
1004
0000000000308240
  0
VERTEX
  5
1C02
  8
10BY10
 10
96676.0
 20
482989.0
 30
0.032
  0
VERTEX
  5
1C03
  8
10BY10
 10
96686.0
 20
482989.0
 30
0.032
  0
VERTEX
  5
1C04
  8
10BY10
 10
96686.0
 20
482999.0
 30
0.032
  0
VERTEX
  5
1C05
  8
10BY10
 10
96676.0
 20
482999.0
 30
0.032
  0
SEQEND
  5
1C06
  8
10BY10
  0
POLYLINE
  5
144
  8
10BY10
 66
     1
 10
0.0
 20
0.0
 30
0.096
 70
     1
1001
DCO15
1071
        2
1071
        2
1000
new-all-density-link
1004
0000000000388240
  0
VERTEX
  5
1C07
  8
10BY10
 10
97754.0
 20
483385.0
 30
0.096
  0
VERTEX
  5
1C08
  8
10BY10
 10
97764.0
 20
483385.0
 30
0.096
  0
VERTEX
  5
1C09
  8
10BY10
 10
97764.0
 20
483395.0
 30
0.096
  0
VERTEX
  5
1C0A
  8
10BY10
 10
97754.0
 20
483395.0
 30
0.096
  0
SEQEND
  5
1C0B
  8
10BY10
  0
POLYLINE
  5
145
  8
10BY10
 66
     1
 10
0.0
 20
0.0
 30
0.784
 70
     1
1001
DCO15
1071
        2
1071
        2
1000
new-all-density-link
1004
0000000000408240
  0
VERTEX
  5
1C0C
  8
10BY10
 10
97794.0
 20
483350.0
 30
0.784
  0
VERTEX
  5
1C0D
  8
10BY10
 10
97804.0
 20
483350.0
 30
0.784
  0
VERTEX
  5
1C0E
  8
10BY10
 10
97804.0
 20
483360.0
 30
0.784
  0
VERTEX
  5
1C0F
  8
10BY10
 10
97794.0
 20
483360.0
 30
0.784
  0
SEQEND
  5
1C10
  8
10BY10
  0
POLYLINE
  5
146
  8
10BY10
 66
     1
 10
0.0
 20
0.0
 30
0.016
 70
     1
1001
DCO15
1071
        2
1071
        2
1000
new-all-density-link
1004
0000000000488240
  0
VERTEX
  5
1C11
  8
10BY10
 10
97792.0
 20
483338.0
 30
0.016
  0
VERTEX
  5
1C12
  8
10BY10
 10
97802.0
 20
483338.0
 30
0.016
  0
VERTEX
  5
1C13
  8
10BY10
 10
97802.0
 20
483348.0
 30
0.016
  0
VERTEX
  5
1C14
  8
10BY10
 10
97792.0
 20
483348.0
 30
0.016
  0
SEQEND
  5
1C15
  8
10BY10
  0
POLYLINE
  5
147
  8
10BY10
 66
     1
 10
0.0
 20
0.0
 30
0.032
 70
     1
1001
DCO15
1071
        2
1071
        2
1000
new-all-density-link
1004
0000000000508240
  0
VERTEX
  5
1C16
  8
10BY10
 10
97794.0
 20
483364.0
 30
0.032
  0
VERTEX
  5
1C17
  8
10BY10
 10
97804.0
 20
483364.0
 30
0.032
  0
VERTEX
  5
1C18
  8
10BY10
 10
97804.0
 20
483374.0
 30
0.032
  0
VERTEX
  5
1C19
  8
10BY10
 10
97794.0
 20
483374.0
 30
0.032
  0
SEQEND
  5
1C1A
  8
10BY10
  0
POLYLINE
  5
148
  8
10BY10
 66
     1
 10
0.0
 20
0.0
 30
1.008
 70
     1
1001
DCO15
1071
        2
1071
        2
1000
new-all-density-link
1004
0000000000588240
  0
VERTEX
  5
1C1B
  8
10BY10
 10
97772.0
 20
483384.0
 30
1.008
  0
VERTEX
  5
1C1C
  8
10BY10
 10
97782.0
 20
483384.0
 30
1.008
  0
VERTEX
  5
1C1D
  8
10BY10
 10
97782.0
 20
483394.0
 30
1.008
  0
VERTEX
  5
1C1E
  8
10BY10
 10
97772.0
 20
483394.0
 30
1.008
  0
SEQEND
  5
1C1F
  8
10BY10
  0
POLYLINE
  5
149
  8
10BY10
 66
     1
 10
0.0
 20
0.0
 30
0.032
 70
     1
1001
DCO15
1071
        2
1071
        2
1000
new-all-density-link
1004
0000000000608240
  0
VERTEX
  5
1C20
  8
10BY10
 10
97799.0
 20
483384.0
 30
0.032
  0
VERTEX
  5
1C21
  8
10BY10
 10
97809.0
 20
483384.0
 30
0.032
  0
VERTEX
  5
1C22
  8
10BY10
 10
97809.0
 20
483394.0
 30
0.032
  0
VERTEX
  5
1C23
  8
10BY10
 10
97799.0
 20
483394.0
 30
0.032
  0
SEQEND
  5
1C24
  8
10BY10
  0
POLYLINE
  5
14A
  8
10BY10
 66
     1
 10
0.0
 20
0.0
 30
0.032
 70
     1
1001
DCO15
1071
        2
1071
        2
1000
new-all-density-link
1004
0000000000688240
  0
VERTEX
  5
1C25
  8
10BY10
 10
97725.0
 20
483357.0
 30
0.032
  0
VERTEX
  5
1C26
  8
10BY10
 10
97735.0
 20
483357.0
 30
0.032
  0
VERTEX
  5
1C27
  8
10BY10
 10
97735.0
 20
483367.0
 30
0.032
  0
VERTEX
  5
1C28
  8
10BY10
 10
97725.0
 20
483367.0
 30
0.032
  0
SEQEND
  5
1C29
  8
10BY10
  0
POLYLINE
  5
14B
  8
10BY10
 66
     1
 10
0.0
 20
0.0
 30
0.032
 70
     1
1001
DCO15
1071
        2
1071
        2
1000
new-all-density-link
1004
0000000000788240
  0
VERTEX
  5
1C2A
  8
10BY10
 10
97755.0
 20
483223.0
 30
0.032
  0
VERTEX
  5
1C2B
  8
10BY10
 10
97765.0
 20
483223.0
 30
0.032
  0
VERTEX
  5
1C2C
  8
10BY10
 10
97765.0
 20
483233.0
 30
0.032
  0
VERTEX
  5
1C2D
  8
10BY10
 10
97755.0
 20
483233.0
 30
0.032
  0
SEQEND
  5
1C2E
  8
10BY10
  0
POLYLINE
  5
14C
  8
10BY10
 66
     1
 10
0.0
 20
0.0
 30
0.02
 70
     1
1001
DCO15
1071
        2
1071
        2
1000
new-all-density-link
1004
0000000000808240
  0
VERTEX
  5
1C2F
  8
10BY10
 10
94523.0
 20
483230.0
 30
0.02
  0
VERTEX
  5
1C30
  8
10BY10
 10
94533.0
 20
483230.0
 30
0.02
  0
VERTEX
  5
1C31
  8
10BY10
 10
94533.0
 20
483240.0
 30
0.02
  0
VERTEX
  5
1C32
  8
10BY10
 10
94523.0
 20
483240.0
 30
0.02
  0
SEQEND
  5
1C33
  8
10BY10
  0
POLYLINE
  5
14D
  8
10BY10
 66
     1
 10
0.0
 20
0.0
 30
0.04
 70
     1
1001
DCO15
1071
        2
1071
        2
1000
new-all-density-link
1004
0000000000888240
  0
VERTEX
  5
1C34
  8
10BY10
 10
94533.0
 20
483223.0
 30
0.04
  0
VERTEX
  5
1C35
  8
10BY10
 10
94543.0
 20
483223.0
 30
0.04
  0
VERTEX
  5
1C36
  8
10BY10
 10
94543.0
 20
483233.0
 30
0.04
  0
VERTEX
  5
1C37
  8
10BY10
 10
94533.0
 20
483233.0
 30
0.04
  0
SEQEND
  5
1C38
  8
10BY10
  0
POLYLINE
  5
14E
  8
10BY10
 66
     1
 10
0.0
 20
0.0
 30
0.02
 70
     1
1001
DCO15
1071
        2
1071
        2
1000
new-all-density-link
1004
0000000000908240
  0
VERTEX
  5
1C39
  8
10BY10
 10
94561.0
 20
483211.0
 30
0.02
  0
VERTEX
  5
1C3A
  8
10BY10
 10
94571.0
 20
483211.0
 30
0.02
  0
VERTEX
  5
1C3B
  8
10BY10
 10
94571.0
 20
483221.0
 30
0.02
  0
VERTEX
  5
1C3C
  8
10BY10
 10
94561.0
 20
483221.0
 30
0.02
  0
SEQEND
  5
1C3D
  8
10BY10
  0
POLYLINE
  5
14F
  8
10BY10
 66
     1
 10
0.0
 20
0.0
 30
0.02
 70
     1
1001
DCO15
1071
        2
1071
        2
1000
new-all-density-link
1004
0000000000988240
  0
VERTEX
  5
1C3E
  8
10BY10
 10
94590.0
 20
483204.0
 30
0.02
  0
VERTEX
  5
1C3F
  8
10BY10
 10
94600.0
 20
483204.0
 30
0.02
  0
VERTEX
  5
1C40
  8
10BY10
 10
94600.0
 20
483214.0
 30
0.02
  0
VERTEX
  5
1C41
  8
10BY10
 10
94590.0
 20
483214.0
 30
0.02
  0
SEQEND
  5
1C42
  8
10BY10
  0
POLYLINE
  5
150
  8
10BY10
 66
     1
 10
0.0
 20
0.0
 30
0.03
 70
     1
1001
DCO15
1071
        2
1071
        2
1000
new-all-density-link
1004
0000000000A08240
  0
VERTEX
  5
1C43
  8
10BY10
 10
94409.0
 20
483273.0
 30
0.03
  0
VERTEX
  5
1C44
  8
10BY10
 10
94419.0
 20
483273.0
 30
0.03
  0
VERTEX
  5
1C45
  8
10BY10
 10
94419.0
 20
483283.0
 30
0.03
  0
VERTEX
  5
1C46
  8
10BY10
 10
94409.0
 20
483283.0
 30
0.03
  0
SEQEND
  5
1C47
  8
10BY10
  0
POLYLINE
  5
151
  8
10BY10
 66
     1
 10
0.0
 20
0.0
 30
0.07
 70
     1
1001
DCO15
1071
        2
1071
        2
1000
new-all-density-link
1004
0000000000C08240
  0
VERTEX
  5
1C48
  8
10BY10
 10
94340.0
 20
483303.0
 30
0.07
  0
VERTEX
  5
1C49
  8
10BY10
 10
94350.0
 20
483303.0
 30
0.07
  0
VERTEX
  5
1C4A
  8
10BY10
 10
94350.0
 20
483313.0
 30
0.07
  0
VERTEX
  5
1C4B
  8
10BY10
 10
94340.0
 20
483313.0
 30
0.07
  0
SEQEND
  5
1C4C
  8
10BY10
  0
POLYLINE
  5
152
  8
10BY10
 66
     1
 10
0.0
 20
0.0
 30
0.06
 70
     1
1001
DCO15
1071
        2
1071
        2
1000
new-all-density-link
1004
0000000000C88240
  0
VERTEX
  5
1C4D
  8
10BY10
 10
94416.0
 20
483287.0
 30
0.06
  0
VERTEX
  5
1C4E
  8
10BY10
 10
94426.0
 20
483287.0
 30
0.06
  0
VERTEX
  5
1C4F
  8
10BY10
 10
94426.0
 20
483297.0
 30
0.06
  0
VERTEX
  5
1C50
  8
10BY10
 10
94416.0
 20
483297.0
 30
0.06
  0
SEQEND
  5
1C51
  8
10BY10
  0
POLYLINE
  5
153
  8
10BY10
 66
     1
 10
0.0
 20
0.0
 30
0.07
 70
     1
1001
DCO15
1071
        2
1071
        2
1000
new-all-density-link
1004
0000000000D08240
  0
VERTEX
  5
1C52
  8
10BY10
 10
94419.0
 20
483270.0
 30
0.07
  0
VERTEX
  5
1C53
  8
10BY10
 10
94429.0
 20
483270.0
 30
0.07
  0
VERTEX
  5
1C54
  8
10BY10
 10
94429.0
 20
483280.0
 30
0.07
  0
VERTEX
  5
1C55
  8
10BY10
 10
94419.0
 20
483280.0
 30
0.07
  0
SEQEND
  5
1C56
  8
10BY10
  0
POLYLINE
  5
154
  8
10BY10
 66
     1
 10
0.0
 20
0.0
 30
0.01
 70
     1
1001
DCO15
1071
        2
1071
        2
1000
new-all-density-link
1004
0000000000D88240
  0
VERTEX
  5
1C57
  8
10BY10
 10
94371.0
 20
483293.0
 30
0.01
  0
VERTEX
  5
1C58
  8
10BY10
 10
94381.0
 20
483293.0
 30
0.01
  0
VERTEX
  5
1C59
  8
10BY10
 10
94381.0
 20
483303.0
 30
0.01
  0
VERTEX
  5
1C5A
  8
10BY10
 10
94371.0
 20
483303.0
 30
0.01
  0
SEQEND
  5
1C5B
  8
10BY10
  0
POLYLINE
  5
155
  8
10BY10
 66
     1
 10
0.0
 20
0.0
 30
0.08
 70
     1
1001
DCO15
1071
        2
1071
        2
1000
new-all-density-link
1004
0000000000E88240
  0
VERTEX
  5
1C5C
  8
10BY10
 10
100990.0
 20
482500.0
 30
0.08
  0
VERTEX
  5
1C5D
  8
10BY10
 10
101000.0
 20
482500.0
 30
0.08
  0
VERTEX
  5
1C5E
  8
10BY10
 10
101000.0
 20
482510.0
 30
0.08
  0
VERTEX
  5
1C5F
  8
10BY10
 10
100990.0
 20
482510.0
 30
0.08
  0
SEQEND
  5
1C60
  8
10BY10
  0
POLYLINE
  5
156
  8
10BY10
 66
     1
 10
0.0
 20
0.0
 30
0.01
 70
     1
1001
DCO15
1071
        2
1071
        2
1000
new-all-density-link
1004
0000000000B08340
  0
VERTEX
  5
1C61
  8
10BY10
 10
102664.0
 20
478742.0
 30
0.01
  0
VERTEX
  5
1C62
  8
10BY10
 10
102674.0
 20
478742.0
 30
0.01
  0
VERTEX
  5
1C63
  8
10BY10
 10
102674.0
 20
478752.0
 30
0.01
  0
VERTEX
  5
1C64
  8
10BY10
 10
102664.0
 20
478752.0
 30
0.01
  0
SEQEND
  5
1C65
  8
10BY10
  0
POLYLINE
  5
157
  8
10BY10
 66
     1
 10
0.0
 20
0.0
 30
0.05
 70
     1
1001
DCO15
1071
        2
1071
        2
1000
new-all-density-link
1004
0000000000B88340
  0
VERTEX
  5
1C66
  8
10BY10
 10
102685.0
 20
478700.0
 30
0.05
  0
VERTEX
  5
1C67
  8
10BY10
 10
102695.0
 20
478700.0
 30
0.05
  0
VERTEX
  5
1C68
  8
10BY10
 10
102695.0
 20
478710.0
 30
0.05
  0
VERTEX
  5
1C69
  8
10BY10
 10
102685.0
 20
478710.0
 30
0.05
  0
SEQEND
  5
1C6A
  8
10BY10
  0
POLYLINE
  5
158
  8
10BY10
 66
     1
 10
0.0
 20
0.0
 30
0.05
 70
     1
1001
DCO15
1071
        2
1071
        2
1000
new-all-density-link
1004
0000000000C88340
  0
VERTEX
  5
1C6B
  8
10BY10
 10
102683.0
 20
478725.0
 30
0.05
  0
VERTEX
  5
1C6C
  8
10BY10
 10
102693.0
 20
478725.0
 30
0.05
  0
VERTEX
  5
1C6D
  8
10BY10
 10
102693.0
 20
478735.0
 30
0.05
  0
VERTEX
  5
1C6E
  8
10BY10
 10
102683.0
 20
478735.0
 30
0.05
  0
SEQEND
  5
1C6F
  8
10BY10
  0
POLYLINE
  5
159
  8
10BY10
 66
     1
 10
0.0
 20
0.0
 30
0.02
 70
     1
1001
DCO15
1071
        2
1071
        2
1000
new-all-density-link
1004
0000000000D08340
  0
VERTEX
  5
1C70
  8
10BY10
 10
102683.0
 20
478765.0
 30
0.02
  0
VERTEX
  5
1C71
  8
10BY10
 10
102693.0
 20
478765.0
 30
0.02
  0
VERTEX
  5
1C72
  8
10BY10
 10
102693.0
 20
478775.0
 30
0.02
  0
VERTEX
  5
1C73
  8
10BY10
 10
102683.0
 20
478775.0
 30
0.02
  0
SEQEND
  5
1C74
  8
10BY10
  0
POLYLINE
  5
15A
  8
10BY10
 66
     1
 10
0.0
 20
0.0
 30
1.665999999999999
 70
     1
1001
DCO15
1071
        2
1071
        2
1000
new-all-density-link
1004
0000000000008440
  0
VERTEX
  5
1C75
  8
10BY10
 10
104773.0
 20
481014.0
 30
1.665999999999999
  0
VERTEX
  5
1C76
  8
10BY10
 10
104783.0
 20
481014.0
 30
1.665999999999999
  0
VERTEX
  5
1C77
  8
10BY10
 10
104783.0
 20
481024.0
 30
1.665999999999999
  0
VERTEX
  5
1C78
  8
10BY10
 10
104773.0
 20
481024.0
 30
1.665999999999999
  0
SEQEND
  5
1C79
  8
10BY10
  0
POLYLINE
  5
15B
  8
10BY10
 66
     1
 10
0.0
 20
0.0
 30
1.0709999999999991
 70
     1
1001
DCO15
1071
        2
1071
        2
1000
new-all-density-link
1004
0000000000088440
  0
VERTEX
  5
1C7A
  8
10BY10
 10
104766.0
 20
481029.0
 30
1.0709999999999991
  0
VERTEX
  5
1C7B
  8
10BY10
 10
104776.0
 20
481029.0
 30
1.0709999999999991
  0
VERTEX
  5
1C7C
  8
10BY10
 10
104776.0
 20
481039.0
 30
1.0709999999999991
  0
VERTEX
  5
1C7D
  8
10BY10
 10
104766.0
 20
481039.0
 30
1.0709999999999991
  0
SEQEND
  5
1C7E
  8
10BY10
  0
POLYLINE
  5
15C
  8
10BY10
 66
     1
 10
0.0
 20
0.0
 30
0.7649999999999999
 70
     1
1001
DCO15
1071
        2
1071
        2
1000
new-all-density-link
1004
0000000000108440
  0
VERTEX
  5
1C7F
  8
10BY10
 10
104775.0
 20
481057.0
 30
0.7649999999999999
  0
VERTEX
  5
1C80
  8
10BY10
 10
104785.0
 20
481057.0
 30
0.7649999999999999
  0
VERTEX
  5
1C81
  8
10BY10
 10
104785.0
 20
481067.0
 30
0.7649999999999999
  0
VERTEX
  5
1C82
  8
10BY10
 10
104775.0
 20
481067.0
 30
0.7649999999999999
  0
SEQEND
  5
1C83
  8
10BY10
  0
POLYLINE
  5
15D
  8
10BY10
 66
     1
 10
0.0
 20
0.0
 30
0.017
 70
     1
1001
DCO15
1071
        2
1071
        2
1000
new-all-density-link
1004
0000000000188440
  0
VERTEX
  5
1C84
  8
10BY10
 10
104788.0
 20
481070.0
 30
0.017
  0
VERTEX
  5
1C85
  8
10BY10
 10
104798.0
 20
481070.0
 30
0.017
  0
VERTEX
  5
1C86
  8
10BY10
 10
104798.0
 20
481080.0
 30
0.017
  0
VERTEX
  5
1C87
  8
10BY10
 10
104788.0
 20
481080.0
 30
0.017
  0
SEQEND
  5
1C88
  8
10BY10
  0
POLYLINE
  5
15E
  8
10BY10
 66
     1
 10
0.0
 20
0.0
 30
0.289
 70
     1
1001
DCO15
1071
        2
1071
        2
1000
new-all-density-link
1004
0000000000208440
  0
VERTEX
  5
1C89
  8
10BY10
 10
104780.0
 20
481092.0
 30
0.289
  0
VERTEX
  5
1C8A
  8
10BY10
 10
104790.0
 20
481092.0
 30
0.289
  0
VERTEX
  5
1C8B
  8
10BY10
 10
104790.0
 20
481102.0
 30
0.289
  0
VERTEX
  5
1C8C
  8
10BY10
 10
104780.0
 20
481102.0
 30
0.289
  0
SEQEND
  5
1C8D
  8
10BY10
  0
POLYLINE
  5
15F
  8
10BY10
 66
     1
 10
0.0
 20
0.0
 30
0.034
 70
     1
1001
DCO15
1071
        2
1071
        2
1000
new-all-density-link
1004
0000000000288440
  0
VERTEX
  5
1C8E
  8
10BY10
 10
104732.0
 20
481072.0
 30
0.034
  0
VERTEX
  5
1C8F
  8
10BY10
 10
104742.0
 20
481072.0
 30
0.034
  0
VERTEX
  5
1C90
  8
10BY10
 10
104742.0
 20
481082.0
 30
0.034
  0
VERTEX
  5
1C91
  8
10BY10
 10
104732.0
 20
481082.0
 30
0.034
  0
SEQEND
  5
1C92
  8
10BY10
  0
POLYLINE
  5
160
  8
10BY10
 66
     1
 10
0.0
 20
0.0
 30
0.02
 70
     1
1001
DCO15
1071
        2
1071
        2
1000
new-all-density-link
1004
0000000000A88440
  0
VERTEX
  5
1C93
  8
10BY10
 10
102703.0
 20
478749.0
 30
0.02
  0
VERTEX
  5
1C94
  8
10BY10
 10
102713.0
 20
478749.0
 30
0.02
  0
VERTEX
  5
1C95
  8
10BY10
 10
102713.0
 20
478759.0
 30
0.02
  0
VERTEX
  5
1C96
  8
10BY10
 10
102703.0
 20
478759.0
 30
0.02
  0
SEQEND
  5
1C97
  8
10BY10
  0
POLYLINE
  5
161
  8
10BY10
 66
     1
 10
0.0
 20
0.0
 30
0.02
 70
     1
1001
DCO15
1071
        2
1071
        2
1000
new-all-density-link
1004
0000000000B08440
  0
VERTEX
  5
1C98
  8
10BY10
 10
102683.0
 20
478755.0
 30
0.02
  0
VERTEX
  5
1C99
  8
10BY10
 10
102693.0
 20
478755.0
 30
0.02
  0
VERTEX
  5
1C9A
  8
10BY10
 10
102693.0
 20
478765.0
 30
0.02
  0
VERTEX
  5
1C9B
  8
10BY10
 10
102683.0
 20
478765.0
 30
0.02
  0
SEQEND
  5
1C9C
  8
10BY10
  0
POLYLINE
  5
162
  8
10BY10
 66
     1
 10
0.0
 20
0.0
 30
0.02
 70
     1
1001
DCO15
1071
        2
1071
        2
1000
new-all-density-link
1004
0000000000B88440
  0
VERTEX
  5
1C9D
  8
10BY10
 10
102639.0
 20
478785.0
 30
0.02
  0
VERTEX
  5
1C9E
  8
10BY10
 10
102649.0
 20
478785.0
 30
0.02
  0
VERTEX
  5
1C9F
  8
10BY10
 10
102649.0
 20
478795.0
 30
0.02
  0
VERTEX
  5
1CA0
  8
10BY10
 10
102639.0
 20
478795.0
 30
0.02
  0
SEQEND
  5
1CA1
  8
10BY10
  0
POLYLINE
  5
163
  8
10BY10
 66
     1
 10
0.0
 20
0.0
 30
0.034
 70
     1
1001
DCO15
1071
        2
1071
        2
1000
new-all-density-link
1004
0000000000E88440
  0
VERTEX
  5
1CA2
  8
10BY10
 10
106418.0
 20
481398.0
 30
0.034
  0
VERTEX
  5
1CA3
  8
10BY10
 10
106428.0
 20
481398.0
 30
0.034
  0
VERTEX
  5
1CA4
  8
10BY10
 10
106428.0
 20
481408.0
 30
0.034
  0
VERTEX
  5
1CA5
  8
10BY10
 10
106418.0
 20
481408.0
 30
0.034
  0
SEQEND
  5
1CA6
  8
10BY10
  0
POLYLINE
  5
164
  8
10BY10
 66
     1
 10
0.0
 20
0.0
 30
0.01
 70
     1
1001
DCO15
1071
        2
1071
        2
1000
new-all-density-link
1004
0000000000008540
  0
VERTEX
  5
1CA7
  8
10BY10
 10
105021.0
 20
479639.0
 30
0.01
  0
VERTEX
  5
1CA8
  8
10BY10
 10
105031.0
 20
479639.0
 30
0.01
  0
VERTEX
  5
1CA9
  8
10BY10
 10
105031.0
 20
479649.0
 30
0.01
  0
VERTEX
  5
1CAA
  8
10BY10
 10
105021.0
 20
479649.0
 30
0.01
  0
SEQEND
  5
1CAB
  8
10BY10
  0
POLYLINE
  5
165
  8
10BY10
 66
     1
 10
0.0
 20
0.0
 30
0.04
 70
     1
1001
DCO15
1071
        2
1071
        2
1000
new-all-density-link
1004
0000000000288540
  0
VERTEX
  5
1CAC
  8
10BY10
 10
106287.0
 20
480903.0
 30
0.04
  0
VERTEX
  5
1CAD
  8
10BY10
 10
106297.0
 20
480903.0
 30
0.04
  0
VERTEX
  5
1CAE
  8
10BY10
 10
106297.0
 20
480913.0
 30
0.04
  0
VERTEX
  5
1CAF
  8
10BY10
 10
106287.0
 20
480913.0
 30
0.04
  0
SEQEND
  5
1CB0
  8
10BY10
  0
POLYLINE
  5
166
  8
10BY10
 66
     1
 10
0.0
 20
0.0
 30
0.01
 70
     1
1001
DCO15
1071
        2
1071
        2
1000
new-all-density-link
1004
0000000000308540
  0
VERTEX
  5
1CB1
  8
10BY10
 10
105676.0
 20
480916.0
 30
0.01
  0
VERTEX
  5
1CB2
  8
10BY10
 10
105686.0
 20
480916.0
 30
0.01
  0
VERTEX
  5
1CB3
  8
10BY10
 10
105686.0
 20
480926.0
 30
0.01
  0
VERTEX
  5
1CB4
  8
10BY10
 10
105676.0
 20
480926.0
 30
0.01
  0
SEQEND
  5
1CB5
  8
10BY10
  0
POLYLINE
  5
167
  8
10BY10
 66
     1
 10
0.0
 20
0.0
 30
0.04
 70
     1
1001
DCO15
1071
        2
1071
        2
1000
new-all-density-link
1004
0000000000988540
  0
VERTEX
  5
1CB6
  8
10BY10
 10
97066.0
 20
481235.0
 30
0.04
  0
VERTEX
  5
1CB7
  8
10BY10
 10
97076.0
 20
481235.0
 30
0.04
  0
VERTEX
  5
1CB8
  8
10BY10
 10
97076.0
 20
481245.0
 30
0.04
  0
VERTEX
  5
1CB9
  8
10BY10
 10
97066.0
 20
481245.0
 30
0.04
  0
SEQEND
  5
1CBA
  8
10BY10
  0
POLYLINE
  5
168
  8
10BY10
 66
     1
 10
0.0
 20
0.0
 30
0.06
 70
     1
1001
DCO15
1071
        2
1071
        2
1000
new-all-density-link
1004
0000000000B08540
  0
VERTEX
  5
1CBB
  8
10BY10
 10
103125.0
 20
478966.0
 30
0.06
  0
VERTEX
  5
1CBC
  8
10BY10
 10
103135.0
 20
478966.0
 30
0.06
  0
VERTEX
  5
1CBD
  8
10BY10
 10
103135.0
 20
478976.0
 30
0.06
  0
VERTEX
  5
1CBE
  8
10BY10
 10
103125.0
 20
478976.0
 30
0.06
  0
SEQEND
  5
1CBF
  8
10BY10
  0
POLYLINE
  5
169
  8
10BY10
 66
     1
 10
0.0
 20
0.0
 30
0.064
 70
     1
1001
DCO15
1071
        2
1071
        2
1000
new-all-density-link
1004
0000000000B88540
  0
VERTEX
  5
1CC0
  8
10BY10
 10
103108.0
 20
478892.0
 30
0.064
  0
VERTEX
  5
1CC1
  8
10BY10
 10
103118.0
 20
478892.0
 30
0.064
  0
VERTEX
  5
1CC2
  8
10BY10
 10
103118.0
 20
478902.0
 30
0.064
  0
VERTEX
  5
1CC3
  8
10BY10
 10
103108.0
 20
478902.0
 30
0.064
  0
SEQEND
  5
1CC4
  8
10BY10
  0
POLYLINE
  5
16A
  8
10BY10
 66
     1
 10
0.0
 20
0.0
 30
0.144
 70
     1
1001
DCO15
1071
        2
1071
        2
1000
new-all-density-link
1004
0000000000C08540
  0
VERTEX
  5
1CC5
  8
10BY10
 10
103128.0
 20
478936.0
 30
0.144
  0
VERTEX
  5
1CC6
  8
10BY10
 10
103138.0
 20
478936.0
 30
0.144
  0
VERTEX
  5
1CC7
  8
10BY10
 10
103138.0
 20
478946.0
 30
0.144
  0
VERTEX
  5
1CC8
  8
10BY10
 10
103128.0
 20
478946.0
 30
0.144
  0
SEQEND
  5
1CC9
  8
10BY10
  0
POLYLINE
  5
16B
  8
10BY10
 66
     1
 10
0.0
 20
0.0
 30
0.01
 70
     1
1001
DCO15
1071
        2
1071
        2
1000
new-all-density-link
1004
0000000000C88540
  0
VERTEX
  5
1CCA
  8
10BY10
 10
102968.0
 20
478974.0
 30
0.01
  0
VERTEX
  5
1CCB
  8
10BY10
 10
102978.0
 20
478974.0
 30
0.01
  0
VERTEX
  5
1CCC
  8
10BY10
 10
102978.0
 20
478984.0
 30
0.01
  0
VERTEX
  5
1CCD
  8
10BY10
 10
102968.0
 20
478984.0
 30
0.01
  0
SEQEND
  5
1CCE
  8
10BY10
  0
POLYLINE
  5
16C
  8
10BY10
 66
     1
 10
0.0
 20
0.0
 30
0.11
 70
     1
1001
DCO15
1071
        2
1071
        2
1000
new-all-density-link
1004
0000000000E88540
  0
VERTEX
  5
1CCF
  8
10BY10
 10
103136.0
 20
478901.0
 30
0.11
  0
VERTEX
  5
1CD0
  8
10BY10
 10
103146.0
 20
478901.0
 30
0.11
  0
VERTEX
  5
1CD1
  8
10BY10
 10
103146.0
 20
478911.0
 30
0.11
  0
VERTEX
  5
1CD2
  8
10BY10
 10
103136.0
 20
478911.0
 30
0.11
  0
SEQEND
  5
1CD3
  8
10BY10
  0
POLYLINE
  5
16D
  8
10BY10
 66
     1
 10
0.0
 20
0.0
 30
0.38
 70
     1
1001
DCO15
1071
        2
1071
        2
1000
new-all-density-link
1004
0000000000F08540
  0
VERTEX
  5
1CD4
  8
10BY10
 10
103129.0
 20
478883.0
 30
0.38
  0
VERTEX
  5
1CD5
  8
10BY10
 10
103139.0
 20
478883.0
 30
0.38
  0
VERTEX
  5
1CD6
  8
10BY10
 10
103139.0
 20
478893.0
 30
0.38
  0
VERTEX
  5
1CD7
  8
10BY10
 10
103129.0
 20
478893.0
 30
0.38
  0
SEQEND
  5
1CD8
  8
10BY10
  0
POLYLINE
  5
16E
  8
10BY10
 66
     1
 10
0.0
 20
0.0
 30
0.06
 70
     1
1001
DCO15
1071
        2
1071
        2
1000
new-all-density-link
1004
0000000000F88540
  0
VERTEX
  5
1CD9
  8
10BY10
 10
103146.0
 20
478897.0
 30
0.06
  0
VERTEX
  5
1CDA
  8
10BY10
 10
103156.0
 20
478897.0
 30
0.06
  0
VERTEX
  5
1CDB
  8
10BY10
 10
103156.0
 20
478907.0
 30
0.06
  0
VERTEX
  5
1CDC
  8
10BY10
 10
103146.0
 20
478907.0
 30
0.06
  0
SEQEND
  5
1CDD
  8
10BY10
  0
POLYLINE
  5
16F
  8
10BY10
 66
     1
 10
0.0
 20
0.0
 30
0.01
 70
     1
1001
DCO15
1071
        2
1071
        2
1000
new-all-density-link
1004
0000000000008640
  0
VERTEX
  5
1CDE
  8
10BY10
 10
103144.0
 20
478873.0
 30
0.01
  0
VERTEX
  5
1CDF
  8
10BY10
 10
103154.0
 20
478873.0
 30
0.01
  0
VERTEX
  5
1CE0
  8
10BY10
 10
103154.0
 20
478883.0
 30
0.01
  0
VERTEX
  5
1CE1
  8
10BY10
 10
103144.0
 20
478883.0
 30
0.01
  0
SEQEND
  5
1CE2
  8
10BY10
  0
POLYLINE
  5
170
  8
10BY10
 66
     1
 10
0.0
 20
0.0
 30
0.38
 70
     1
1001
DCO15
1071
        2
1071
        2
1000
new-all-density-link
1004
0000000000108640
  0
VERTEX
  5
1CE3
  8
10BY10
 10
103136.0
 20
479003.0
 30
0.38
  0
VERTEX
  5
1CE4
  8
10BY10
 10
103146.0
 20
479003.0
 30
0.38
  0
VERTEX
  5
1CE5
  8
10BY10
 10
103146.0
 20
479013.0
 30
0.38
  0
VERTEX
  5
1CE6
  8
10BY10
 10
103136.0
 20
479013.0
 30
0.38
  0
SEQEND
  5
1CE7
  8
10BY10
  0
POLYLINE
  5
171
  8
10BY10
 66
     1
 10
0.0
 20
0.0
 30
0.21
 70
     1
1001
DCO15
1071
        2
1071
        2
1000
new-all-density-link
1004
0000000000188640
  0
VERTEX
  5
1CE8
  8
10BY10
 10
103130.0
 20
478923.0
 30
0.21
  0
VERTEX
  5
1CE9
  8
10BY10
 10
103140.0
 20
478923.0
 30
0.21
  0
VERTEX
  5
1CEA
  8
10BY10
 10
103140.0
 20
478933.0
 30
0.21
  0
VERTEX
  5
1CEB
  8
10BY10
 10
103130.0
 20
478933.0
 30
0.21
  0
SEQEND
  5
1CEC
  8
10BY10
  0
POLYLINE
  5
172
  8
10BY10
 66
     1
 10
0.0
 20
0.0
 30
0.9699999999999999
 70
     1
1001
DCO15
1071
        2
1071
        2
1000
new-all-density-link
1004
0000000000208640
  0
VERTEX
  5
1CED
  8
10BY10
 10
103146.0
 20
478913.0
 30
0.9699999999999999
  0
VERTEX
  5
1CEE
  8
10BY10
 10
103156.0
 20
478913.0
 30
0.9699999999999999
  0
VERTEX
  5
1CEF
  8
10BY10
 10
103156.0
 20
478923.0
 30
0.9699999999999999
  0
VERTEX
  5
1CF0
  8
10BY10
 10
103146.0
 20
478923.0
 30
0.9699999999999999
  0
SEQEND
  5
1CF1
  8
10BY10
  0
POLYLINE
  5
173
  8
10BY10
 66
     1
 10
0.0
 20
0.0
 30
0.19
 70
     1
1001
DCO15
1071
        2
1071
        2
1000
new-all-density-link
1004
0000000000288640
  0
VERTEX
  5
1CF2
  8
10BY10
 10
103126.0
 20
478903.0
 30
0.19
  0
VERTEX
  5
1CF3
  8
10BY10
 10
103136.0
 20
478903.0
 30
0.19
  0
VERTEX
  5
1CF4
  8
10BY10
 10
103136.0
 20
478913.0
 30
0.19
  0
VERTEX
  5
1CF5
  8
10BY10
 10
103126.0
 20
478913.0
 30
0.19
  0
SEQEND
  5
1CF6
  8
10BY10
  0
POLYLINE
  5
174
  8
10BY10
 66
     1
 10
0.0
 20
0.0
 30
0.4
 70
     1
1001
DCO15
1071
        2
1071
        2
1000
new-all-density-link
1004
0000000000308640
  0
VERTEX
  5
1CF7
  8
10BY10
 10
103136.0
 20
478913.0
 30
0.4
  0
VERTEX
  5
1CF8
  8
10BY10
 10
103146.0
 20
478913.0
 30
0.4
  0
VERTEX
  5
1CF9
  8
10BY10
 10
103146.0
 20
478923.0
 30
0.4
  0
VERTEX
  5
1CFA
  8
10BY10
 10
103136.0
 20
478923.0
 30
0.4
  0
SEQEND
  5
1CFB
  8
10BY10
  0
POLYLINE
  5
175
  8
10BY10
 66
     1
 10
0.0
 20
0.0
 30
0.14
 70
     1
1001
DCO15
1071
        2
1071
        2
1000
new-all-density-link
1004
0000000000388640
  0
VERTEX
  5
1CFC
  8
10BY10
 10
103125.0
 20
478893.0
 30
0.14
  0
VERTEX
  5
1CFD
  8
10BY10
 10
103135.0
 20
478893.0
 30
0.14
  0
VERTEX
  5
1CFE
  8
10BY10
 10
103135.0
 20
478903.0
 30
0.14
  0
VERTEX
  5
1CFF
  8
10BY10
 10
103125.0
 20
478903.0
 30
0.14
  0
SEQEND
  5
1D00
  8
10BY10
  0
POLYLINE
  5
176
  8
10BY10
 66
     1
 10
0.0
 20
0.0
 30
0.22
 70
     1
1001
DCO15
1071
        2
1071
        2
1000
new-all-density-link
1004
0000000000408640
  0
VERTEX
  5
1D01
  8
10BY10
 10
103121.0
 20
478863.0
 30
0.22
  0
VERTEX
  5
1D02
  8
10BY10
 10
103131.0
 20
478863.0
 30
0.22
  0
VERTEX
  5
1D03
  8
10BY10
 10
103131.0
 20
478873.0
 30
0.22
  0
VERTEX
  5
1D04
  8
10BY10
 10
103121.0
 20
478873.0
 30
0.22
  0
SEQEND
  5
1D05
  8
10BY10
  0
POLYLINE
  5
177
  8
10BY10
 66
     1
 10
0.0
 20
0.0
 30
0.01
 70
     1
1001
DCO15
1071
        2
1071
        2
1000
new-all-density-link
1004
0000000000588640
  0
VERTEX
  5
1D06
  8
10BY10
 10
96456.0
 20
481046.0
 30
0.01
  0
VERTEX
  5
1D07
  8
10BY10
 10
96466.0
 20
481046.0
 30
0.01
  0
VERTEX
  5
1D08
  8
10BY10
 10
96466.0
 20
481056.0
 30
0.01
  0
VERTEX
  5
1D09
  8
10BY10
 10
96456.0
 20
481056.0
 30
0.01
  0
SEQEND
  5
1D0A
  8
10BY10
  0
POLYLINE
  5
178
  8
10BY10
 66
     1
 10
0.0
 20
0.0
 30
0.01
 70
     1
1001
DCO15
1071
        2
1071
        2
1000
new-all-density-link
1004
0000000000608640
  0
VERTEX
  5
1D0B
  8
10BY10
 10
101440.0
 20
484517.0
 30
0.01
  0
VERTEX
  5
1D0C
  8
10BY10
 10
101450.0
 20
484517.0
 30
0.01
  0
VERTEX
  5
1D0D
  8
10BY10
 10
101450.0
 20
484527.0
 30
0.01
  0
VERTEX
  5
1D0E
  8
10BY10
 10
101440.0
 20
484527.0
 30
0.01
  0
SEQEND
  5
1D0F
  8
10BY10
  0
POLYLINE
  5
179
  8
10BY10
 66
     1
 10
0.0
 20
0.0
 30
0.34
 70
     1
1001
DCO15
1071
        2
1071
        2
1000
new-all-density-link
1004
0000000000B88740
  0
VERTEX
  5
1D10
  8
10BY10
 10
101409.0
 20
484536.0
 30
0.34
  0
VERTEX
  5
1D11
  8
10BY10
 10
101419.0
 20
484536.0
 30
0.34
  0
VERTEX
  5
1D12
  8
10BY10
 10
101419.0
 20
484546.0
 30
0.34
  0
VERTEX
  5
1D13
  8
10BY10
 10
101409.0
 20
484546.0
 30
0.34
  0
SEQEND
  5
1D14
  8
10BY10
  0
POLYLINE
  5
17A
  8
10BY10
 66
     1
 10
0.0
 20
0.0
 30
0.19
 70
     1
1001
DCO15
1071
        2
1071
        2
1000
new-all-density-link
1004
0000000000C08740
  0
VERTEX
  5
1D15
  8
10BY10
 10
101412.0
 20
484560.0
 30
0.19
  0
VERTEX
  5
1D16
  8
10BY10
 10
101422.0
 20
484560.0
 30
0.19
  0
VERTEX
  5
1D17
  8
10BY10
 10
101422.0
 20
484570.0
 30
0.19
  0
VERTEX
  5
1D18
  8
10BY10
 10
101412.0
 20
484570.0
 30
0.19
  0
SEQEND
  5
1D19
  8
10BY10
  0
POLYLINE
  5
17B
  8
10BY10
 66
     1
 10
0.0
 20
0.0
 30
0.19
 70
     1
1001
DCO15
1071
        2
1071
        2
1000
new-all-density-link
1004
0000000000C88740
  0
VERTEX
  5
1D1A
  8
10BY10
 10
101391.0
 20
484542.0
 30
0.19
  0
VERTEX
  5
1D1B
  8
10BY10
 10
101401.0
 20
484542.0
 30
0.19
  0
VERTEX
  5
1D1C
  8
10BY10
 10
101401.0
 20
484552.0
 30
0.19
  0
VERTEX
  5
1D1D
  8
10BY10
 10
101391.0
 20
484552.0
 30
0.19
  0
SEQEND
  5
1D1E
  8
10BY10
  0
POLYLINE
  5
17C
  8
10BY10
 66
     1
 10
0.0
 20
0.0
 30
0.09
 70
     1
1001
DCO15
1071
        2
1071
        2
1000
new-all-density-link
1004
0000000000D08740
  0
VERTEX
  5
1D1F
  8
10BY10
 10
101356.0
 20
484547.0
 30
0.09
  0
VERTEX
  5
1D20
  8
10BY10
 10
101366.0
 20
484547.0
 30
0.09
  0
VERTEX
  5
1D21
  8
10BY10
 10
101366.0
 20
484557.0
 30
0.09
  0
VERTEX
  5
1D22
  8
10BY10
 10
101356.0
 20
484557.0
 30
0.09
  0
SEQEND
  5
1D23
  8
10BY10
  0
POLYLINE
  5
17D
  8
10BY10
 66
     1
 10
0.0
 20
0.0
 30
0.05
 70
     1
1001
DCO15
1071
        2
1071
        2
1000
new-all-density-link
1004
0000000000D88740
  0
VERTEX
  5
1D24
  8
10BY10
 10
101373.0
 20
484518.0
 30
0.05
  0
VERTEX
  5
1D25
  8
10BY10
 10
101383.0
 20
484518.0
 30
0.05
  0
VERTEX
  5
1D26
  8
10BY10
 10
101383.0
 20
484528.0
 30
0.05
  0
VERTEX
  5
1D27
  8
10BY10
 10
101373.0
 20
484528.0
 30
0.05
  0
SEQEND
  5
1D28
  8
10BY10
  0
POLYLINE
  5
17E
  8
10BY10
 66
     1
 10
0.0
 20
0.0
 30
0.14
 70
     1
1001
DCO15
1071
        2
1071
        2
1000
new-all-density-link
1004
0000000000E08740
  0
VERTEX
  5
1D29
  8
10BY10
 10
101395.0
 20
484492.0
 30
0.14
  0
VERTEX
  5
1D2A
  8
10BY10
 10
101405.0
 20
484492.0
 30
0.14
  0
VERTEX
  5
1D2B
  8
10BY10
 10
101405.0
 20
484502.0
 30
0.14
  0
VERTEX
  5
1D2C
  8
10BY10
 10
101395.0
 20
484502.0
 30
0.14
  0
SEQEND
  5
1D2D
  8
10BY10
  0
POLYLINE
  5
17F
  8
10BY10
 66
     1
 10
0.0
 20
0.0
 30
0.05
 70
     1
1001
DCO15
1071
        2
1071
        2
1000
new-all-density-link
1004
0000000000E88740
  0
VERTEX
  5
1D2E
  8
10BY10
 10
101348.0
 20
484589.0
 30
0.05
  0
VERTEX
  5
1D2F
  8
10BY10
 10
101358.0
 20
484589.0
 30
0.05
  0
VERTEX
  5
1D30
  8
10BY10
 10
101358.0
 20
484599.0
 30
0.05
  0
VERTEX
  5
1D31
  8
10BY10
 10
101348.0
 20
484599.0
 30
0.05
  0
SEQEND
  5
1D32
  8
10BY10
  0
POLYLINE
  5
180
  8
10BY10
 66
     1
 10
0.0
 20
0.0
 30
0.03
 70
     1
1001
DCO15
1071
        2
1071
        2
1000
new-all-density-link
1004
0000000000F08740
  0
VERTEX
  5
1D33
  8
10BY10
 10
101263.0
 20
484501.0
 30
0.03
  0
VERTEX
  5
1D34
  8
10BY10
 10
101273.0
 20
484501.0
 30
0.03
  0
VERTEX
  5
1D35
  8
10BY10
 10
101273.0
 20
484511.0
 30
0.03
  0
VERTEX
  5
1D36
  8
10BY10
 10
101263.0
 20
484511.0
 30
0.03
  0
SEQEND
  5
1D37
  8
10BY10
  0
POLYLINE
  5
181
  8
10BY10
 66
     1
 10
0.0
 20
0.0
 30
0.02
 70
     1
1001
DCO15
1071
        2
1071
        2
1000
new-all-density-link
1004
0000000000F88740
  0
VERTEX
  5
1D38
  8
10BY10
 10
92144.0
 20
489512.0
 30
0.02
  0
VERTEX
  5
1D39
  8
10BY10
 10
92154.0
 20
489512.0
 30
0.02
  0
VERTEX
  5
1D3A
  8
10BY10
 10
92154.0
 20
489522.0
 30
0.02
  0
VERTEX
  5
1D3B
  8
10BY10
 10
92144.0
 20
489522.0
 30
0.02
  0
SEQEND
  5
1D3C
  8
10BY10
  0
POLYLINE
  5
182
  8
10BY10
 66
     1
 10
0.0
 20
0.0
 30
0.1
 70
     1
1001
DCO15
1071
        2
1071
        2
1000
new-all-density-link
1004
0000000000008840
  0
VERTEX
  5
1D3D
  8
10BY10
 10
92141.0
 20
489523.0
 30
0.1
  0
VERTEX
  5
1D3E
  8
10BY10
 10
92151.0
 20
489523.0
 30
0.1
  0
VERTEX
  5
1D3F
  8
10BY10
 10
92151.0
 20
489533.0
 30
0.1
  0
VERTEX
  5
1D40
  8
10BY10
 10
92141.0
 20
489533.0
 30
0.1
  0
SEQEND
  5
1D41
  8
10BY10
  0
POLYLINE
  5
183
  8
10BY10
 66
     1
 10
0.0
 20
0.0
 30
0.01
 70
     1
1001
DCO15
1071
        2
1071
        2
1000
new-all-density-link
1004
0000000000108840
  0
VERTEX
  5
1D42
  8
10BY10
 10
92123.0
 20
489501.0
 30
0.01
  0
VERTEX
  5
1D43
  8
10BY10
 10
92133.0
 20
489501.0
 30
0.01
  0
VERTEX
  5
1D44
  8
10BY10
 10
92133.0
 20
489511.0
 30
0.01
  0
VERTEX
  5
1D45
  8
10BY10
 10
92123.0
 20
489511.0
 30
0.01
  0
SEQEND
  5
1D46
  8
10BY10
  0
POLYLINE
  5
184
  8
10BY10
 66
     1
 10
0.0
 20
0.0
 30
0.05
 70
     1
1001
DCO15
1071
        2
1071
        2
1000
new-all-density-link
1004
0000000000208840
  0
VERTEX
  5
1D47
  8
10BY10
 10
92157.0
 20
489518.0
 30
0.05
  0
VERTEX
  5
1D48
  8
10BY10
 10
92167.0
 20
489518.0
 30
0.05
  0
VERTEX
  5
1D49
  8
10BY10
 10
92167.0
 20
489528.0
 30
0.05
  0
VERTEX
  5
1D4A
  8
10BY10
 10
92157.0
 20
489528.0
 30
0.05
  0
SEQEND
  5
1D4B
  8
10BY10
  0
POLYLINE
  5
185
  8
10BY10
 66
     1
 10
0.0
 20
0.0
 30
0.04
 70
     1
1001
DCO15
1071
        2
1071
        2
1000
new-all-density-link
1004
0000000000388840
  0
VERTEX
  5
1D4C
  8
10BY10
 10
92151.0
 20
489491.0
 30
0.04
  0
VERTEX
  5
1D4D
  8
10BY10
 10
92161.0
 20
489491.0
 30
0.04
  0
VERTEX
  5
1D4E
  8
10BY10
 10
92161.0
 20
489501.0
 30
0.04
  0
VERTEX
  5
1D4F
  8
10BY10
 10
92151.0
 20
489501.0
 30
0.04
  0
SEQEND
  5
1D50
  8
10BY10
  0
POLYLINE
  5
186
  8
10BY10
 66
     1
 10
0.0
 20
0.0
 30
0.05
 70
     1
1001
DCO15
1071
        2
1071
        2
1000
new-all-density-link
1004
0000000000408840
  0
VERTEX
  5
1D51
  8
10BY10
 10
92135.0
 20
489493.0
 30
0.05
  0
VERTEX
  5
1D52
  8
10BY10
 10
92145.0
 20
489493.0
 30
0.05
  0
VERTEX
  5
1D53
  8
10BY10
 10
92145.0
 20
489503.0
 30
0.05
  0
VERTEX
  5
1D54
  8
10BY10
 10
92135.0
 20
489503.0
 30
0.05
  0
SEQEND
  5
1D55
  8
10BY10
  0
POLYLINE
  5
187
  8
10BY10
 66
     1
 10
0.0
 20
0.0
 30
0.08
 70
     1
1001
DCO15
1071
        2
1071
        2
1000
new-all-density-link
1004
0000000000488840
  0
VERTEX
  5
1D56
  8
10BY10
 10
92107.0
 20
489475.0
 30
0.08
  0
VERTEX
  5
1D57
  8
10BY10
 10
92117.0
 20
489475.0
 30
0.08
  0
VERTEX
  5
1D58
  8
10BY10
 10
92117.0
 20
489485.0
 30
0.08
  0
VERTEX
  5
1D59
  8
10BY10
 10
92107.0
 20
489485.0
 30
0.08
  0
SEQEND
  5
1D5A
  8
10BY10
  0
POLYLINE
  5
188
  8
10BY10
 66
     1
 10
0.0
 20
0.0
 30
0.04
 70
     1
1001
DCO15
1071
        2
1071
        2
1000
new-all-density-link
1004
0000000000608840
  0
VERTEX
  5
1D5B
  8
10BY10
 10
92117.0
 20
489487.0
 30
0.04
  0
VERTEX
  5
1D5C
  8
10BY10
 10
92127.0
 20
489487.0
 30
0.04
  0
VERTEX
  5
1D5D
  8
10BY10
 10
92127.0
 20
489497.0
 30
0.04
  0
VERTEX
  5
1D5E
  8
10BY10
 10
92117.0
 20
489497.0
 30
0.04
  0
SEQEND
  5
1D5F
  8
10BY10
  0
POLYLINE
  5
189
  8
10BY10
 66
     1
 10
0.0
 20
0.0
 30
0.07
 70
     1
1001
DCO15
1071
        2
1071
        2
1000
new-all-density-link
1004
0000000000488940
  0
VERTEX
  5
1D60
  8
10BY10
 10
85162.0
 20
497002.0
 30
0.07
  0
VERTEX
  5
1D61
  8
10BY10
 10
85172.0
 20
497002.0
 30
0.07
  0
VERTEX
  5
1D62
  8
10BY10
 10
85172.0
 20
497012.0
 30
0.07
  0
VERTEX
  5
1D63
  8
10BY10
 10
85162.0
 20
497012.0
 30
0.07
  0
SEQEND
  5
1D64
  8
10BY10
  0
POLYLINE
  5
18A
  8
10BY10
 66
     1
 10
0.0
 20
0.0
 30
0.034
 70
     1
1001
DCO15
1071
        2
1071
        2
1000
new-all-density-link
1004
0000000000508940
  0
VERTEX
  5
1D65
  8
10BY10
 10
85487.0
 20
497039.0
 30
0.034
  0
VERTEX
  5
1D66
  8
10BY10
 10
85497.0
 20
497039.0
 30
0.034
  0
VERTEX
  5
1D67
  8
10BY10
 10
85497.0
 20
497049.0
 30
0.034
  0
VERTEX
  5
1D68
  8
10BY10
 10
85487.0
 20
497049.0
 30
0.034
  0
SEQEND
  5
1D69
  8
10BY10
  0
POLYLINE
  5
18B
  8
10BY10
 66
     1
 10
0.0
 20
0.0
 30
0.05
 70
     1
1001
DCO15
1071
        2
1071
        2
1000
new-all-density-link
1004
0000000000588940
  0
VERTEX
  5
1D6A
  8
10BY10
 10
85217.0
 20
497050.0
 30
0.05
  0
VERTEX
  5
1D6B
  8
10BY10
 10
85227.0
 20
497050.0
 30
0.05
  0
VERTEX
  5
1D6C
  8
10BY10
 10
85227.0
 20
497060.0
 30
0.05
  0
VERTEX
  5
1D6D
  8
10BY10
 10
85217.0
 20
497060.0
 30
0.05
  0
SEQEND
  5
1D6E
  8
10BY10
  0
POLYLINE
  5
18C
  8
10BY10
 66
     1
 10
0.0
 20
0.0
 30
0.14
 70
     1
1001
DCO15
1071
        2
1071
        2
1000
new-all-density-link
1004
0000000000688940
  0
VERTEX
  5
1D6F
  8
10BY10
 10
85804.0
 20
497001.0
 30
0.14
  0
VERTEX
  5
1D70
  8
10BY10
 10
85814.0
 20
497001.0
 30
0.14
  0
VERTEX
  5
1D71
  8
10BY10
 10
85814.0
 20
497011.0
 30
0.14
  0
VERTEX
  5
1D72
  8
10BY10
 10
85804.0
 20
497011.0
 30
0.14
  0
SEQEND
  5
1D73
  8
10BY10
  0
POLYLINE
  5
18D
  8
10BY10
 66
     1
 10
0.0
 20
0.0
 30
0.04
 70
     1
1001
DCO15
1071
        2
1071
        2
1000
new-all-density-link
1004
0000000000708940
  0
VERTEX
  5
1D74
  8
10BY10
 10
85212.0
 20
497062.0
 30
0.04
  0
VERTEX
  5
1D75
  8
10BY10
 10
85222.0
 20
497062.0
 30
0.04
  0
VERTEX
  5
1D76
  8
10BY10
 10
85222.0
 20
497072.0
 30
0.04
  0
VERTEX
  5
1D77
  8
10BY10
 10
85212.0
 20
497072.0
 30
0.04
  0
SEQEND
  5
1D78
  8
10BY10
  0
POLYLINE
  5
18E
  8
10BY10
 66
     1
 10
0.0
 20
0.0
 30
0.11
 70
     1
1001
DCO15
1071
        2
1071
        2
1000
new-all-density-link
1004
0000000000788940
  0
VERTEX
  5
1D79
  8
10BY10
 10
85202.0
 20
497066.0
 30
0.11
  0
VERTEX
  5
1D7A
  8
10BY10
 10
85212.0
 20
497066.0
 30
0.11
  0
VERTEX
  5
1D7B
  8
10BY10
 10
85212.0
 20
497076.0
 30
0.11
  0
VERTEX
  5
1D7C
  8
10BY10
 10
85202.0
 20
497076.0
 30
0.11
  0
SEQEND
  5
1D7D
  8
10BY10
  0
POLYLINE
  5
18F
  8
10BY10
 66
     1
 10
0.0
 20
0.0
 30
0.13
 70
     1
1001
DCO15
1071
        2
1071
        2
1000
new-all-density-link
1004
0000000000908940
  0
VERTEX
  5
1D7E
  8
10BY10
 10
85161.0
 20
497034.0
 30
0.13
  0
VERTEX
  5
1D7F
  8
10BY10
 10
85171.0
 20
497034.0
 30
0.13
  0
VERTEX
  5
1D80
  8
10BY10
 10
85171.0
 20
497044.0
 30
0.13
  0
VERTEX
  5
1D81
  8
10BY10
 10
85161.0
 20
497044.0
 30
0.13
  0
SEQEND
  5
1D82
  8
10BY10
  0
POLYLINE
  5
190
  8
10BY10
 66
     1
 10
0.0
 20
0.0
 30
0.03
 70
     1
1001
DCO15
1071
        2
1071
        2
1000
new-all-density-link
1004
0000000000988940
  0
VERTEX
  5
1D83
  8
10BY10
 10
85167.0
 20
497052.0
 30
0.03
  0
VERTEX
  5
1D84
  8
10BY10
 10
85177.0
 20
497052.0
 30
0.03
  0
VERTEX
  5
1D85
  8
10BY10
 10
85177.0
 20
497062.0
 30
0.03
  0
VERTEX
  5
1D86
  8
10BY10
 10
85167.0
 20
497062.0
 30
0.03
  0
SEQEND
  5
1D87
  8
10BY10
  0
POLYLINE
  5
191
  8
10BY10
 66
     1
 10
0.0
 20
0.0
 30
0.017
 70
     1
1001
DCO15
1071
        2
1071
        2
1000
new-all-density-link
1004
0000000000A08940
  0
VERTEX
  5
1D88
  8
10BY10
 10
85472.0
 20
497083.0
 30
0.017
  0
VERTEX
  5
1D89
  8
10BY10
 10
85482.0
 20
497083.0
 30
0.017
  0
VERTEX
  5
1D8A
  8
10BY10
 10
85482.0
 20
497093.0
 30
0.017
  0
VERTEX
  5
1D8B
  8
10BY10
 10
85472.0
 20
497093.0
 30
0.017
  0
SEQEND
  5
1D8C
  8
10BY10
  0
POLYLINE
  5
192
  8
10BY10
 66
     1
 10
0.0
 20
0.0
 30
0.068
 70
     1
1001
DCO15
1071
        2
1071
        2
1000
new-all-density-link
1004
0000000000A88940
  0
VERTEX
  5
1D8D
  8
10BY10
 10
85474.0
 20
497005.0
 30
0.068
  0
VERTEX
  5
1D8E
  8
10BY10
 10
85484.0
 20
497005.0
 30
0.068
  0
VERTEX
  5
1D8F
  8
10BY10
 10
85484.0
 20
497015.0
 30
0.068
  0
VERTEX
  5
1D90
  8
10BY10
 10
85474.0
 20
497015.0
 30
0.068
  0
SEQEND
  5
1D91
  8
10BY10
  0
POLYLINE
  5
193
  8
10BY10
 66
     1
 10
0.0
 20
0.0
 30
0.9099999999999999
 70
     1
1001
DCO15
1071
        2
1071
        2
1000
new-all-density-link
1004
0000000000B08940
  0
VERTEX
  5
1D92
  8
10BY10
 10
85177.0
 20
497010.0
 30
0.9099999999999999
  0
VERTEX
  5
1D93
  8
10BY10
 10
85187.0
 20
497010.0
 30
0.9099999999999999
  0
VERTEX
  5
1D94
  8
10BY10
 10
85187.0
 20
497020.0
 30
0.9099999999999999
  0
VERTEX
  5
1D95
  8
10BY10
 10
85177.0
 20
497020.0
 30
0.9099999999999999
  0
SEQEND
  5
1D96
  8
10BY10
  0
POLYLINE
  5
194
  8
10BY10
 66
     1
 10
0.0
 20
0.0
 30
0.34
 70
     1
1001
DCO15
1071
        2
1071
        2
1000
new-all-density-link
1004
0000000000C08940
  0
VERTEX
  5
1D97
  8
10BY10
 10
85471.0
 20
497034.0
 30
0.34
  0
VERTEX
  5
1D98
  8
10BY10
 10
85481.0
 20
497034.0
 30
0.34
  0
VERTEX
  5
1D99
  8
10BY10
 10
85481.0
 20
497044.0
 30
0.34
  0
VERTEX
  5
1D9A
  8
10BY10
 10
85471.0
 20
497044.0
 30
0.34
  0
SEQEND
  5
1D9B
  8
10BY10
  0
POLYLINE
  5
195
  8
10BY10
 66
     1
 10
0.0
 20
0.0
 30
0.017
 70
     1
1001
DCO15
1071
        2
1071
        2
1000
new-all-density-link
1004
0000000000C88940
  0
VERTEX
  5
1D9C
  8
10BY10
 10
85453.0
 20
497045.0
 30
0.017
  0
VERTEX
  5
1D9D
  8
10BY10
 10
85463.0
 20
497045.0
 30
0.017
  0
VERTEX
  5
1D9E
  8
10BY10
 10
85463.0
 20
497055.0
 30
0.017
  0
VERTEX
  5
1D9F
  8
10BY10
 10
85453.0
 20
497055.0
 30
0.017
  0
SEQEND
  5
1DA0
  8
10BY10
  0
POLYLINE
  5
196
  8
10BY10
 66
     1
 10
0.0
 20
0.0
 30
0.017
 70
     1
1001
DCO15
1071
        2
1071
        2
1000
new-all-density-link
1004
0000000000D08940
  0
VERTEX
  5
1DA1
  8
10BY10
 10
85498.0
 20
497057.0
 30
0.017
  0
VERTEX
  5
1DA2
  8
10BY10
 10
85508.0
 20
497057.0
 30
0.017
  0
VERTEX
  5
1DA3
  8
10BY10
 10
85508.0
 20
497067.0
 30
0.017
  0
VERTEX
  5
1DA4
  8
10BY10
 10
85498.0
 20
497067.0
 30
0.017
  0
SEQEND
  5
1DA5
  8
10BY10
  0
POLYLINE
  5
197
  8
10BY10
 66
     1
 10
0.0
 20
0.0
 30
0.25
 70
     1
1001
DCO15
1071
        2
1071
        2
1000
new-all-density-link
1004
0000000000D88940
  0
VERTEX
  5
1DA6
  8
10BY10
 10
85190.0
 20
497013.0
 30
0.25
  0
VERTEX
  5
1DA7
  8
10BY10
 10
85200.0
 20
497013.0
 30
0.25
  0
VERTEX
  5
1DA8
  8
10BY10
 10
85200.0
 20
497023.0
 30
0.25
  0
VERTEX
  5
1DA9
  8
10BY10
 10
85190.0
 20
497023.0
 30
0.25
  0
SEQEND
  5
1DAA
  8
10BY10
  0
POLYLINE
  5
198
  8
10BY10
 66
     1
 10
0.0
 20
0.0
 30
0.1
 70
     1
1001
DCO15
1071
        2
1071
        2
1000
new-all-density-link
1004
0000000000E08940
  0
VERTEX
  5
1DAB
  8
10BY10
 10
85486.0
 20
497062.0
 30
0.1
  0
VERTEX
  5
1DAC
  8
10BY10
 10
85496.0
 20
497062.0
 30
0.1
  0
VERTEX
  5
1DAD
  8
10BY10
 10
85496.0
 20
497072.0
 30
0.1
  0
VERTEX
  5
1DAE
  8
10BY10
 10
85486.0
 20
497072.0
 30
0.1
  0
SEQEND
  5
1DAF
  8
10BY10
  0
POLYLINE
  5
199
  8
10BY10
 66
     1
 10
0.0
 20
0.0
 30
0.03
 70
     1
1001
DCO15
1071
        2
1071
        2
1000
new-all-density-link
1004
0000000000088A40
  0
VERTEX
  5
1DB0
  8
10BY10
 10
89936.0
 20
494352.0
 30
0.03
  0
VERTEX
  5
1DB1
  8
10BY10
 10
89946.0
 20
494352.0
 30
0.03
  0
VERTEX
  5
1DB2
  8
10BY10
 10
89946.0
 20
494362.0
 30
0.03
  0
VERTEX
  5
1DB3
  8
10BY10
 10
89936.0
 20
494362.0
 30
0.03
  0
SEQEND
  5
1DB4
  8
10BY10
  0
POLYLINE
  5
19A
  8
10BY10
 66
     1
 10
0.0
 20
0.0
 30
0.01
 70
     1
1001
DCO15
1071
        2
1071
        2
1000
new-all-density-link
1004
0000000000588A40
  0
VERTEX
  5
1DB5
  8
10BY10
 10
89948.0
 20
494419.0
 30
0.01
  0
VERTEX
  5
1DB6
  8
10BY10
 10
89958.0
 20
494419.0
 30
0.01
  0
VERTEX
  5
1DB7
  8
10BY10
 10
89958.0
 20
494429.0
 30
0.01
  0
VERTEX
  5
1DB8
  8
10BY10
 10
89948.0
 20
494429.0
 30
0.01
  0
SEQEND
  5
1DB9
  8
10BY10
  0
POLYLINE
  5
19B
  8
10BY10
 66
     1
 10
0.0
 20
0.0
 30
0.03
 70
     1
1001
DCO15
1071
        2
1071
        2
1000
new-all-density-link
1004
0000000000988A40
  0
VERTEX
  5
1DBA
  8
10BY10
 10
89945.0
 20
494319.0
 30
0.03
  0
VERTEX
  5
1DBB
  8
10BY10
 10
89955.0
 20
494319.0
 30
0.03
  0
VERTEX
  5
1DBC
  8
10BY10
 10
89955.0
 20
494329.0
 30
0.03
  0
VERTEX
  5
1DBD
  8
10BY10
 10
89945.0
 20
494329.0
 30
0.03
  0
SEQEND
  5
1DBE
  8
10BY10
  0
POLYLINE
  5
19C
  8
10BY10
 66
     1
 10
0.0
 20
0.0
 30
0.05
 70
     1
1001
DCO15
1071
        2
1071
        2
1000
new-all-density-link
1004
0000000000A08A40
  0
VERTEX
  5
1DBF
  8
10BY10
 10
89949.0
 20
494329.0
 30
0.05
  0
VERTEX
  5
1DC0
  8
10BY10
 10
89959.0
 20
494329.0
 30
0.05
  0
VERTEX
  5
1DC1
  8
10BY10
 10
89959.0
 20
494339.0
 30
0.05
  0
VERTEX
  5
1DC2
  8
10BY10
 10
89949.0
 20
494339.0
 30
0.05
  0
SEQEND
  5
1DC3
  8
10BY10
  0
POLYLINE
  5
19D
  8
10BY10
 66
     1
 10
0.0
 20
0.0
 30
0.04
 70
     1
1001
DCO15
1071
        2
1071
        2
1000
new-all-density-link
1004
0000000000808B40
  0
VERTEX
  5
1DC4
  8
10BY10
 10
80719.0
 20
491908.0
 30
0.04
  0
VERTEX
  5
1DC5
  8
10BY10
 10
80729.0
 20
491908.0
 30
0.04
  0
VERTEX
  5
1DC6
  8
10BY10
 10
80729.0
 20
491918.0
 30
0.04
  0
VERTEX
  5
1DC7
  8
10BY10
 10
80719.0
 20
491918.0
 30
0.04
  0
SEQEND
  5
1DC8
  8
10BY10
  0
POLYLINE
  5
19E
  8
10BY10
 66
     1
 10
0.0
 20
0.0
 30
0.04
 70
     1
1001
DCO15
1071
        2
1071
        2
1000
new-all-density-link
1004
0000000000888B40
  0
VERTEX
  5
1DC9
  8
10BY10
 10
81101.0
 20
495519.0
 30
0.04
  0
VERTEX
  5
1DCA
  8
10BY10
 10
81111.0
 20
495519.0
 30
0.04
  0
VERTEX
  5
1DCB
  8
10BY10
 10
81111.0
 20
495529.0
 30
0.04
  0
VERTEX
  5
1DCC
  8
10BY10
 10
81101.0
 20
495529.0
 30
0.04
  0
SEQEND
  5
1DCD
  8
10BY10
  0
POLYLINE
  5
19F
  8
10BY10
 66
     1
 10
0.0
 20
0.0
 30
0.01
 70
     1
1001
DCO15
1071
        2
1071
        2
1000
new-all-density-link
1004
0000000000908B40
  0
VERTEX
  5
1DCE
  8
10BY10
 10
80983.0
 20
495222.0
 30
0.01
  0
VERTEX
  5
1DCF
  8
10BY10
 10
80993.0
 20
495222.0
 30
0.01
  0
VERTEX
  5
1DD0
  8
10BY10
 10
80993.0
 20
495232.0
 30
0.01
  0
VERTEX
  5
1DD1
  8
10BY10
 10
80983.0
 20
495232.0
 30
0.01
  0
SEQEND
  5
1DD2
  8
10BY10
  0
POLYLINE
  5
1A0
  8
10BY10
 66
     1
 10
0.0
 20
0.0
 30
0.08
 70
     1
1001
DCO15
1071
        2
1071
        2
1000
new-all-density-link
1004
0000000000A08B40
  0
VERTEX
  5
1DD3
  8
10BY10
 10
80978.0
 20
495285.0
 30
0.08
  0
VERTEX
  5
1DD4
  8
10BY10
 10
80988.0
 20
495285.0
 30
0.08
  0
VERTEX
  5
1DD5
  8
10BY10
 10
80988.0
 20
495295.0
 30
0.08
  0
VERTEX
  5
1DD6
  8
10BY10
 10
80978.0
 20
495295.0
 30
0.08
  0
SEQEND
  5
1DD7
  8
10BY10
  0
POLYLINE
  5
1A1
  8
10BY10
 66
     1
 10
0.0
 20
0.0
 30
0.03
 70
     1
1001
DCO15
1071
        2
1071
        2
1000
new-all-density-link
1004
0000000000A88B40
  0
VERTEX
  5
1DD8
  8
10BY10
 10
81088.0
 20
495320.0
 30
0.03
  0
VERTEX
  5
1DD9
  8
10BY10
 10
81098.0
 20
495320.0
 30
0.03
  0
VERTEX
  5
1DDA
  8
10BY10
 10
81098.0
 20
495330.0
 30
0.03
  0
VERTEX
  5
1DDB
  8
10BY10
 10
81088.0
 20
495330.0
 30
0.03
  0
SEQEND
  5
1DDC
  8
10BY10
  0
POLYLINE
  5
1A2
  8
10BY10
 66
     1
 10
0.0
 20
0.0
 30
0.22
 70
     1
1001
DCO15
1071
        2
1071
        2
1000
new-all-density-link
1004
0000000000B08B40
  0
VERTEX
  5
1DDD
  8
10BY10
 10
80970.0
 20
495308.0
 30
0.22
  0
VERTEX
  5
1DDE
  8
10BY10
 10
80980.0
 20
495308.0
 30
0.22
  0
VERTEX
  5
1DDF
  8
10BY10
 10
80980.0
 20
495318.0
 30
0.22
  0
VERTEX
  5
1DE0
  8
10BY10
 10
80970.0
 20
495318.0
 30
0.22
  0
SEQEND
  5
1DE1
  8
10BY10
  0
POLYLINE
  5
1A3
  8
10BY10
 66
     1
 10
0.0
 20
0.0
 30
0.04
 70
     1
1001
DCO15
1071
        2
1071
        2
1000
new-all-density-link
1004
0000000000B88B40
  0
VERTEX
  5
1DE2
  8
10BY10
 10
81083.0
 20
495350.0
 30
0.04
  0
VERTEX
  5
1DE3
  8
10BY10
 10
81093.0
 20
495350.0
 30
0.04
  0
VERTEX
  5
1DE4
  8
10BY10
 10
81093.0
 20
495360.0
 30
0.04
  0
VERTEX
  5
1DE5
  8
10BY10
 10
81083.0
 20
495360.0
 30
0.04
  0
SEQEND
  5
1DE6
  8
10BY10
  0
POLYLINE
  5
1A4
  8
10BY10
 66
     1
 10
0.0
 20
0.0
 30
0.18
 70
     1
1001
DCO15
1071
        2
1071
        2
1000
new-all-density-link
1004
0000000000C08B40
  0
VERTEX
  5
1DE7
  8
10BY10
 10
80966.0
 20
495318.0
 30
0.18
  0
VERTEX
  5
1DE8
  8
10BY10
 10
80976.0
 20
495318.0
 30
0.18
  0
VERTEX
  5
1DE9
  8
10BY10
 10
80976.0
 20
495328.0
 30
0.18
  0
VERTEX
  5
1DEA
  8
10BY10
 10
80966.0
 20
495328.0
 30
0.18
  0
SEQEND
  5
1DEB
  8
10BY10
  0
POLYLINE
  5
1A5
  8
10BY10
 66
     1
 10
0.0
 20
0.0
 30
0.04
 70
     1
1001
DCO15
1071
        2
1071
        2
1000
new-all-density-link
1004
0000000000D08B40
  0
VERTEX
  5
1DEC
  8
10BY10
 10
80956.0
 20
495325.0
 30
0.04
  0
VERTEX
  5
1DED
  8
10BY10
 10
80966.0
 20
495325.0
 30
0.04
  0
VERTEX
  5
1DEE
  8
10BY10
 10
80966.0
 20
495335.0
 30
0.04
  0
VERTEX
  5
1DEF
  8
10BY10
 10
80956.0
 20
495335.0
 30
0.04
  0
SEQEND
  5
1DF0
  8
10BY10
  0
POLYLINE
  5
1A6
  8
10BY10
 66
     1
 10
0.0
 20
0.0
 30
0.01
 70
     1
1001
DCO15
1071
        2
1071
        2
1000
new-all-density-link
1004
0000000000E88B40
  0
VERTEX
  5
1DF1
  8
10BY10
 10
81241.0
 20
495648.0
 30
0.01
  0
VERTEX
  5
1DF2
  8
10BY10
 10
81251.0
 20
495648.0
 30
0.01
  0
VERTEX
  5
1DF3
  8
10BY10
 10
81251.0
 20
495658.0
 30
0.01
  0
VERTEX
  5
1DF4
  8
10BY10
 10
81241.0
 20
495658.0
 30
0.01
  0
SEQEND
  5
1DF5
  8
10BY10
  0
POLYLINE
  5
1A7
  8
10BY10
 66
     1
 10
0.0
 20
0.0
 30
0.1
 70
     1
1001
DCO15
1071
        2
1071
        2
1000
new-all-density-link
1004
0000000000F08B40
  0
VERTEX
  5
1DF6
  8
10BY10
 10
81216.0
 20
495297.0
 30
0.1
  0
VERTEX
  5
1DF7
  8
10BY10
 10
81226.0
 20
495297.0
 30
0.1
  0
VERTEX
  5
1DF8
  8
10BY10
 10
81226.0
 20
495307.0
 30
0.1
  0
VERTEX
  5
1DF9
  8
10BY10
 10
81216.0
 20
495307.0
 30
0.1
  0
SEQEND
  5
1DFA
  8
10BY10
  0
POLYLINE
  5
1A8
  8
10BY10
 66
     1
 10
0.0
 20
0.0
 30
0.01
 70
     1
1001
DCO15
1071
        2
1071
        2
1000
new-all-density-link
1004
0000000000F88B40
  0
VERTEX
  5
1DFB
  8
10BY10
 10
81205.0
 20
495396.0
 30
0.01
  0
VERTEX
  5
1DFC
  8
10BY10
 10
81215.0
 20
495396.0
 30
0.01
  0
VERTEX
  5
1DFD
  8
10BY10
 10
81215.0
 20
495406.0
 30
0.01
  0
VERTEX
  5
1DFE
  8
10BY10
 10
81205.0
 20
495406.0
 30
0.01
  0
SEQEND
  5
1DFF
  8
10BY10
  0
POLYLINE
  5
1A9
  8
10BY10
 66
     1
 10
0.0
 20
0.0
 30
0.13
 70
     1
1001
DCO15
1071
        2
1071
        2
1000
new-all-density-link
1004
0000000000008C40
  0
VERTEX
  5
1E00
  8
10BY10
 10
81117.0
 20
495532.0
 30
0.13
  0
VERTEX
  5
1E01
  8
10BY10
 10
81127.0
 20
495532.0
 30
0.13
  0
VERTEX
  5
1E02
  8
10BY10
 10
81127.0
 20
495542.0
 30
0.13
  0
VERTEX
  5
1E03
  8
10BY10
 10
81117.0
 20
495542.0
 30
0.13
  0
SEQEND
  5
1E04
  8
10BY10
  0
POLYLINE
  5
1AA
  8
10BY10
 66
     1
 10
0.0
 20
0.0
 30
0.08
 70
     1
1001
DCO15
1071
        2
1071
        2
1000
new-all-density-link
1004
0000000000088C40
  0
VERTEX
  5
1E05
  8
10BY10
 10
81123.0
 20
495497.0
 30
0.08
  0
VERTEX
  5
1E06
  8
10BY10
 10
81133.0
 20
495497.0
 30
0.08
  0
VERTEX
  5
1E07
  8
10BY10
 10
81133.0
 20
495507.0
 30
0.08
  0
VERTEX
  5
1E08
  8
10BY10
 10
81123.0
 20
495507.0
 30
0.08
  0
SEQEND
  5
1E09
  8
10BY10
  0
POLYLINE
  5
1AB
  8
10BY10
 66
     1
 10
0.0
 20
0.0
 30
0.03
 70
     1
1001
DCO15
1071
        2
1071
        2
1000
new-all-density-link
1004
0000000000108C40
  0
VERTEX
  5
1E0A
  8
10BY10
 10
81157.0
 20
495349.0
 30
0.03
  0
VERTEX
  5
1E0B
  8
10BY10
 10
81167.0
 20
495349.0
 30
0.03
  0
VERTEX
  5
1E0C
  8
10BY10
 10
81167.0
 20
495359.0
 30
0.03
  0
VERTEX
  5
1E0D
  8
10BY10
 10
81157.0
 20
495359.0
 30
0.03
  0
SEQEND
  5
1E0E
  8
10BY10
  0
POLYLINE
  5
1AC
  8
10BY10
 66
     1
 10
0.0
 20
0.0
 30
0.02
 70
     1
1001
DCO15
1071
        2
1071
        2
1000
new-all-density-link
1004
0000000000188C40
  0
VERTEX
  5
1E0F
  8
10BY10
 10
81199.0
 20
495220.0
 30
0.02
  0
VERTEX
  5
1E10
  8
10BY10
 10
81209.0
 20
495220.0
 30
0.02
  0
VERTEX
  5
1E11
  8
10BY10
 10
81209.0
 20
495230.0
 30
0.02
  0
VERTEX
  5
1E12
  8
10BY10
 10
81199.0
 20
495230.0
 30
0.02
  0
SEQEND
  5
1E13
  8
10BY10
  0
POLYLINE
  5
1AD
  8
10BY10
 66
     1
 10
0.0
 20
0.0
 30
0.07
 70
     1
1001
DCO15
1071
        2
1071
        2
1000
new-all-density-link
1004
0000000000208C40
  0
VERTEX
  5
1E14
  8
10BY10
 10
81138.0
 20
495244.0
 30
0.07
  0
VERTEX
  5
1E15
  8
10BY10
 10
81148.0
 20
495244.0
 30
0.07
  0
VERTEX
  5
1E16
  8
10BY10
 10
81148.0
 20
495254.0
 30
0.07
  0
VERTEX
  5
1E17
  8
10BY10
 10
81138.0
 20
495254.0
 30
0.07
  0
SEQEND
  5
1E18
  8
10BY10
  0
POLYLINE
  5
1AE
  8
10BY10
 66
     1
 10
0.0
 20
0.0
 30
0.08
 70
     1
1001
DCO15
1071
        2
1071
        2
1000
new-all-density-link
1004
0000000000288C40
  0
VERTEX
  5
1E19
  8
10BY10
 10
81128.0
 20
495278.0
 30
0.08
  0
VERTEX
  5
1E1A
  8
10BY10
 10
81138.0
 20
495278.0
 30
0.08
  0
VERTEX
  5
1E1B
  8
10BY10
 10
81138.0
 20
495288.0
 30
0.08
  0
VERTEX
  5
1E1C
  8
10BY10
 10
81128.0
 20
495288.0
 30
0.08
  0
SEQEND
  5
1E1D
  8
10BY10
  0
POLYLINE
  5
1AF
  8
10BY10
 66
     1
 10
0.0
 20
0.0
 30
0.2
 70
     1
1001
DCO15
1071
        2
1071
        2
1000
new-all-density-link
1004
0000000000308C40
  0
VERTEX
  5
1E1E
  8
10BY10
 10
81128.0
 20
495300.0
 30
0.2
  0
VERTEX
  5
1E1F
  8
10BY10
 10
81138.0
 20
495300.0
 30
0.2
  0
VERTEX
  5
1E20
  8
10BY10
 10
81138.0
 20
495310.0
 30
0.2
  0
VERTEX
  5
1E21
  8
10BY10
 10
81128.0
 20
495310.0
 30
0.2
  0
SEQEND
  5
1E22
  8
10BY10
  0
POLYLINE
  5
1B0
  8
10BY10
 66
     1
 10
0.0
 20
0.0
 30
0.07
 70
     1
1001
DCO15
1071
        2
1071
        2
1000
new-all-density-link
1004
0000000000388C40
  0
VERTEX
  5
1E23
  8
10BY10
 10
81116.0
 20
495351.0
 30
0.07
  0
VERTEX
  5
1E24
  8
10BY10
 10
81126.0
 20
495351.0
 30
0.07
  0
VERTEX
  5
1E25
  8
10BY10
 10
81126.0
 20
495361.0
 30
0.07
  0
VERTEX
  5
1E26
  8
10BY10
 10
81116.0
 20
495361.0
 30
0.07
  0
SEQEND
  5
1E27
  8
10BY10
  0
POLYLINE
  5
1B1
  8
10BY10
 66
     1
 10
0.0
 20
0.0
 30
0.07
 70
     1
1001
DCO15
1071
        2
1071
        2
1000
new-all-density-link
1004
0000000000408C40
  0
VERTEX
  5
1E28
  8
10BY10
 10
80998.0
 20
495316.0
 30
0.07
  0
VERTEX
  5
1E29
  8
10BY10
 10
81008.0
 20
495316.0
 30
0.07
  0
VERTEX
  5
1E2A
  8
10BY10
 10
81008.0
 20
495326.0
 30
0.07
  0
VERTEX
  5
1E2B
  8
10BY10
 10
80998.0
 20
495326.0
 30
0.07
  0
SEQEND
  5
1E2C
  8
10BY10
  0
POLYLINE
  5
1B2
  8
10BY10
 66
     1
 10
0.0
 20
0.0
 30
0.11
 70
     1
1001
DCO15
1071
        2
1071
        2
1000
new-all-density-link
1004
0000000000488C40
  0
VERTEX
  5
1E2D
  8
10BY10
 10
80986.0
 20
495389.0
 30
0.11
  0
VERTEX
  5
1E2E
  8
10BY10
 10
80996.0
 20
495389.0
 30
0.11
  0
VERTEX
  5
1E2F
  8
10BY10
 10
80996.0
 20
495399.0
 30
0.11
  0
VERTEX
  5
1E30
  8
10BY10
 10
80986.0
 20
495399.0
 30
0.11
  0
SEQEND
  5
1E31
  8
10BY10
  0
POLYLINE
  5
1B3
  8
10BY10
 66
     1
 10
0.0
 20
0.0
 30
0.21
 70
     1
1001
DCO15
1071
        2
1071
        2
1000
new-all-density-link
1004
0000000000508C40
  0
VERTEX
  5
1E32
  8
10BY10
 10
80956.0
 20
495362.0
 30
0.21
  0
VERTEX
  5
1E33
  8
10BY10
 10
80966.0
 20
495362.0
 30
0.21
  0
VERTEX
  5
1E34
  8
10BY10
 10
80966.0
 20
495372.0
 30
0.21
  0
VERTEX
  5
1E35
  8
10BY10
 10
80956.0
 20
495372.0
 30
0.21
  0
SEQEND
  5
1E36
  8
10BY10
  0
POLYLINE
  5
1B4
  8
10BY10
 66
     1
 10
0.0
 20
0.0
 30
0.23
 70
     1
1001
DCO15
1071
        2
1071
        2
1000
new-all-density-link
1004
0000000000588C40
  0
VERTEX
  5
1E37
  8
10BY10
 10
80970.0
 20
495338.0
 30
0.23
  0
VERTEX
  5
1E38
  8
10BY10
 10
80980.0
 20
495338.0
 30
0.23
  0
VERTEX
  5
1E39
  8
10BY10
 10
80980.0
 20
495348.0
 30
0.23
  0
VERTEX
  5
1E3A
  8
10BY10
 10
80970.0
 20
495348.0
 30
0.23
  0
SEQEND
  5
1E3B
  8
10BY10
  0
POLYLINE
  5
1B5
  8
10BY10
 66
     1
 10
0.0
 20
0.0
 30
0.01
 70
     1
1001
DCO15
1071
        2
1071
        2
1000
new-all-density-link
1004
0000000000688C40
  0
VERTEX
  5
1E3C
  8
10BY10
 10
81147.0
 20
495461.0
 30
0.01
  0
VERTEX
  5
1E3D
  8
10BY10
 10
81157.0
 20
495461.0
 30
0.01
  0
VERTEX
  5
1E3E
  8
10BY10
 10
81157.0
 20
495471.0
 30
0.01
  0
VERTEX
  5
1E3F
  8
10BY10
 10
81147.0
 20
495471.0
 30
0.01
  0
SEQEND
  5
1E40
  8
10BY10
  0
POLYLINE
  5
1B6
  8
10BY10
 66
     1
 10
0.0
 20
0.0
 30
0.04
 70
     1
1001
DCO15
1071
        2
1071
        2
1000
new-all-density-link
1004
0000000000708C40
  0
VERTEX
  5
1E41
  8
10BY10
 10
81117.0
 20
495366.0
 30
0.04
  0
VERTEX
  5
1E42
  8
10BY10
 10
81127.0
 20
495366.0
 30
0.04
  0
VERTEX
  5
1E43
  8
10BY10
 10
81127.0
 20
495376.0
 30
0.04
  0
VERTEX
  5
1E44
  8
10BY10
 10
81117.0
 20
495376.0
 30
0.04
  0
SEQEND
  5
1E45
  8
10BY10
  0
POLYLINE
  5
1B7
  8
10BY10
 66
     1
 10
0.0
 20
0.0
 30
0.05
 70
     1
1001
DCO15
1071
        2
1071
        2
1000
new-all-density-link
1004
0000000000788C40
  0
VERTEX
  5
1E46
  8
10BY10
 10
81101.0
 20
495371.0
 30
0.05
  0
VERTEX
  5
1E47
  8
10BY10
 10
81111.0
 20
495371.0
 30
0.05
  0
VERTEX
  5
1E48
  8
10BY10
 10
81111.0
 20
495381.0
 30
0.05
  0
VERTEX
  5
1E49
  8
10BY10
 10
81101.0
 20
495381.0
 30
0.05
  0
SEQEND
  5
1E4A
  8
10BY10
  0
POLYLINE
  5
1B8
  8
10BY10
 66
     1
 10
0.0
 20
0.0
 30
0.04
 70
     1
1001
DCO15
1071
        2
1071
        2
1000
new-all-density-link
1004
0000000000808C40
  0
VERTEX
  5
1E4B
  8
10BY10
 10
81090.0
 20
495414.0
 30
0.04
  0
VERTEX
  5
1E4C
  8
10BY10
 10
81100.0
 20
495414.0
 30
0.04
  0
VERTEX
  5
1E4D
  8
10BY10
 10
81100.0
 20
495424.0
 30
0.04
  0
VERTEX
  5
1E4E
  8
10BY10
 10
81090.0
 20
495424.0
 30
0.04
  0
SEQEND
  5
1E4F
  8
10BY10
  0
POLYLINE
  5
1B9
  8
10BY10
 66
     1
 10
0.0
 20
0.0
 30
0.15
 70
     1
1001
DCO15
1071
        2
1071
        2
1000
new-all-density-link
1004
0000000000888C40
  0
VERTEX
  5
1E50
  8
10BY10
 10
81084.0
 20
495435.0
 30
0.15
  0
VERTEX
  5
1E51
  8
10BY10
 10
81094.0
 20
495435.0
 30
0.15
  0
VERTEX
  5
1E52
  8
10BY10
 10
81094.0
 20
495445.0
 30
0.15
  0
VERTEX
  5
1E53
  8
10BY10
 10
81084.0
 20
495445.0
 30
0.15
  0
SEQEND
  5
1E54
  8
10BY10
  0
POLYLINE
  5
1BA
  8
10BY10
 66
     1
 10
0.0
 20
0.0
 30
0.08
 70
     1
1001
DCO15
1071
        2
1071
        2
1000
new-all-density-link
1004
0000000000908C40
  0
VERTEX
  5
1E55
  8
10BY10
 10
81082.0
 20
495374.0
 30
0.08
  0
VERTEX
  5
1E56
  8
10BY10
 10
81092.0
 20
495374.0
 30
0.08
  0
VERTEX
  5
1E57
  8
10BY10
 10
81092.0
 20
495384.0
 30
0.08
  0
VERTEX
  5
1E58
  8
10BY10
 10
81082.0
 20
495384.0
 30
0.08
  0
SEQEND
  5
1E59
  8
10BY10
  0
POLYLINE
  5
1BB
  8
10BY10
 66
     1
 10
0.0
 20
0.0
 30
0.02
 70
     1
1001
DCO15
1071
        2
1071
        2
1000
new-all-density-link
1004
0000000000988C40
  0
VERTEX
  5
1E5A
  8
10BY10
 10
81037.0
 20
495289.0
 30
0.02
  0
VERTEX
  5
1E5B
  8
10BY10
 10
81047.0
 20
495289.0
 30
0.02
  0
VERTEX
  5
1E5C
  8
10BY10
 10
81047.0
 20
495299.0
 30
0.02
  0
VERTEX
  5
1E5D
  8
10BY10
 10
81037.0
 20
495299.0
 30
0.02
  0
SEQEND
  5
1E5E
  8
10BY10
  0
POLYLINE
  5
1BC
  8
10BY10
 66
     1
 10
0.0
 20
0.0
 30
0.04
 70
     1
1001
DCO15
1071
        2
1071
        2
1000
new-all-density-link
1004
0000000000A08C40
  0
VERTEX
  5
1E5F
  8
10BY10
 10
81016.0
 20
495332.0
 30
0.04
  0
VERTEX
  5
1E60
  8
10BY10
 10
81026.0
 20
495332.0
 30
0.04
  0
VERTEX
  5
1E61
  8
10BY10
 10
81026.0
 20
495342.0
 30
0.04
  0
VERTEX
  5
1E62
  8
10BY10
 10
81016.0
 20
495342.0
 30
0.04
  0
SEQEND
  5
1E63
  8
10BY10
  0
POLYLINE
  5
1BD
  8
10BY10
 66
     1
 10
0.0
 20
0.0
 30
0.01
 70
     1
1001
DCO15
1071
        2
1071
        2
1000
new-all-density-link
1004
0000000000A88C40
  0
VERTEX
  5
1E64
  8
10BY10
 10
81006.0
 20
495361.0
 30
0.01
  0
VERTEX
  5
1E65
  8
10BY10
 10
81016.0
 20
495361.0
 30
0.01
  0
VERTEX
  5
1E66
  8
10BY10
 10
81016.0
 20
495371.0
 30
0.01
  0
VERTEX
  5
1E67
  8
10BY10
 10
81006.0
 20
495371.0
 30
0.01
  0
SEQEND
  5
1E68
  8
10BY10
  0
POLYLINE
  5
1BE
  8
10BY10
 66
     1
 10
0.0
 20
0.0
 30
0.04
 70
     1
1001
DCO15
1071
        2
1071
        2
1000
new-all-density-link
1004
0000000000B08C40
  0
VERTEX
  5
1E69
  8
10BY10
 10
81000.0
 20
495380.0
 30
0.04
  0
VERTEX
  5
1E6A
  8
10BY10
 10
81010.0
 20
495380.0
 30
0.04
  0
VERTEX
  5
1E6B
  8
10BY10
 10
81010.0
 20
495390.0
 30
0.04
  0
VERTEX
  5
1E6C
  8
10BY10
 10
81000.0
 20
495390.0
 30
0.04
  0
SEQEND
  5
1E6D
  8
10BY10
  0
POLYLINE
  5
1BF
  8
10BY10
 66
     1
 10
0.0
 20
0.0
 30
0.03
 70
     1
1001
DCO15
1071
        2
1071
        2
1000
new-all-density-link
1004
0000000000B88C40
  0
VERTEX
  5
1E6E
  8
10BY10
 10
80994.0
 20
495408.0
 30
0.03
  0
VERTEX
  5
1E6F
  8
10BY10
 10
81004.0
 20
495408.0
 30
0.03
  0
VERTEX
  5
1E70
  8
10BY10
 10
81004.0
 20
495418.0
 30
0.03
  0
VERTEX
  5
1E71
  8
10BY10
 10
80994.0
 20
495418.0
 30
0.03
  0
SEQEND
  5
1E72
  8
10BY10
  0
POLYLINE
  5
1C0
  8
10BY10
 66
     1
 10
0.0
 20
0.0
 30
0.01
 70
     1
1001
DCO15
1071
        2
1071
        2
1000
new-all-density-link
1004
0000000000C08C40
  0
VERTEX
  5
1E73
  8
10BY10
 10
81204.0
 20
495639.0
 30
0.01
  0
VERTEX
  5
1E74
  8
10BY10
 10
81214.0
 20
495639.0
 30
0.01
  0
VERTEX
  5
1E75
  8
10BY10
 10
81214.0
 20
495649.0
 30
0.01
  0
VERTEX
  5
1E76
  8
10BY10
 10
81204.0
 20
495649.0
 30
0.01
  0
SEQEND
  5
1E77
  8
10BY10
  0
POLYLINE
  5
1C1
  8
10BY10
 66
     1
 10
0.0
 20
0.0
 30
0.05
 70
     1
1001
DCO15
1071
        2
1071
        2
1000
new-all-density-link
1004
0000000000C88C40
  0
VERTEX
  5
1E78
  8
10BY10
 10
81089.0
 20
495518.0
 30
0.05
  0
VERTEX
  5
1E79
  8
10BY10
 10
81099.0
 20
495518.0
 30
0.05
  0
VERTEX
  5
1E7A
  8
10BY10
 10
81099.0
 20
495528.0
 30
0.05
  0
VERTEX
  5
1E7B
  8
10BY10
 10
81089.0
 20
495528.0
 30
0.05
  0
SEQEND
  5
1E7C
  8
10BY10
  0
POLYLINE
  5
1C2
  8
10BY10
 66
     1
 10
0.0
 20
0.0
 30
0.1
 70
     1
1001
DCO15
1071
        2
1071
        2
1000
new-all-density-link
1004
0000000000D08C40
  0
VERTEX
  5
1E7D
  8
10BY10
 10
81100.0
 20
495467.0
 30
0.1
  0
VERTEX
  5
1E7E
  8
10BY10
 10
81110.0
 20
495467.0
 30
0.1
  0
VERTEX
  5
1E7F
  8
10BY10
 10
81110.0
 20
495477.0
 30
0.1
  0
VERTEX
  5
1E80
  8
10BY10
 10
81100.0
 20
495477.0
 30
0.1
  0
SEQEND
  5
1E81
  8
10BY10
  0
POLYLINE
  5
1C3
  8
10BY10
 66
     1
 10
0.0
 20
0.0
 30
0.04
 70
     1
1001
DCO15
1071
        2
1071
        2
1000
new-all-density-link
1004
0000000000D88C40
  0
VERTEX
  5
1E82
  8
10BY10
 10
81118.0
 20
495395.0
 30
0.04
  0
VERTEX
  5
1E83
  8
10BY10
 10
81128.0
 20
495395.0
 30
0.04
  0
VERTEX
  5
1E84
  8
10BY10
 10
81128.0
 20
495405.0
 30
0.04
  0
VERTEX
  5
1E85
  8
10BY10
 10
81118.0
 20
495405.0
 30
0.04
  0
SEQEND
  5
1E86
  8
10BY10
  0
POLYLINE
  5
1C4
  8
10BY10
 66
     1
 10
0.0
 20
0.0
 30
0.05
 70
     1
1001
DCO15
1071
        2
1071
        2
1000
new-all-density-link
1004
0000000000E08C40
  0
VERTEX
  5
1E87
  8
10BY10
 10
81130.0
 20
495326.0
 30
0.05
  0
VERTEX
  5
1E88
  8
10BY10
 10
81140.0
 20
495326.0
 30
0.05
  0
VERTEX
  5
1E89
  8
10BY10
 10
81140.0
 20
495336.0
 30
0.05
  0
VERTEX
  5
1E8A
  8
10BY10
 10
81130.0
 20
495336.0
 30
0.05
  0
SEQEND
  5
1E8B
  8
10BY10
  0
POLYLINE
  5
1C5
  8
10BY10
 66
     1
 10
0.0
 20
0.0
 30
0.1
 70
     1
1001
DCO15
1071
        2
1071
        2
1000
new-all-density-link
1004
0000000000E88C40
  0
VERTEX
  5
1E8C
  8
10BY10
 10
81083.0
 20
495290.0
 30
0.1
  0
VERTEX
  5
1E8D
  8
10BY10
 10
81093.0
 20
495290.0
 30
0.1
  0
VERTEX
  5
1E8E
  8
10BY10
 10
81093.0
 20
495300.0
 30
0.1
  0
VERTEX
  5
1E8F
  8
10BY10
 10
81083.0
 20
495300.0
 30
0.1
  0
SEQEND
  5
1E90
  8
10BY10
  0
POLYLINE
  5
1C6
  8
10BY10
 66
     1
 10
0.0
 20
0.0
 30
0.09
 70
     1
1001
DCO15
1071
        2
1071
        2
1000
new-all-density-link
1004
0000000000F08C40
  0
VERTEX
  5
1E91
  8
10BY10
 10
81074.0
 20
495321.0
 30
0.09
  0
VERTEX
  5
1E92
  8
10BY10
 10
81084.0
 20
495321.0
 30
0.09
  0
VERTEX
  5
1E93
  8
10BY10
 10
81084.0
 20
495331.0
 30
0.09
  0
VERTEX
  5
1E94
  8
10BY10
 10
81074.0
 20
495331.0
 30
0.09
  0
SEQEND
  5
1E95
  8
10BY10
  0
POLYLINE
  5
1C7
  8
10BY10
 66
     1
 10
0.0
 20
0.0
 30
0.06
 70
     1
1001
DCO15
1071
        2
1071
        2
1000
new-all-density-link
1004
0000000000008D40
  0
VERTEX
  5
1E96
  8
10BY10
 10
81087.0
 20
495404.0
 30
0.06
  0
VERTEX
  5
1E97
  8
10BY10
 10
81097.0
 20
495404.0
 30
0.06
  0
VERTEX
  5
1E98
  8
10BY10
 10
81097.0
 20
495414.0
 30
0.06
  0
VERTEX
  5
1E99
  8
10BY10
 10
81087.0
 20
495414.0
 30
0.06
  0
SEQEND
  5
1E9A
  8
10BY10
  0
POLYLINE
  5
1C8
  8
10BY10
 66
     1
 10
0.0
 20
0.0
 30
0.29
 70
     1
1001
DCO15
1071
        2
1071
        2
1000
new-all-density-link
1004
0000000000088D40
  0
VERTEX
  5
1E9B
  8
10BY10
 10
81094.0
 20
495427.0
 30
0.29
  0
VERTEX
  5
1E9C
  8
10BY10
 10
81104.0
 20
495427.0
 30
0.29
  0
VERTEX
  5
1E9D
  8
10BY10
 10
81104.0
 20
495437.0
 30
0.29
  0
VERTEX
  5
1E9E
  8
10BY10
 10
81094.0
 20
495437.0
 30
0.29
  0
SEQEND
  5
1E9F
  8
10BY10
  0
POLYLINE
  5
1C9
  8
10BY10
 66
     1
 10
0.0
 20
0.0
 30
0.1
 70
     1
1001
DCO15
1071
        2
1071
        2
1000
new-all-density-link
1004
0000000000108D40
  0
VERTEX
  5
1EA0
  8
10BY10
 10
81008.0
 20
495308.0
 30
0.1
  0
VERTEX
  5
1EA1
  8
10BY10
 10
81018.0
 20
495308.0
 30
0.1
  0
VERTEX
  5
1EA2
  8
10BY10
 10
81018.0
 20
495318.0
 30
0.1
  0
VERTEX
  5
1EA3
  8
10BY10
 10
81008.0
 20
495318.0
 30
0.1
  0
SEQEND
  5
1EA4
  8
10BY10
  0
POLYLINE
  5
1CA
  8
10BY10
 66
     1
 10
0.0
 20
0.0
 30
0.09
 70
     1
1001
DCO15
1071
        2
1071
        2
1000
new-all-density-link
1004
0000000000188D40
  0
VERTEX
  5
1EA5
  8
10BY10
 10
81003.0
 20
495335.0
 30
0.09
  0
VERTEX
  5
1EA6
  8
10BY10
 10
81013.0
 20
495335.0
 30
0.09
  0
VERTEX
  5
1EA7
  8
10BY10
 10
81013.0
 20
495345.0
 30
0.09
  0
VERTEX
  5
1EA8
  8
10BY10
 10
81003.0
 20
495345.0
 30
0.09
  0
SEQEND
  5
1EA9
  8
10BY10
  0
POLYLINE
  5
1CB
  8
10BY10
 66
     1
 10
0.0
 20
0.0
 30
0.04
 70
     1
1001
DCO15
1071
        2
1071
        2
1000
new-all-density-link
1004
0000000000208D40
  0
VERTEX
  5
1EAA
  8
10BY10
 10
80984.0
 20
495414.0
 30
0.04
  0
VERTEX
  5
1EAB
  8
10BY10
 10
80994.0
 20
495414.0
 30
0.04
  0
VERTEX
  5
1EAC
  8
10BY10
 10
80994.0
 20
495424.0
 30
0.04
  0
VERTEX
  5
1EAD
  8
10BY10
 10
80984.0
 20
495424.0
 30
0.04
  0
SEQEND
  5
1EAE
  8
10BY10
  0
POLYLINE
  5
1CC
  8
10BY10
 66
     1
 10
0.0
 20
0.0
 30
0.1
 70
     1
1001
DCO15
1071
        2
1071
        2
1000
new-all-density-link
1004
0000000000288D40
  0
VERTEX
  5
1EAF
  8
10BY10
 10
80958.0
 20
495398.0
 30
0.1
  0
VERTEX
  5
1EB0
  8
10BY10
 10
80968.0
 20
495398.0
 30
0.1
  0
VERTEX
  5
1EB1
  8
10BY10
 10
80968.0
 20
495408.0
 30
0.1
  0
VERTEX
  5
1EB2
  8
10BY10
 10
80958.0
 20
495408.0
 30
0.1
  0
SEQEND
  5
1EB3
  8
10BY10
  0
POLYLINE
  5
1CD
  8
10BY10
 66
     1
 10
0.0
 20
0.0
 30
0.12
 70
     1
1001
DCO15
1071
        2
1071
        2
1000
new-all-density-link
1004
0000000000308D40
  0
VERTEX
  5
1EB4
  8
10BY10
 10
80958.0
 20
495376.0
 30
0.12
  0
VERTEX
  5
1EB5
  8
10BY10
 10
80968.0
 20
495376.0
 30
0.12
  0
VERTEX
  5
1EB6
  8
10BY10
 10
80968.0
 20
495386.0
 30
0.12
  0
VERTEX
  5
1EB7
  8
10BY10
 10
80958.0
 20
495386.0
 30
0.12
  0
SEQEND
  5
1EB8
  8
10BY10
  0
POLYLINE
  5
1CE
  8
10BY10
 66
     1
 10
0.0
 20
0.0
 30
0.05
 70
     1
1001
DCO15
1071
        2
1071
        2
1000
new-all-density-link
1004
0000000000388D40
  0
VERTEX
  5
1EB9
  8
10BY10
 10
81029.0
 20
495367.0
 30
0.05
  0
VERTEX
  5
1EBA
  8
10BY10
 10
81039.0
 20
495367.0
 30
0.05
  0
VERTEX
  5
1EBB
  8
10BY10
 10
81039.0
 20
495377.0
 30
0.05
  0
VERTEX
  5
1EBC
  8
10BY10
 10
81029.0
 20
495377.0
 30
0.05
  0
SEQEND
  5
1EBD
  8
10BY10
  0
POLYLINE
  5
1CF
  8
10BY10
 66
     1
 10
0.0
 20
0.0
 30
0.11
 70
     1
1001
DCO15
1071
        2
1071
        2
1000
new-all-density-link
1004
0000000000408D40
  0
VERTEX
  5
1EBE
  8
10BY10
 10
81038.0
 20
495337.0
 30
0.11
  0
VERTEX
  5
1EBF
  8
10BY10
 10
81048.0
 20
495337.0
 30
0.11
  0
VERTEX
  5
1EC0
  8
10BY10
 10
81048.0
 20
495347.0
 30
0.11
  0
VERTEX
  5
1EC1
  8
10BY10
 10
81038.0
 20
495347.0
 30
0.11
  0
SEQEND
  5
1EC2
  8
10BY10
  0
POLYLINE
  5
1D0
  8
10BY10
 66
     1
 10
0.0
 20
0.0
 30
0.15
 70
     1
1001
DCO15
1071
        2
1071
        2
1000
new-all-density-link
1004
0000000000488D40
  0
VERTEX
  5
1EC3
  8
10BY10
 10
81041.0
 20
495319.0
 30
0.15
  0
VERTEX
  5
1EC4
  8
10BY10
 10
81051.0
 20
495319.0
 30
0.15
  0
VERTEX
  5
1EC5
  8
10BY10
 10
81051.0
 20
495329.0
 30
0.15
  0
VERTEX
  5
1EC6
  8
10BY10
 10
81041.0
 20
495329.0
 30
0.15
  0
SEQEND
  5
1EC7
  8
10BY10
  0
POLYLINE
  5
1D1
  8
10BY10
 66
     1
 10
0.0
 20
0.0
 30
0.14
 70
     1
1001
DCO15
1071
        2
1071
        2
1000
new-all-density-link
1004
0000000000508D40
  0
VERTEX
  5
1EC8
  8
10BY10
 10
81044.0
 20
495302.0
 30
0.14
  0
VERTEX
  5
1EC9
  8
10BY10
 10
81054.0
 20
495302.0
 30
0.14
  0
VERTEX
  5
1ECA
  8
10BY10
 10
81054.0
 20
495312.0
 30
0.14
  0
VERTEX
  5
1ECB
  8
10BY10
 10
81044.0
 20
495312.0
 30
0.14
  0
SEQEND
  5
1ECC
  8
10BY10
  0
POLYLINE
  5
1D2
  8
10BY10
 66
     1
 10
0.0
 20
0.0
 30
0.04
 70
     1
1001
DCO15
1071
        2
1071
        2
1000
new-all-density-link
1004
0000000000588D40
  0
VERTEX
  5
1ECD
  8
10BY10
 10
81051.0
 20
495278.0
 30
0.04
  0
VERTEX
  5
1ECE
  8
10BY10
 10
81061.0
 20
495278.0
 30
0.04
  0
VERTEX
  5
1ECF
  8
10BY10
 10
81061.0
 20
495288.0
 30
0.04
  0
VERTEX
  5
1ED0
  8
10BY10
 10
81051.0
 20
495288.0
 30
0.04
  0
SEQEND
  5
1ED1
  8
10BY10
  0
POLYLINE
  5
1D3
  8
10BY10
 66
     1
 10
0.0
 20
0.0
 30
0.13
 70
     1
1001
DCO15
1071
        2
1071
        2
1000
new-all-density-link
1004
0000000000608D40
  0
VERTEX
  5
1ED2
  8
10BY10
 10
81055.0
 20
495292.0
 30
0.13
  0
VERTEX
  5
1ED3
  8
10BY10
 10
81065.0
 20
495292.0
 30
0.13
  0
VERTEX
  5
1ED4
  8
10BY10
 10
81065.0
 20
495302.0
 30
0.13
  0
VERTEX
  5
1ED5
  8
10BY10
 10
81055.0
 20
495302.0
 30
0.13
  0
SEQEND
  5
1ED6
  8
10BY10
  0
POLYLINE
  5
1D4
  8
10BY10
 66
     1
 10
0.0
 20
0.0
 30
0.16
 70
     1
1001
DCO15
1071
        2
1071
        2
1000
new-all-density-link
1004
0000000000688D40
  0
VERTEX
  5
1ED7
  8
10BY10
 10
81051.0
 20
495321.0
 30
0.16
  0
VERTEX
  5
1ED8
  8
10BY10
 10
81061.0
 20
495321.0
 30
0.16
  0
VERTEX
  5
1ED9
  8
10BY10
 10
81061.0
 20
495331.0
 30
0.16
  0
VERTEX
  5
1EDA
  8
10BY10
 10
81051.0
 20
495331.0
 30
0.16
  0
SEQEND
  5
1EDB
  8
10BY10
  0
POLYLINE
  5
1D5
  8
10BY10
 66
     1
 10
0.0
 20
0.0
 30
0.1
 70
     1
1001
DCO15
1071
        2
1071
        2
1000
new-all-density-link
1004
0000000000708D40
  0
VERTEX
  5
1EDC
  8
10BY10
 10
81028.0
 20
495333.0
 30
0.1
  0
VERTEX
  5
1EDD
  8
10BY10
 10
81038.0
 20
495333.0
 30
0.1
  0
VERTEX
  5
1EDE
  8
10BY10
 10
81038.0
 20
495343.0
 30
0.1
  0
VERTEX
  5
1EDF
  8
10BY10
 10
81028.0
 20
495343.0
 30
0.1
  0
SEQEND
  5
1EE0
  8
10BY10
  0
POLYLINE
  5
1D6
  8
10BY10
 66
     1
 10
0.0
 20
0.0
 30
0.06
 70
     1
1001
DCO15
1071
        2
1071
        2
1000
new-all-density-link
1004
0000000000788D40
  0
VERTEX
  5
1EE1
  8
10BY10
 10
81006.0
 20
495403.0
 30
0.06
  0
VERTEX
  5
1EE2
  8
10BY10
 10
81016.0
 20
495403.0
 30
0.06
  0
VERTEX
  5
1EE3
  8
10BY10
 10
81016.0
 20
495413.0
 30
0.06
  0
VERTEX
  5
1EE4
  8
10BY10
 10
81006.0
 20
495413.0
 30
0.06
  0
SEQEND
  5
1EE5
  8
10BY10
  0
POLYLINE
  5
1D7
  8
10BY10
 66
     1
 10
0.0
 20
0.0
 30
0.03
 70
     1
1001
DCO15
1071
        2
1071
        2
1000
new-all-density-link
1004
0000000000808D40
  0
VERTEX
  5
1EE6
  8
10BY10
 10
81007.0
 20
495390.0
 30
0.03
  0
VERTEX
  5
1EE7
  8
10BY10
 10
81017.0
 20
495390.0
 30
0.03
  0
VERTEX
  5
1EE8
  8
10BY10
 10
81017.0
 20
495400.0
 30
0.03
  0
VERTEX
  5
1EE9
  8
10BY10
 10
81007.0
 20
495400.0
 30
0.03
  0
SEQEND
  5
1EEA
  8
10BY10
  0
POLYLINE
  5
1D8
  8
10BY10
 66
     1
 10
0.0
 20
0.0
 30
0.03
 70
     1
1001
DCO15
1071
        2
1071
        2
1000
new-all-density-link
1004
0000000000888D40
  0
VERTEX
  5
1EEB
  8
10BY10
 10
81017.0
 20
495368.0
 30
0.03
  0
VERTEX
  5
1EEC
  8
10BY10
 10
81027.0
 20
495368.0
 30
0.03
  0
VERTEX
  5
1EED
  8
10BY10
 10
81027.0
 20
495378.0
 30
0.03
  0
VERTEX
  5
1EEE
  8
10BY10
 10
81017.0
 20
495378.0
 30
0.03
  0
SEQEND
  5
1EEF
  8
10BY10
  0
POLYLINE
  5
1D9
  8
10BY10
 66
     1
 10
0.0
 20
0.0
 30
0.1
 70
     1
1001
DCO15
1071
        2
1071
        2
1000
new-all-density-link
1004
0000000000908D40
  0
VERTEX
  5
1EF0
  8
10BY10
 10
81023.0
 20
495343.0
 30
0.1
  0
VERTEX
  5
1EF1
  8
10BY10
 10
81033.0
 20
495343.0
 30
0.1
  0
VERTEX
  5
1EF2
  8
10BY10
 10
81033.0
 20
495353.0
 30
0.1
  0
VERTEX
  5
1EF3
  8
10BY10
 10
81023.0
 20
495353.0
 30
0.1
  0
SEQEND
  5
1EF4
  8
10BY10
  0
POLYLINE
  5
1DA
  8
10BY10
 66
     1
 10
0.0
 20
0.0
 30
0.1
 70
     1
1001
DCO15
1071
        2
1071
        2
1000
new-all-density-link
1004
0000000000988D40
  0
VERTEX
  5
1EF5
  8
10BY10
 10
81026.0
 20
495322.0
 30
0.1
  0
VERTEX
  5
1EF6
  8
10BY10
 10
81036.0
 20
495322.0
 30
0.1
  0
VERTEX
  5
1EF7
  8
10BY10
 10
81036.0
 20
495332.0
 30
0.1
  0
VERTEX
  5
1EF8
  8
10BY10
 10
81026.0
 20
495332.0
 30
0.1
  0
SEQEND
  5
1EF9
  8
10BY10
  0
POLYLINE
  5
1DB
  8
10BY10
 66
     1
 10
0.0
 20
0.0
 30
0.03
 70
     1
1001
DCO15
1071
        2
1071
        2
1000
new-all-density-link
1004
0000000000A08D40
  0
VERTEX
  5
1EFA
  8
10BY10
 10
81036.0
 20
495279.0
 30
0.03
  0
VERTEX
  5
1EFB
  8
10BY10
 10
81046.0
 20
495279.0
 30
0.03
  0
VERTEX
  5
1EFC
  8
10BY10
 10
81046.0
 20
495289.0
 30
0.03
  0
VERTEX
  5
1EFD
  8
10BY10
 10
81036.0
 20
495289.0
 30
0.03
  0
SEQEND
  5
1EFE
  8
10BY10
  0
POLYLINE
  5
1DC
  8
10BY10
 66
     1
 10
0.0
 20
0.0
 30
0.11
 70
     1
1001
DCO15
1071
        2
1071
        2
1000
new-all-density-link
1004
0000000000A88D40
  0
VERTEX
  5
1EFF
  8
10BY10
 10
81060.0
 20
495353.0
 30
0.11
  0
VERTEX
  5
1F00
  8
10BY10
 10
81070.0
 20
495353.0
 30
0.11
  0
VERTEX
  5
1F01
  8
10BY10
 10
81070.0
 20
495363.0
 30
0.11
  0
VERTEX
  5
1F02
  8
10BY10
 10
81060.0
 20
495363.0
 30
0.11
  0
SEQEND
  5
1F03
  8
10BY10
  0
POLYLINE
  5
1DD
  8
10BY10
 66
     1
 10
0.0
 20
0.0
 30
0.05
 70
     1
1001
DCO15
1071
        2
1071
        2
1000
new-all-density-link
1004
0000000000B08D40
  0
VERTEX
  5
1F04
  8
10BY10
 10
81034.0
 20
495478.0
 30
0.05
  0
VERTEX
  5
1F05
  8
10BY10
 10
81044.0
 20
495478.0
 30
0.05
  0
VERTEX
  5
1F06
  8
10BY10
 10
81044.0
 20
495488.0
 30
0.05
  0
VERTEX
  5
1F07
  8
10BY10
 10
81034.0
 20
495488.0
 30
0.05
  0
SEQEND
  5
1F08
  8
10BY10
  0
POLYLINE
  5
1DE
  8
10BY10
 66
     1
 10
0.0
 20
0.0
 30
0.02
 70
     1
1001
DCO15
1071
        2
1071
        2
1000
new-all-density-link
1004
0000000000B88D40
  0
VERTEX
  5
1F09
  8
10BY10
 10
81047.0
 20
495396.0
 30
0.02
  0
VERTEX
  5
1F0A
  8
10BY10
 10
81057.0
 20
495396.0
 30
0.02
  0
VERTEX
  5
1F0B
  8
10BY10
 10
81057.0
 20
495406.0
 30
0.02
  0
VERTEX
  5
1F0C
  8
10BY10
 10
81047.0
 20
495406.0
 30
0.02
  0
SEQEND
  5
1F0D
  8
10BY10
  0
POLYLINE
  5
1DF
  8
10BY10
 66
     1
 10
0.0
 20
0.0
 30
0.22
 70
     1
1001
DCO15
1071
        2
1071
        2
1000
new-all-density-link
1004
0000000000C08D40
  0
VERTEX
  5
1F0E
  8
10BY10
 10
81056.0
 20
495343.0
 30
0.22
  0
VERTEX
  5
1F0F
  8
10BY10
 10
81066.0
 20
495343.0
 30
0.22
  0
VERTEX
  5
1F10
  8
10BY10
 10
81066.0
 20
495353.0
 30
0.22
  0
VERTEX
  5
1F11
  8
10BY10
 10
81056.0
 20
495353.0
 30
0.22
  0
SEQEND
  5
1F12
  8
10BY10
  0
POLYLINE
  5
1E0
  8
10BY10
 66
     1
 10
0.0
 20
0.0
 30
0.1
 70
     1
1001
DCO15
1071
        2
1071
        2
1000
new-all-density-link
1004
0000000000C88D40
  0
VERTEX
  5
1F13
  8
10BY10
 10
81064.0
 20
495316.0
 30
0.1
  0
VERTEX
  5
1F14
  8
10BY10
 10
81074.0
 20
495316.0
 30
0.1
  0
VERTEX
  5
1F15
  8
10BY10
 10
81074.0
 20
495326.0
 30
0.1
  0
VERTEX
  5
1F16
  8
10BY10
 10
81064.0
 20
495326.0
 30
0.1
  0
SEQEND
  5
1F17
  8
10BY10
  0
POLYLINE
  5
1E1
  8
10BY10
 66
     1
 10
0.0
 20
0.0
 30
0.01
 70
     1
1001
DCO15
1071
        2
1071
        2
1000
new-all-density-link
1004
0000000000D08D40
  0
VERTEX
  5
1F18
  8
10BY10
 10
81072.0
 20
495292.0
 30
0.01
  0
VERTEX
  5
1F19
  8
10BY10
 10
81082.0
 20
495292.0
 30
0.01
  0
VERTEX
  5
1F1A
  8
10BY10
 10
81082.0
 20
495302.0
 30
0.01
  0
VERTEX
  5
1F1B
  8
10BY10
 10
81072.0
 20
495302.0
 30
0.01
  0
SEQEND
  5
1F1C
  8
10BY10
  0
POLYLINE
  5
1E2
  8
10BY10
 66
     1
 10
0.0
 20
0.0
 30
0.017
 70
     1
1001
DCO15
1071
        2
1071
        2
1000
new-all-density-link
1004
0000000000D88D40
  0
VERTEX
  5
1F1D
  8
10BY10
 10
85467.0
 20
497070.0
 30
0.017
  0
VERTEX
  5
1F1E
  8
10BY10
 10
85477.0
 20
497070.0
 30
0.017
  0
VERTEX
  5
1F1F
  8
10BY10
 10
85477.0
 20
497080.0
 30
0.017
  0
VERTEX
  5
1F20
  8
10BY10
 10
85467.0
 20
497080.0
 30
0.017
  0
SEQEND
  5
1F21
  8
10BY10
  0
POLYLINE
  5
1E3
  8
10BY10
 66
     1
 10
0.0
 20
0.0
 30
0.017
 70
     1
1001
DCO15
1071
        2
1071
        2
1000
new-all-density-link
1004
0000000000E08D40
  0
VERTEX
  5
1F22
  8
10BY10
 10
85482.0
 20
497052.0
 30
0.017
  0
VERTEX
  5
1F23
  8
10BY10
 10
85492.0
 20
497052.0
 30
0.017
  0
VERTEX
  5
1F24
  8
10BY10
 10
85492.0
 20
497062.0
 30
0.017
  0
VERTEX
  5
1F25
  8
10BY10
 10
85482.0
 20
497062.0
 30
0.017
  0
SEQEND
  5
1F26
  8
10BY10
  0
POLYLINE
  5
1E4
  8
10BY10
 66
     1
 10
0.0
 20
0.0
 30
0.034
 70
     1
1001
DCO15
1071
        2
1071
        2
1000
new-all-density-link
1004
0000000000E88D40
  0
VERTEX
  5
1F27
  8
10BY10
 10
85478.0
 20
497015.0
 30
0.034
  0
VERTEX
  5
1F28
  8
10BY10
 10
85488.0
 20
497015.0
 30
0.034
  0
VERTEX
  5
1F29
  8
10BY10
 10
85488.0
 20
497025.0
 30
0.034
  0
VERTEX
  5
1F2A
  8
10BY10
 10
85478.0
 20
497025.0
 30
0.034
  0
SEQEND
  5
1F2B
  8
10BY10
  0
POLYLINE
  5
1E5
  8
10BY10
 66
     1
 10
0.0
 20
0.0
 30
0.02
 70
     1
1001
DCO15
1071
        2
1071
        2
1000
new-all-density-link
1004
0000000000F88D40
  0
VERTEX
  5
1F2C
  8
10BY10
 10
86669.0
 20
490117.0
 30
0.02
  0
VERTEX
  5
1F2D
  8
10BY10
 10
86679.0
 20
490117.0
 30
0.02
  0
VERTEX
  5
1F2E
  8
10BY10
 10
86679.0
 20
490127.0
 30
0.02
  0
VERTEX
  5
1F2F
  8
10BY10
 10
86669.0
 20
490127.0
 30
0.02
  0
SEQEND
  5
1F30
  8
10BY10
  0
POLYLINE
  5
1E6
  8
10BY10
 66
     1
 10
0.0
 20
0.0
 30
0.4400000000000002
 70
     1
1001
DCO15
1071
        2
1071
        2
1000
new-all-density-link
1004
0000000000008E40
  0
VERTEX
  5
1F31
  8
10BY10
 10
86715.0
 20
490064.0
 30
0.4400000000000002
  0
VERTEX
  5
1F32
  8
10BY10
 10
86725.0
 20
490064.0
 30
0.4400000000000002
  0
VERTEX
  5
1F33
  8
10BY10
 10
86725.0
 20
490074.0
 30
0.4400000000000002
  0
VERTEX
  5
1F34
  8
10BY10
 10
86715.0
 20
490074.0
 30
0.4400000000000002
  0
SEQEND
  5
1F35
  8
10BY10
  0
POLYLINE
  5
1E7
  8
10BY10
 66
     1
 10
0.0
 20
0.0
 30
0.12
 70
     1
1001
DCO15
1071
        2
1071
        2
1000
new-all-density-link
1004
0000000000088E40
  0
VERTEX
  5
1F36
  8
10BY10
 10
86737.0
 20
490035.0
 30
0.12
  0
VERTEX
  5
1F37
  8
10BY10
 10
86747.0
 20
490035.0
 30
0.12
  0
VERTEX
  5
1F38
  8
10BY10
 10
86747.0
 20
490045.0
 30
0.12
  0
VERTEX
  5
1F39
  8
10BY10
 10
86737.0
 20
490045.0
 30
0.12
  0
SEQEND
  5
1F3A
  8
10BY10
  0
POLYLINE
  5
1E8
  8
10BY10
 66
     1
 10
0.0
 20
0.0
 30
1.6000000000000001
 70
     1
1001
DCO15
1071
        2
1071
        2
1000
new-all-density-link
1004
0000000000108E40
  0
VERTEX
  5
1F3B
  8
10BY10
 10
86725.0
 20
490021.0
 30
1.6000000000000001
  0
VERTEX
  5
1F3C
  8
10BY10
 10
86735.0
 20
490021.0
 30
1.6000000000000001
  0
VERTEX
  5
1F3D
  8
10BY10
 10
86735.0
 20
490031.0
 30
1.6000000000000001
  0
VERTEX
  5
1F3E
  8
10BY10
 10
86725.0
 20
490031.0
 30
1.6000000000000001
  0
SEQEND
  5
1F3F
  8
10BY10
  0
POLYLINE
  5
1E9
  8
10BY10
 66
     1
 10
0.0
 20
0.0
 30
0.1
 70
     1
1001
DCO15
1071
        2
1071
        2
1000
new-all-density-link
1004
0000000000188E40
  0
VERTEX
  5
1F40
  8
10BY10
 10
86722.0
 20
489990.0
 30
0.1
  0
VERTEX
  5
1F41
  8
10BY10
 10
86732.0
 20
489990.0
 30
0.1
  0
VERTEX
  5
1F42
  8
10BY10
 10
86732.0
 20
490000.0
 30
0.1
  0
VERTEX
  5
1F43
  8
10BY10
 10
86722.0
 20
490000.0
 30
0.1
  0
SEQEND
  5
1F44
  8
10BY10
  0
POLYLINE
  5
1EA
  8
10BY10
 66
     1
 10
0.0
 20
0.0
 30
0.13
 70
     1
1001
DCO15
1071
        2
1071
        2
1000
new-all-density-link
1004
0000000000208E40
  0
VERTEX
  5
1F45
  8
10BY10
 10
86734.0
 20
489969.0
 30
0.13
  0
VERTEX
  5
1F46
  8
10BY10
 10
86744.0
 20
489969.0
 30
0.13
  0
VERTEX
  5
1F47
  8
10BY10
 10
86744.0
 20
489979.0
 30
0.13
  0
VERTEX
  5
1F48
  8
10BY10
 10
86734.0
 20
489979.0
 30
0.13
  0
SEQEND
  5
1F49
  8
10BY10
  0
POLYLINE
  5
1EB
  8
10BY10
 66
     1
 10
0.0
 20
0.0
 30
0.15
 70
     1
1001
DCO15
1071
        2
1071
        2
1000
new-all-density-link
1004
0000000000288E40
  0
VERTEX
  5
1F4A
  8
10BY10
 10
86745.0
 20
489954.0
 30
0.15
  0
VERTEX
  5
1F4B
  8
10BY10
 10
86755.0
 20
489954.0
 30
0.15
  0
VERTEX
  5
1F4C
  8
10BY10
 10
86755.0
 20
489964.0
 30
0.15
  0
VERTEX
  5
1F4D
  8
10BY10
 10
86745.0
 20
489964.0
 30
0.15
  0
SEQEND
  5
1F4E
  8
10BY10
  0
POLYLINE
  5
1EC
  8
10BY10
 66
     1
 10
0.0
 20
0.0
 30
0.07
 70
     1
1001
DCO15
1071
        2
1071
        2
1000
new-all-density-link
1004
0000000000308E40
  0
VERTEX
  5
1F4F
  8
10BY10
 10
86693.0
 20
490108.0
 30
0.07
  0
VERTEX
  5
1F50
  8
10BY10
 10
86703.0
 20
490108.0
 30
0.07
  0
VERTEX
  5
1F51
  8
10BY10
 10
86703.0
 20
490118.0
 30
0.07
  0
VERTEX
  5
1F52
  8
10BY10
 10
86693.0
 20
490118.0
 30
0.07
  0
SEQEND
  5
1F53
  8
10BY10
  0
POLYLINE
  5
1ED
  8
10BY10
 66
     1
 10
0.0
 20
0.0
 30
0.09
 70
     1
1001
DCO15
1071
        2
1071
        2
1000
new-all-density-link
1004
0000000000388E40
  0
VERTEX
  5
1F54
  8
10BY10
 10
86659.0
 20
490076.0
 30
0.09
  0
VERTEX
  5
1F55
  8
10BY10
 10
86669.0
 20
490076.0
 30
0.09
  0
VERTEX
  5
1F56
  8
10BY10
 10
86669.0
 20
490086.0
 30
0.09
  0
VERTEX
  5
1F57
  8
10BY10
 10
86659.0
 20
490086.0
 30
0.09
  0
SEQEND
  5
1F58
  8
10BY10
  0
POLYLINE
  5
1EE
  8
10BY10
 66
     1
 10
0.0
 20
0.0
 30
0.06
 70
     1
1001
DCO15
1071
        2
1071
        2
1000
new-all-density-link
1004
0000000000408E40
  0
VERTEX
  5
1F59
  8
10BY10
 10
86784.0
 20
490951.0
 30
0.06
  0
VERTEX
  5
1F5A
  8
10BY10
 10
86794.0
 20
490951.0
 30
0.06
  0
VERTEX
  5
1F5B
  8
10BY10
 10
86794.0
 20
490961.0
 30
0.06
  0
VERTEX
  5
1F5C
  8
10BY10
 10
86784.0
 20
490961.0
 30
0.06
  0
SEQEND
  5
1F5D
  8
10BY10
  0
POLYLINE
  5
1EF
  8
10BY10
 66
     1
 10
0.0
 20
0.0
 30
0.2
 70
     1
1001
DCO15
1071
        2
1071
        2
1000
new-all-density-link
1004
0000000000488E40
  0
VERTEX
  5
1F5E
  8
10BY10
 10
86703.0
 20
490099.0
 30
0.2
  0
VERTEX
  5
1F5F
  8
10BY10
 10
86713.0
 20
490099.0
 30
0.2
  0
VERTEX
  5
1F60
  8
10BY10
 10
86713.0
 20
490109.0
 30
0.2
  0
VERTEX
  5
1F61
  8
10BY10
 10
86703.0
 20
490109.0
 30
0.2
  0
SEQEND
  5
1F62
  8
10BY10
  0
POLYLINE
  5
1F0
  8
10BY10
 66
     1
 10
0.0
 20
0.0
 30
0.14
 70
     1
1001
DCO15
1071
        2
1071
        2
1000
new-all-density-link
1004
0000000000508E40
  0
VERTEX
  5
1F63
  8
10BY10
 10
86697.0
 20
490082.0
 30
0.14
  0
VERTEX
  5
1F64
  8
10BY10
 10
86707.0
 20
490082.0
 30
0.14
  0
VERTEX
  5
1F65
  8
10BY10
 10
86707.0
 20
490092.0
 30
0.14
  0
VERTEX
  5
1F66
  8
10BY10
 10
86697.0
 20
490092.0
 30
0.14
  0
SEQEND
  5
1F67
  8
10BY10
  0
POLYLINE
  5
1F1
  8
10BY10
 66
     1
 10
0.0
 20
0.0
 30
0.1
 70
     1
1001
DCO15
1071
        2
1071
        2
1000
new-all-density-link
1004
0000000000588E40
  0
VERTEX
  5
1F68
  8
10BY10
 10
86614.0
 20
490046.0
 30
0.1
  0
VERTEX
  5
1F69
  8
10BY10
 10
86624.0
 20
490046.0
 30
0.1
  0
VERTEX
  5
1F6A
  8
10BY10
 10
86624.0
 20
490056.0
 30
0.1
  0
VERTEX
  5
1F6B
  8
10BY10
 10
86614.0
 20
490056.0
 30
0.1
  0
SEQEND
  5
1F6C
  8
10BY10
  0
POLYLINE
  5
1F2
  8
10BY10
 66
     1
 10
0.0
 20
0.0
 30
0.085
 70
     1
1001
DCO15
1071
        2
1071
        2
1000
new-all-density-link
1004
0000000000608E40
  0
VERTEX
  5
1F6D
  8
10BY10
 10
86739.0
 20
489920.0
 30
0.085
  0
VERTEX
  5
1F6E
  8
10BY10
 10
86749.0
 20
489920.0
 30
0.085
  0
VERTEX
  5
1F6F
  8
10BY10
 10
86749.0
 20
489930.0
 30
0.085
  0
VERTEX
  5
1F70
  8
10BY10
 10
86739.0
 20
489930.0
 30
0.085
  0
SEQEND
  5
1F71
  8
10BY10
  0
POLYLINE
  5
1F3
  8
10BY10
 66
     1
 10
0.0
 20
0.0
 30
0.15
 70
     1
1001
DCO15
1071
        2
1071
        2
1000
new-all-density-link
1004
0000000000688E40
  0
VERTEX
  5
1F72
  8
10BY10
 10
86699.0
 20
490070.0
 30
0.15
  0
VERTEX
  5
1F73
  8
10BY10
 10
86709.0
 20
490070.0
 30
0.15
  0
VERTEX
  5
1F74
  8
10BY10
 10
86709.0
 20
490080.0
 30
0.15
  0
VERTEX
  5
1F75
  8
10BY10
 10
86699.0
 20
490080.0
 30
0.15
  0
SEQEND
  5
1F76
  8
10BY10
  0
POLYLINE
  5
1F4
  8
10BY10
 66
     1
 10
0.0
 20
0.0
 30
0.02
 70
     1
1001
DCO15
1071
        2
1071
        2
1000
new-all-density-link
1004
0000000000708E40
  0
VERTEX
  5
1F77
  8
10BY10
 10
86686.0
 20
490048.0
 30
0.02
  0
VERTEX
  5
1F78
  8
10BY10
 10
86696.0
 20
490048.0
 30
0.02
  0
VERTEX
  5
1F79
  8
10BY10
 10
86696.0
 20
490058.0
 30
0.02
  0
VERTEX
  5
1F7A
  8
10BY10
 10
86686.0
 20
490058.0
 30
0.02
  0
SEQEND
  5
1F7B
  8
10BY10
  0
POLYLINE
  5
1F5
  8
10BY10
 66
     1
 10
0.0
 20
0.0
 30
0.3359999999999999
 70
     1
1001
DCO15
1071
        2
1071
        2
1000
new-all-density-link
1004
0000000000788E40
  0
VERTEX
  5
1F7C
  8
10BY10
 10
86747.0
 20
490016.0
 30
0.3359999999999999
  0
VERTEX
  5
1F7D
  8
10BY10
 10
86757.0
 20
490016.0
 30
0.3359999999999999
  0
VERTEX
  5
1F7E
  8
10BY10
 10
86757.0
 20
490026.0
 30
0.3359999999999999
  0
VERTEX
  5
1F7F
  8
10BY10
 10
86747.0
 20
490026.0
 30
0.3359999999999999
  0
SEQEND
  5
1F80
  8
10BY10
  0
POLYLINE
  5
1F6
  8
10BY10
 66
     1
 10
0.0
 20
0.0
 30
0.12
 70
     1
1001
DCO15
1071
        2
1071
        2
1000
new-all-density-link
1004
0000000000808E40
  0
VERTEX
  5
1F81
  8
10BY10
 10
86756.0
 20
489999.0
 30
0.12
  0
VERTEX
  5
1F82
  8
10BY10
 10
86766.0
 20
489999.0
 30
0.12
  0
VERTEX
  5
1F83
  8
10BY10
 10
86766.0
 20
490009.0
 30
0.12
  0
VERTEX
  5
1F84
  8
10BY10
 10
86756.0
 20
490009.0
 30
0.12
  0
SEQEND
  5
1F85
  8
10BY10
  0
POLYLINE
  5
1F7
  8
10BY10
 66
     1
 10
0.0
 20
0.0
 30
0.01
 70
     1
1001
DCO15
1071
        2
1071
        2
1000
new-all-density-link
1004
0000000000888E40
  0
VERTEX
  5
1F86
  8
10BY10
 10
86793.0
 20
489949.0
 30
0.01
  0
VERTEX
  5
1F87
  8
10BY10
 10
86803.0
 20
489949.0
 30
0.01
  0
VERTEX
  5
1F88
  8
10BY10
 10
86803.0
 20
489959.0
 30
0.01
  0
VERTEX
  5
1F89
  8
10BY10
 10
86793.0
 20
489959.0
 30
0.01
  0
SEQEND
  5
1F8A
  8
10BY10
  0
POLYLINE
  5
1F8
  8
10BY10
 66
     1
 10
0.0
 20
0.0
 30
0.13
 70
     1
1001
DCO15
1071
        2
1071
        2
1000
new-all-density-link
1004
0000000000988E40
  0
VERTEX
  5
1F8B
  8
10BY10
 10
89770.0
 20
487417.0
 30
0.13
  0
VERTEX
  5
1F8C
  8
10BY10
 10
89780.0
 20
487417.0
 30
0.13
  0
VERTEX
  5
1F8D
  8
10BY10
 10
89780.0
 20
487427.0
 30
0.13
  0
VERTEX
  5
1F8E
  8
10BY10
 10
89770.0
 20
487427.0
 30
0.13
  0
SEQEND
  5
1F8F
  8
10BY10
  0
POLYLINE
  5
1F9
  8
10BY10
 66
     1
 10
0.0
 20
0.0
 30
0.05
 70
     1
1001
DCO15
1071
        2
1071
        2
1000
new-all-density-link
1004
0000000000B88E40
  0
VERTEX
  5
1F90
  8
10BY10
 10
89800.0
 20
487408.0
 30
0.05
  0
VERTEX
  5
1F91
  8
10BY10
 10
89810.0
 20
487408.0
 30
0.05
  0
VERTEX
  5
1F92
  8
10BY10
 10
89810.0
 20
487418.0
 30
0.05
  0
VERTEX
  5
1F93
  8
10BY10
 10
89800.0
 20
487418.0
 30
0.05
  0
SEQEND
  5
1F94
  8
10BY10
  0
POLYLINE
  5
1FA
  8
10BY10
 66
     1
 10
0.0
 20
0.0
 30
0.01
 70
     1
1001
DCO15
1071
        2
1071
        2
1000
new-all-density-link
1004
0000000000408F40
  0
VERTEX
  5
1F95
  8
10BY10
 10
89702.0
 20
485134.0
 30
0.01
  0
VERTEX
  5
1F96
  8
10BY10
 10
89712.0
 20
485134.0
 30
0.01
  0
VERTEX
  5
1F97
  8
10BY10
 10
89712.0
 20
485144.0
 30
0.01
  0
VERTEX
  5
1F98
  8
10BY10
 10
89702.0
 20
485144.0
 30
0.01
  0
SEQEND
  5
1F99
  8
10BY10
  0
POLYLINE
  5
1FB
  8
10BY10
 66
     1
 10
0.0
 20
0.0
 30
0.02
 70
     1
1001
DCO15
1071
        2
1071
        2
1000
new-all-density-link
1004
0000000000C08F40
  0
VERTEX
  5
1F9A
  8
10BY10
 10
89485.0
 20
485027.0
 30
0.02
  0
VERTEX
  5
1F9B
  8
10BY10
 10
89495.0
 20
485027.0
 30
0.02
  0
VERTEX
  5
1F9C
  8
10BY10
 10
89495.0
 20
485037.0
 30
0.02
  0
VERTEX
  5
1F9D
  8
10BY10
 10
89485.0
 20
485037.0
 30
0.02
  0
SEQEND
  5
1F9E
  8
10BY10
  0
POLYLINE
  5
1FC
  8
10BY10
 66
     1
 10
0.0
 20
0.0
 30
0.02
 70
     1
1001
DCO15
1071
        2
1071
        2
1000
new-all-density-link
1004
0000000000589040
  0
VERTEX
  5
1F9F
  8
10BY10
 10
89985.0
 20
483376.0
 30
0.02
  0
VERTEX
  5
1FA0
  8
10BY10
 10
89995.0
 20
483376.0
 30
0.02
  0
VERTEX
  5
1FA1
  8
10BY10
 10
89995.0
 20
483386.0
 30
0.02
  0
VERTEX
  5
1FA2
  8
10BY10
 10
89985.0
 20
483386.0
 30
0.02
  0
SEQEND
  5
1FA3
  8
10BY10
  0
POLYLINE
  5
1FD
  8
10BY10
 66
     1
 10
0.0
 20
0.0
 30
0.07
 70
     1
1001
DCO15
1071
        2
1071
        2
1000
new-all-density-link
1004
00000000005C9040
  0
VERTEX
  5
1FA4
  8
10BY10
 10
89975.0
 20
483371.0
 30
0.07
  0
VERTEX
  5
1FA5
  8
10BY10
 10
89985.0
 20
483371.0
 30
0.07
  0
VERTEX
  5
1FA6
  8
10BY10
 10
89985.0
 20
483381.0
 30
0.07
  0
VERTEX
  5
1FA7
  8
10BY10
 10
89975.0
 20
483381.0
 30
0.07
  0
SEQEND
  5
1FA8
  8
10BY10
  0
POLYLINE
  5
1FE
  8
10BY10
 66
     1
 10
0.0
 20
0.0
 30
0.03
 70
     1
1001
DCO15
1071
        2
1071
        2
1000
new-all-density-link
1004
0000000000689040
  0
VERTEX
  5
1FA9
  8
10BY10
 10
89984.0
 20
483325.0
 30
0.03
  0
VERTEX
  5
1FAA
  8
10BY10
 10
89994.0
 20
483325.0
 30
0.03
  0
VERTEX
  5
1FAB
  8
10BY10
 10
89994.0
 20
483335.0
 30
0.03
  0
VERTEX
  5
1FAC
  8
10BY10
 10
89984.0
 20
483335.0
 30
0.03
  0
SEQEND
  5
1FAD
  8
10BY10
  0
POLYLINE
  5
1FF
  8
10BY10
 66
     1
 10
0.0
 20
0.0
 30
0.085
 70
     1
1001
DCO15
1071
        2
1071
        2
1000
new-all-density-link
1004
00000000006C9040
  0
VERTEX
  5
1FAE
  8
10BY10
 10
89962.0
 20
483361.0
 30
0.085
  0
VERTEX
  5
1FAF
  8
10BY10
 10
89972.0
 20
483361.0
 30
0.085
  0
VERTEX
  5
1FB0
  8
10BY10
 10
89972.0
 20
483371.0
 30
0.085
  0
VERTEX
  5
1FB1
  8
10BY10
 10
89962.0
 20
483371.0
 30
0.085
  0
SEQEND
  5
1FB2
  8
10BY10
  0
POLYLINE
  5
200
  8
10BY10
 66
     1
 10
0.0
 20
0.0
 30
0.017
 70
     1
1001
DCO15
1071
        2
1071
        2
1000
new-all-density-link
1004
0000000000709040
  0
VERTEX
  5
1FB3
  8
10BY10
 10
89989.0
 20
483315.0
 30
0.017
  0
VERTEX
  5
1FB4
  8
10BY10
 10
89999.0
 20
483315.0
 30
0.017
  0
VERTEX
  5
1FB5
  8
10BY10
 10
89999.0
 20
483325.0
 30
0.017
  0
VERTEX
  5
1FB6
  8
10BY10
 10
89989.0
 20
483325.0
 30
0.017
  0
SEQEND
  5
1FB7
  8
10BY10
  0
POLYLINE
  5
201
  8
10BY10
 66
     1
 10
0.0
 20
0.0
 30
0.01
 70
     1
1001
DCO15
1071
        2
1071
        2
1000
new-all-density-link
1004
0000000000B49040
  0
VERTEX
  5
1FB8
  8
10BY10
 10
87944.0
 20
482417.0
 30
0.01
  0
VERTEX
  5
1FB9
  8
10BY10
 10
87954.0
 20
482417.0
 30
0.01
  0
VERTEX
  5
1FBA
  8
10BY10
 10
87954.0
 20
482427.0
 30
0.01
  0
VERTEX
  5
1FBB
  8
10BY10
 10
87944.0
 20
482427.0
 30
0.01
  0
SEQEND
  5
1FBC
  8
10BY10
  0
POLYLINE
  5
202
  8
10BY10
 66
     1
 10
0.0
 20
0.0
 30
0.03
 70
     1
1001
DCO15
1071
        2
1071
        2
1000
new-all-density-link
1004
0000000000149140
  0
VERTEX
  5
1FBD
  8
10BY10
 10
87496.0
 20
480878.0
 30
0.03
  0
VERTEX
  5
1FBE
  8
10BY10
 10
87506.0
 20
480878.0
 30
0.03
  0
VERTEX
  5
1FBF
  8
10BY10
 10
87506.0
 20
480888.0
 30
0.03
  0
VERTEX
  5
1FC0
  8
10BY10
 10
87496.0
 20
480888.0
 30
0.03
  0
SEQEND
  5
1FC1
  8
10BY10
  0
POLYLINE
  5
203
  8
10BY10
 66
     1
 10
0.0
 20
0.0
 30
0.02
 70
     1
1001
DCO15
1071
        2
1071
        2
1000
new-all-density-link
1004
0000000000189140
  0
VERTEX
  5
1FC2
  8
10BY10
 10
87401.0
 20
480894.0
 30
0.02
  0
VERTEX
  5
1FC3
  8
10BY10
 10
87411.0
 20
480894.0
 30
0.02
  0
VERTEX
  5
1FC4
  8
10BY10
 10
87411.0
 20
480904.0
 30
0.02
  0
VERTEX
  5
1FC5
  8
10BY10
 10
87401.0
 20
480904.0
 30
0.02
  0
SEQEND
  5
1FC6
  8
10BY10
  0
POLYLINE
  5
204
  8
10BY10
 66
     1
 10
0.0
 20
0.0
 30
0.03
 70
     1
1001
DCO15
1071
        2
1071
        2
1000
new-all-density-link
1004
0000000000209140
  0
VERTEX
  5
1FC7
  8
10BY10
 10
87527.0
 20
480842.0
 30
0.03
  0
VERTEX
  5
1FC8
  8
10BY10
 10
87537.0
 20
480842.0
 30
0.03
  0
VERTEX
  5
1FC9
  8
10BY10
 10
87537.0
 20
480852.0
 30
0.03
  0
VERTEX
  5
1FCA
  8
10BY10
 10
87527.0
 20
480852.0
 30
0.03
  0
SEQEND
  5
1FCB
  8
10BY10
  0
POLYLINE
  5
205
  8
10BY10
 66
     1
 10
0.0
 20
0.0
 30
0.034
 70
     1
1001
DCO15
1071
        2
1071
        2
1000
new-all-density-link
1004
0000000000249140
  0
VERTEX
  5
1FCC
  8
10BY10
 10
87489.0
 20
480902.0
 30
0.034
  0
VERTEX
  5
1FCD
  8
10BY10
 10
87499.0
 20
480902.0
 30
0.034
  0
VERTEX
  5
1FCE
  8
10BY10
 10
87499.0
 20
480912.0
 30
0.034
  0
VERTEX
  5
1FCF
  8
10BY10
 10
87489.0
 20
480912.0
 30
0.034
  0
SEQEND
  5
1FD0
  8
10BY10
  0
POLYLINE
  5
206
  8
10BY10
 66
     1
 10
0.0
 20
0.0
 30
0.01
 70
     1
1001
DCO15
1071
        2
1071
        2
1000
new-all-density-link
1004
0000000000289140
  0
VERTEX
  5
1FD1
  8
10BY10
 10
87547.0
 20
480878.0
 30
0.01
  0
VERTEX
  5
1FD2
  8
10BY10
 10
87557.0
 20
480878.0
 30
0.01
  0
VERTEX
  5
1FD3
  8
10BY10
 10
87557.0
 20
480888.0
 30
0.01
  0
VERTEX
  5
1FD4
  8
10BY10
 10
87547.0
 20
480888.0
 30
0.01
  0
SEQEND
  5
1FD5
  8
10BY10
  0
POLYLINE
  5
207
  8
10BY10
 66
     1
 10
0.0
 20
0.0
 30
0.09
 70
     1
1001
DCO15
1071
        2
1071
        2
1000
new-all-density-link
1004
0000000000309140
  0
VERTEX
  5
1FD6
  8
10BY10
 10
87400.0
 20
480906.0
 30
0.09
  0
VERTEX
  5
1FD7
  8
10BY10
 10
87410.0
 20
480906.0
 30
0.09
  0
VERTEX
  5
1FD8
  8
10BY10
 10
87410.0
 20
480916.0
 30
0.09
  0
VERTEX
  5
1FD9
  8
10BY10
 10
87400.0
 20
480916.0
 30
0.09
  0
SEQEND
  5
1FDA
  8
10BY10
  0
POLYLINE
  5
208
  8
10BY10
 66
     1
 10
0.0
 20
0.0
 30
0.16
 70
     1
1001
DCO15
1071
        2
1071
        2
1000
new-all-density-link
1004
0000000000349140
  0
VERTEX
  5
1FDB
  8
10BY10
 10
87412.0
 20
480892.0
 30
0.16
  0
VERTEX
  5
1FDC
  8
10BY10
 10
87422.0
 20
480892.0
 30
0.16
  0
VERTEX
  5
1FDD
  8
10BY10
 10
87422.0
 20
480902.0
 30
0.16
  0
VERTEX
  5
1FDE
  8
10BY10
 10
87412.0
 20
480902.0
 30
0.16
  0
SEQEND
  5
1FDF
  8
10BY10
  0
POLYLINE
  5
209
  8
10BY10
 66
     1
 10
0.0
 20
0.0
 30
0.06
 70
     1
1001
DCO15
1071
        2
1071
        2
1000
new-all-density-link
1004
0000000000389140
  0
VERTEX
  5
1FE0
  8
10BY10
 10
87507.0
 20
480864.0
 30
0.06
  0
VERTEX
  5
1FE1
  8
10BY10
 10
87517.0
 20
480864.0
 30
0.06
  0
VERTEX
  5
1FE2
  8
10BY10
 10
87517.0
 20
480874.0
 30
0.06
  0
VERTEX
  5
1FE3
  8
10BY10
 10
87507.0
 20
480874.0
 30
0.06
  0
SEQEND
  5
1FE4
  8
10BY10
  0
POLYLINE
  5
20A
  8
10BY10
 66
     1
 10
0.0
 20
0.0
 30
0.05
 70
     1
1001
DCO15
1071
        2
1071
        2
1000
new-all-density-link
1004
00000000003C9140
  0
VERTEX
  5
1FE5
  8
10BY10
 10
87539.0
 20
480816.0
 30
0.05
  0
VERTEX
  5
1FE6
  8
10BY10
 10
87549.0
 20
480816.0
 30
0.05
  0
VERTEX
  5
1FE7
  8
10BY10
 10
87549.0
 20
480826.0
 30
0.05
  0
VERTEX
  5
1FE8
  8
10BY10
 10
87539.0
 20
480826.0
 30
0.05
  0
SEQEND
  5
1FE9
  8
10BY10
  0
POLYLINE
  5
20B
  8
10BY10
 66
     1
 10
0.0
 20
0.0
 30
0.03
 70
     1
1001
DCO15
1071
        2
1071
        2
1000
new-all-density-link
1004
0000000000409140
  0
VERTEX
  5
1FEA
  8
10BY10
 10
87548.0
 20
480831.0
 30
0.03
  0
VERTEX
  5
1FEB
  8
10BY10
 10
87558.0
 20
480831.0
 30
0.03
  0
VERTEX
  5
1FEC
  8
10BY10
 10
87558.0
 20
480841.0
 30
0.03
  0
VERTEX
  5
1FED
  8
10BY10
 10
87548.0
 20
480841.0
 30
0.03
  0
SEQEND
  5
1FEE
  8
10BY10
  0
POLYLINE
  5
20C
  8
10BY10
 66
     1
 10
0.0
 20
0.0
 30
0.02
 70
     1
1001
DCO15
1071
        2
1071
        2
1000
new-all-density-link
1004
0000000000449140
  0
VERTEX
  5
1FEF
  8
10BY10
 10
87422.0
 20
480896.0
 30
0.02
  0
VERTEX
  5
1FF0
  8
10BY10
 10
87432.0
 20
480896.0
 30
0.02
  0
VERTEX
  5
1FF1
  8
10BY10
 10
87432.0
 20
480906.0
 30
0.02
  0
VERTEX
  5
1FF2
  8
10BY10
 10
87422.0
 20
480906.0
 30
0.02
  0
SEQEND
  5
1FF3
  8
10BY10
  0
POLYLINE
  5
20D
  8
10BY10
 66
     1
 10
0.0
 20
0.0
 30
0.03
 70
     1
1001
DCO15
1071
        2
1071
        2
1000
new-all-density-link
1004
0000000000489140
  0
VERTEX
  5
1FF4
  8
10BY10
 10
87493.0
 20
480892.0
 30
0.03
  0
VERTEX
  5
1FF5
  8
10BY10
 10
87503.0
 20
480892.0
 30
0.03
  0
VERTEX
  5
1FF6
  8
10BY10
 10
87503.0
 20
480902.0
 30
0.03
  0
VERTEX
  5
1FF7
  8
10BY10
 10
87493.0
 20
480902.0
 30
0.03
  0
SEQEND
  5
1FF8
  8
10BY10
  0
POLYLINE
  5
20E
  8
10BY10
 66
     1
 10
0.0
 20
0.0
 30
0.01
 70
     1
1001
DCO15
1071
        2
1071
        2
1000
new-all-density-link
1004
00000000004C9140
  0
VERTEX
  5
1FF9
  8
10BY10
 10
87484.0
 20
480843.0
 30
0.01
  0
VERTEX
  5
1FFA
  8
10BY10
 10
87494.0
 20
480843.0
 30
0.01
  0
VERTEX
  5
1FFB
  8
10BY10
 10
87494.0
 20
480853.0
 30
0.01
  0
VERTEX
  5
1FFC
  8
10BY10
 10
87484.0
 20
480853.0
 30
0.01
  0
SEQEND
  5
1FFD
  8
10BY10
  0
POLYLINE
  5
20F
  8
10BY10
 66
     1
 10
0.0
 20
0.0
 30
0.032
 70
     1
1001
DCO15
1071
        2
1071
        2
1000
new-all-density-link
1004
0000000000289240
  0
VERTEX
  5
1FFE
  8
10BY10
 10
87938.0
 20
480112.0
 30
0.032
  0
VERTEX
  5
1FFF
  8
10BY10
 10
87948.0
 20
480112.0
 30
0.032
  0
VERTEX
  5
2000
  8
10BY10
 10
87948.0
 20
480122.0
 30
0.032
  0
VERTEX
  5
2001
  8
10BY10
 10
87938.0
 20
480122.0
 30
0.032
  0
SEQEND
  5
2002
  8
10BY10
  0
POLYLINE
  5
210
  8
10BY10
 66
     1
 10
0.0
 20
0.0
 30
0.051
 70
     1
1001
DCO15
1071
        2
1071
        2
1000
new-all-density-link
1004
00000000002C9240
  0
VERTEX
  5
2003
  8
10BY10
 10
87892.0
 20
480188.0
 30
0.051
  0
VERTEX
  5
2004
  8
10BY10
 10
87902.0
 20
480188.0
 30
0.051
  0
VERTEX
  5
2005
  8
10BY10
 10
87902.0
 20
480198.0
 30
0.051
  0
VERTEX
  5
2006
  8
10BY10
 10
87892.0
 20
480198.0
 30
0.051
  0
SEQEND
  5
2007
  8
10BY10
  0
POLYLINE
  5
211
  8
10BY10
 66
     1
 10
0.0
 20
0.0
 30
0.03
 70
     1
1001
DCO15
1071
        2
1071
        2
1000
new-all-density-link
1004
0000000000309240
  0
VERTEX
  5
2008
  8
10BY10
 10
87900.0
 20
480133.0
 30
0.03
  0
VERTEX
  5
2009
  8
10BY10
 10
87910.0
 20
480133.0
 30
0.03
  0
VERTEX
  5
200A
  8
10BY10
 10
87910.0
 20
480143.0
 30
0.03
  0
VERTEX
  5
200B
  8
10BY10
 10
87900.0
 20
480143.0
 30
0.03
  0
SEQEND
  5
200C
  8
10BY10
  0
POLYLINE
  5
212
  8
10BY10
 66
     1
 10
0.0
 20
0.0
 30
0.05
 70
     1
1001
DCO15
1071
        2
1071
        2
1000
new-all-density-link
1004
0000000000549240
  0
VERTEX
  5
200D
  8
10BY10
 10
87937.0
 20
480084.0
 30
0.05
  0
VERTEX
  5
200E
  8
10BY10
 10
87947.0
 20
480084.0
 30
0.05
  0
VERTEX
  5
200F
  8
10BY10
 10
87947.0
 20
480094.0
 30
0.05
  0
VERTEX
  5
2010
  8
10BY10
 10
87937.0
 20
480094.0
 30
0.05
  0
SEQEND
  5
2011
  8
10BY10
  0
POLYLINE
  5
213
  8
10BY10
 66
     1
 10
0.0
 20
0.0
 30
0.01
 70
     1
1001
DCO15
1071
        2
1071
        2
1000
new-all-density-link
1004
0000000000589240
  0
VERTEX
  5
2012
  8
10BY10
 10
87923.0
 20
480081.0
 30
0.01
  0
VERTEX
  5
2013
  8
10BY10
 10
87933.0
 20
480081.0
 30
0.01
  0
VERTEX
  5
2014
  8
10BY10
 10
87933.0
 20
480091.0
 30
0.01
  0
VERTEX
  5
2015
  8
10BY10
 10
87923.0
 20
480091.0
 30
0.01
  0
SEQEND
  5
2016
  8
10BY10
  0
POLYLINE
  5
214
  8
10BY10
 66
     1
 10
0.0
 20
0.0
 30
0.9599999999999999
 70
     1
1001
DCO15
1071
        2
1071
        2
1000
new-all-density-link
1004
0000000000609240
  0
VERTEX
  5
2017
  8
10BY10
 10
89056.0
 20
482283.0
 30
0.9599999999999999
  0
VERTEX
  5
2018
  8
10BY10
 10
89066.0
 20
482283.0
 30
0.9599999999999999
  0
VERTEX
  5
2019
  8
10BY10
 10
89066.0
 20
482293.0
 30
0.9599999999999999
  0
VERTEX
  5
201A
  8
10BY10
 10
89056.0
 20
482293.0
 30
0.9599999999999999
  0
SEQEND
  5
201B
  8
10BY10
  0
POLYLINE
  5
215
  8
10BY10
 66
     1
 10
0.0
 20
0.0
 30
0.08
 70
     1
1001
DCO15
1071
        2
1071
        2
1000
new-all-density-link
1004
0000000000649240
  0
VERTEX
  5
201C
  8
10BY10
 10
89022.0
 20
482333.0
 30
0.08
  0
VERTEX
  5
201D
  8
10BY10
 10
89032.0
 20
482333.0
 30
0.08
  0
VERTEX
  5
201E
  8
10BY10
 10
89032.0
 20
482343.0
 30
0.08
  0
VERTEX
  5
201F
  8
10BY10
 10
89022.0
 20
482343.0
 30
0.08
  0
SEQEND
  5
2020
  8
10BY10
  0
POLYLINE
  5
216
  8
10BY10
 66
     1
 10
0.0
 20
0.0
 30
0.144
 70
     1
1001
DCO15
1071
        2
1071
        2
1000
new-all-density-link
1004
0000000000689240
  0
VERTEX
  5
2021
  8
10BY10
 10
89001.0
 20
482349.0
 30
0.144
  0
VERTEX
  5
2022
  8
10BY10
 10
89011.0
 20
482349.0
 30
0.144
  0
VERTEX
  5
2023
  8
10BY10
 10
89011.0
 20
482359.0
 30
0.144
  0
VERTEX
  5
2024
  8
10BY10
 10
89001.0
 20
482359.0
 30
0.144
  0
SEQEND
  5
2025
  8
10BY10
  0
POLYLINE
  5
217
  8
10BY10
 66
     1
 10
0.0
 20
0.0
 30
0.096
 70
     1
1001
DCO15
1071
        2
1071
        2
1000
new-all-density-link
1004
00000000006C9240
  0
VERTEX
  5
2026
  8
10BY10
 10
88990.0
 20
482372.0
 30
0.096
  0
VERTEX
  5
2027
  8
10BY10
 10
89000.0
 20
482372.0
 30
0.096
  0
VERTEX
  5
2028
  8
10BY10
 10
89000.0
 20
482382.0
 30
0.096
  0
VERTEX
  5
2029
  8
10BY10
 10
88990.0
 20
482382.0
 30
0.096
  0
SEQEND
  5
202A
  8
10BY10
  0
POLYLINE
  5
218
  8
10BY10
 66
     1
 10
0.0
 20
0.0
 30
0.096
 70
     1
1001
DCO15
1071
        2
1071
        2
1000
new-all-density-link
1004
0000000000709240
  0
VERTEX
  5
202B
  8
10BY10
 10
89053.0
 20
482294.0
 30
0.096
  0
VERTEX
  5
202C
  8
10BY10
 10
89063.0
 20
482294.0
 30
0.096
  0
VERTEX
  5
202D
  8
10BY10
 10
89063.0
 20
482304.0
 30
0.096
  0
VERTEX
  5
202E
  8
10BY10
 10
89053.0
 20
482304.0
 30
0.096
  0
SEQEND
  5
202F
  8
10BY10
  0
POLYLINE
  5
219
  8
10BY10
 66
     1
 10
0.0
 20
0.0
 30
0.04
 70
     1
1001
DCO15
1071
        2
1071
        2
1000
new-all-density-link
1004
0000000000749240
  0
VERTEX
  5
2030
  8
10BY10
 10
88986.0
 20
482325.0
 30
0.04
  0
VERTEX
  5
2031
  8
10BY10
 10
88996.0
 20
482325.0
 30
0.04
  0
VERTEX
  5
2032
  8
10BY10
 10
88996.0
 20
482335.0
 30
0.04
  0
VERTEX
  5
2033
  8
10BY10
 10
88986.0
 20
482335.0
 30
0.04
  0
SEQEND
  5
2034
  8
10BY10
  0
POLYLINE
  5
21A
  8
10BY10
 66
     1
 10
0.0
 20
0.0
 30
0.01
 70
     1
1001
DCO15
1071
        2
1071
        2
1000
new-all-density-link
1004
0000000000789240
  0
VERTEX
  5
2035
  8
10BY10
 10
89023.0
 20
482380.0
 30
0.01
  0
VERTEX
  5
2036
  8
10BY10
 10
89033.0
 20
482380.0
 30
0.01
  0
VERTEX
  5
2037
  8
10BY10
 10
89033.0
 20
482390.0
 30
0.01
  0
VERTEX
  5
2038
  8
10BY10
 10
89023.0
 20
482390.0
 30
0.01
  0
SEQEND
  5
2039
  8
10BY10
  0
POLYLINE
  5
21B
  8
10BY10
 66
     1
 10
0.0
 20
0.0
 30
0.02
 70
     1
1001
DCO15
1071
        2
1071
        2
1000
new-all-density-link
1004
0000000000FC9240
  0
VERTEX
  5
203A
  8
10BY10
 10
85878.0
 20
481629.0
 30
0.02
  0
VERTEX
  5
203B
  8
10BY10
 10
85888.0
 20
481629.0
 30
0.02
  0
VERTEX
  5
203C
  8
10BY10
 10
85888.0
 20
481639.0
 30
0.02
  0
VERTEX
  5
203D
  8
10BY10
 10
85878.0
 20
481639.0
 30
0.02
  0
SEQEND
  5
203E
  8
10BY10
  0
POLYLINE
  5
21C
  8
10BY10
 66
     1
 10
0.0
 20
0.0
 30
0.01
 70
     1
1001
DCO15
1071
        2
1071
        2
1000
new-all-density-link
1004
0000000000609340
  0
VERTEX
  5
203F
  8
10BY10
 10
106695.0
 20
493067.0
 30
0.01
  0
VERTEX
  5
2040
  8
10BY10
 10
106705.0
 20
493067.0
 30
0.01
  0
VERTEX
  5
2041
  8
10BY10
 10
106705.0
 20
493077.0
 30
0.01
  0
VERTEX
  5
2042
  8
10BY10
 10
106695.0
 20
493077.0
 30
0.01
  0
SEQEND
  5
2043
  8
10BY10
  0
POLYLINE
  5
21D
  8
10BY10
 66
     1
 10
0.0
 20
0.0
 30
0.032
 70
     1
1001
DCO15
1071
        2
1071
        2
1000
new-all-density-link
1004
0000000000649340
  0
VERTEX
  5
2044
  8
10BY10
 10
106618.0
 20
493125.0
 30
0.032
  0
VERTEX
  5
2045
  8
10BY10
 10
106628.0
 20
493125.0
 30
0.032
  0
VERTEX
  5
2046
  8
10BY10
 10
106628.0
 20
493135.0
 30
0.032
  0
VERTEX
  5
2047
  8
10BY10
 10
106618.0
 20
493135.0
 30
0.032
  0
SEQEND
  5
2048
  8
10BY10
  0
POLYLINE
  5
21E
  8
10BY10
 66
     1
 10
0.0
 20
0.0
 30
0.096
 70
     1
1001
DCO15
1071
        2
1071
        2
1000
new-all-density-link
1004
0000000000689340
  0
VERTEX
  5
2049
  8
10BY10
 10
106624.0
 20
493089.0
 30
0.096
  0
VERTEX
  5
204A
  8
10BY10
 10
106634.0
 20
493089.0
 30
0.096
  0
VERTEX
  5
204B
  8
10BY10
 10
106634.0
 20
493099.0
 30
0.096
  0
VERTEX
  5
204C
  8
10BY10
 10
106624.0
 20
493099.0
 30
0.096
  0
SEQEND
  5
204D
  8
10BY10
  0
POLYLINE
  5
21F
  8
10BY10
 66
     1
 10
0.0
 20
0.0
 30
0.01
 70
     1
1001
DCO15
1071
        2
1071
        2
1000
new-all-density-link
1004
00000000006C9340
  0
VERTEX
  5
204E
  8
10BY10
 10
106731.0
 20
493084.0
 30
0.01
  0
VERTEX
  5
204F
  8
10BY10
 10
106741.0
 20
493084.0
 30
0.01
  0
VERTEX
  5
2050
  8
10BY10
 10
106741.0
 20
493094.0
 30
0.01
  0
VERTEX
  5
2051
  8
10BY10
 10
106731.0
 20
493094.0
 30
0.01
  0
SEQEND
  5
2052
  8
10BY10
  0
POLYLINE
  5
220
  8
10BY10
 66
     1
 10
0.0
 20
0.0
 30
0.02
 70
     1
1001
DCO15
1071
        2
1071
        2
1000
new-all-density-link
1004
0000000000709340
  0
VERTEX
  5
2053
  8
10BY10
 10
106785.0
 20
493082.0
 30
0.02
  0
VERTEX
  5
2054
  8
10BY10
 10
106795.0
 20
493082.0
 30
0.02
  0
VERTEX
  5
2055
  8
10BY10
 10
106795.0
 20
493092.0
 30
0.02
  0
VERTEX
  5
2056
  8
10BY10
 10
106785.0
 20
493092.0
 30
0.02
  0
SEQEND
  5
2057
  8
10BY10
  0
POLYLINE
  5
221
  8
10BY10
 66
     1
 10
0.0
 20
0.0
 30
0.064
 70
     1
1001
DCO15
1071
        2
1071
        2
1000
new-all-density-link
1004
0000000000749340
  0
VERTEX
  5
2058
  8
10BY10
 10
106805.0
 20
492914.0
 30
0.064
  0
VERTEX
  5
2059
  8
10BY10
 10
106815.0
 20
492914.0
 30
0.064
  0
VERTEX
  5
205A
  8
10BY10
 10
106815.0
 20
492924.0
 30
0.064
  0
VERTEX
  5
205B
  8
10BY10
 10
106805.0
 20
492924.0
 30
0.064
  0
SEQEND
  5
205C
  8
10BY10
  0
POLYLINE
  5
222
  8
10BY10
 66
     1
 10
0.0
 20
0.0
 30
0.048
 70
     1
1001
DCO15
1071
        2
1071
        2
1000
new-all-density-link
1004
0000000000789340
  0
VERTEX
  5
205D
  8
10BY10
 10
106790.0
 20
492895.0
 30
0.048
  0
VERTEX
  5
205E
  8
10BY10
 10
106800.0
 20
492895.0
 30
0.048
  0
VERTEX
  5
205F
  8
10BY10
 10
106800.0
 20
492905.0
 30
0.048
  0
VERTEX
  5
2060
  8
10BY10
 10
106790.0
 20
492905.0
 30
0.048
  0
SEQEND
  5
2061
  8
10BY10
  0
POLYLINE
  5
223
  8
10BY10
 66
     1
 10
0.0
 20
0.0
 30
0.01
 70
     1
1001
DCO15
1071
        2
1071
        2
1000
new-all-density-link
1004
0000000000809340
  0
VERTEX
  5
2062
  8
10BY10
 10
106671.0
 20
493061.0
 30
0.01
  0
VERTEX
  5
2063
  8
10BY10
 10
106681.0
 20
493061.0
 30
0.01
  0
VERTEX
  5
2064
  8
10BY10
 10
106681.0
 20
493071.0
 30
0.01
  0
VERTEX
  5
2065
  8
10BY10
 10
106671.0
 20
493071.0
 30
0.01
  0
SEQEND
  5
2066
  8
10BY10
  0
POLYLINE
  5
224
  8
10BY10
 66
     1
 10
0.0
 20
0.0
 30
0.04
 70
     1
1001
DCO15
1071
        2
1071
        2
1000
new-all-density-link
1004
0000000000849340
  0
VERTEX
  5
2067
  8
10BY10
 10
106742.0
 20
493000.0
 30
0.04
  0
VERTEX
  5
2068
  8
10BY10
 10
106752.0
 20
493000.0
 30
0.04
  0
VERTEX
  5
2069
  8
10BY10
 10
106752.0
 20
493010.0
 30
0.04
  0
VERTEX
  5
206A
  8
10BY10
 10
106742.0
 20
493010.0
 30
0.04
  0
SEQEND
  5
206B
  8
10BY10
  0
POLYLINE
  5
225
  8
10BY10
 66
     1
 10
0.0
 20
0.0
 30
0.13
 70
     1
1001
DCO15
1071
        2
1071
        2
1000
new-all-density-link
1004
0000000000889340
  0
VERTEX
  5
206C
  8
10BY10
 10
106769.0
 20
492978.0
 30
0.13
  0
VERTEX
  5
206D
  8
10BY10
 10
106779.0
 20
492978.0
 30
0.13
  0
VERTEX
  5
206E
  8
10BY10
 10
106779.0
 20
492988.0
 30
0.13
  0
VERTEX
  5
206F
  8
10BY10
 10
106769.0
 20
492988.0
 30
0.13
  0
SEQEND
  5
2070
  8
10BY10
  0
POLYLINE
  5
226
  8
10BY10
 66
     1
 10
0.0
 20
0.0
 30
0.08
 70
     1
1001
DCO15
1071
        2
1071
        2
1000
new-all-density-link
1004
00000000008C9340
  0
VERTEX
  5
2071
  8
10BY10
 10
106619.0
 20
493100.0
 30
0.08
  0
VERTEX
  5
2072
  8
10BY10
 10
106629.0
 20
493100.0
 30
0.08
  0
VERTEX
  5
2073
  8
10BY10
 10
106629.0
 20
493110.0
 30
0.08
  0
VERTEX
  5
2074
  8
10BY10
 10
106619.0
 20
493110.0
 30
0.08
  0
SEQEND
  5
2075
  8
10BY10
  0
POLYLINE
  5
227
  8
10BY10
 66
     1
 10
0.0
 20
0.0
 30
0.02
 70
     1
1001
DCO15
1071
        2
1071
        2
1000
new-all-density-link
1004
0000000000909340
  0
VERTEX
  5
2076
  8
10BY10
 10
106796.0
 20
492938.0
 30
0.02
  0
VERTEX
  5
2077
  8
10BY10
 10
106806.0
 20
492938.0
 30
0.02
  0
VERTEX
  5
2078
  8
10BY10
 10
106806.0
 20
492948.0
 30
0.02
  0
VERTEX
  5
2079
  8
10BY10
 10
106796.0
 20
492948.0
 30
0.02
  0
SEQEND
  5
207A
  8
10BY10
  0
POLYLINE
  5
228
  8
10BY10
 66
     1
 10
0.0
 20
0.0
 30
0.03
 70
     1
1001
DCO15
1071
        2
1071
        2
1000
new-all-density-link
1004
0000000000989340
  0
VERTEX
  5
207B
  8
10BY10
 10
106701.0
 20
493086.0
 30
0.03
  0
VERTEX
  5
207C
  8
10BY10
 10
106711.0
 20
493086.0
 30
0.03
  0
VERTEX
  5
207D
  8
10BY10
 10
106711.0
 20
493096.0
 30
0.03
  0
VERTEX
  5
207E
  8
10BY10
 10
106701.0
 20
493096.0
 30
0.03
  0
SEQEND
  5
207F
  8
10BY10
  0
POLYLINE
  5
229
  8
10BY10
 66
     1
 10
0.0
 20
0.0
 30
0.112
 70
     1
1001
DCO15
1071
        2
1071
        2
1000
new-all-density-link
1004
00000000009C9340
  0
VERTEX
  5
2080
  8
10BY10
 10
106742.0
 20
492974.0
 30
0.112
  0
VERTEX
  5
2081
  8
10BY10
 10
106752.0
 20
492974.0
 30
0.112
  0
VERTEX
  5
2082
  8
10BY10
 10
106752.0
 20
492984.0
 30
0.112
  0
VERTEX
  5
2083
  8
10BY10
 10
106742.0
 20
492984.0
 30
0.112
  0
SEQEND
  5
2084
  8
10BY10
  0
POLYLINE
  5
22A
  8
10BY10
 66
     1
 10
0.0
 20
0.0
 30
0.3200000000000001
 70
     1
1001
DCO15
1071
        2
1071
        2
1000
new-all-density-link
1004
0000000000A09340
  0
VERTEX
  5
2085
  8
10BY10
 10
106763.0
 20
492967.0
 30
0.3200000000000001
  0
VERTEX
  5
2086
  8
10BY10
 10
106773.0
 20
492967.0
 30
0.3200000000000001
  0
VERTEX
  5
2087
  8
10BY10
 10
106773.0
 20
492977.0
 30
0.3200000000000001
  0
VERTEX
  5
2088
  8
10BY10
 10
106763.0
 20
492977.0
 30
0.3200000000000001
  0
SEQEND
  5
2089
  8
10BY10
  0
POLYLINE
  5
22B
  8
10BY10
 66
     1
 10
0.0
 20
0.0
 30
0.144
 70
     1
1001
DCO15
1071
        2
1071
        2
1000
new-all-density-link
1004
0000000000A49340
  0
VERTEX
  5
208A
  8
10BY10
 10
106639.0
 20
492901.0
 30
0.144
  0
VERTEX
  5
208B
  8
10BY10
 10
106649.0
 20
492901.0
 30
0.144
  0
VERTEX
  5
208C
  8
10BY10
 10
106649.0
 20
492911.0
 30
0.144
  0
VERTEX
  5
208D
  8
10BY10
 10
106639.0
 20
492911.0
 30
0.144
  0
SEQEND
  5
208E
  8
10BY10
  0
POLYLINE
  5
22C
  8
10BY10
 66
     1
 10
0.0
 20
0.0
 30
0.06
 70
     1
1001
DCO15
1071
        2
1071
        2
1000
new-all-density-link
1004
0000000000A89340
  0
VERTEX
  5
208F
  8
10BY10
 10
106556.0
 20
492850.0
 30
0.06
  0
VERTEX
  5
2090
  8
10BY10
 10
106566.0
 20
492850.0
 30
0.06
  0
VERTEX
  5
2091
  8
10BY10
 10
106566.0
 20
492860.0
 30
0.06
  0
VERTEX
  5
2092
  8
10BY10
 10
106556.0
 20
492860.0
 30
0.06
  0
SEQEND
  5
2093
  8
10BY10
  0
POLYLINE
  5
22D
  8
10BY10
 66
     1
 10
0.0
 20
0.0
 30
0.05
 70
     1
1001
DCO15
1071
        2
1071
        2
1000
new-all-density-link
1004
0000000000AC9340
  0
VERTEX
  5
2094
  8
10BY10
 10
106645.0
 20
493035.0
 30
0.05
  0
VERTEX
  5
2095
  8
10BY10
 10
106655.0
 20
493035.0
 30
0.05
  0
VERTEX
  5
2096
  8
10BY10
 10
106655.0
 20
493045.0
 30
0.05
  0
VERTEX
  5
2097
  8
10BY10
 10
106645.0
 20
493045.0
 30
0.05
  0
SEQEND
  5
2098
  8
10BY10
  0
POLYLINE
  5
22E
  8
10BY10
 66
     1
 10
0.0
 20
0.0
 30
0.08
 70
     1
1001
DCO15
1071
        2
1071
        2
1000
new-all-density-link
1004
0000000000B09340
  0
VERTEX
  5
2099
  8
10BY10
 10
106750.0
 20
493053.0
 30
0.08
  0
VERTEX
  5
209A
  8
10BY10
 10
106760.0
 20
493053.0
 30
0.08
  0
VERTEX
  5
209B
  8
10BY10
 10
106760.0
 20
493063.0
 30
0.08
  0
VERTEX
  5
209C
  8
10BY10
 10
106750.0
 20
493063.0
 30
0.08
  0
SEQEND
  5
209D
  8
10BY10
  0
POLYLINE
  5
22F
  8
10BY10
 66
     1
 10
0.0
 20
0.0
 30
0.17
 70
     1
1001
DCO15
1071
        2
1071
        2
1000
new-all-density-link
1004
0000000000B49340
  0
VERTEX
  5
209E
  8
10BY10
 10
106779.0
 20
492960.0
 30
0.17
  0
VERTEX
  5
209F
  8
10BY10
 10
106789.0
 20
492960.0
 30
0.17
  0
VERTEX
  5
20A0
  8
10BY10
 10
106789.0
 20
492970.0
 30
0.17
  0
VERTEX
  5
20A1
  8
10BY10
 10
106779.0
 20
492970.0
 30
0.17
  0
SEQEND
  5
20A2
  8
10BY10
  0
POLYLINE
  5
230
  8
10BY10
 66
     1
 10
0.0
 20
0.0
 30
0.25
 70
     1
1001
DCO15
1071
        2
1071
        2
1000
new-all-density-link
1004
0000000000B89340
  0
VERTEX
  5
20A3
  8
10BY10
 10
106801.0
 20
492898.0
 30
0.25
  0
VERTEX
  5
20A4
  8
10BY10
 10
106811.0
 20
492898.0
 30
0.25
  0
VERTEX
  5
20A5
  8
10BY10
 10
106811.0
 20
492908.0
 30
0.25
  0
VERTEX
  5
20A6
  8
10BY10
 10
106801.0
 20
492908.0
 30
0.25
  0
SEQEND
  5
20A7
  8
10BY10
  0
POLYLINE
  5
231
  8
10BY10
 66
     1
 10
0.0
 20
0.0
 30
0.11
 70
     1
1001
DCO15
1071
        2
1071
        2
1000
new-all-density-link
1004
0000000000BC9340
  0
VERTEX
  5
20A8
  8
10BY10
 10
106645.0
 20
493061.0
 30
0.11
  0
VERTEX
  5
20A9
  8
10BY10
 10
106655.0
 20
493061.0
 30
0.11
  0
VERTEX
  5
20AA
  8
10BY10
 10
106655.0
 20
493071.0
 30
0.11
  0
VERTEX
  5
20AB
  8
10BY10
 10
106645.0
 20
493071.0
 30
0.11
  0
SEQEND
  5
20AC
  8
10BY10
  0
POLYLINE
  5
232
  8
10BY10
 66
     1
 10
0.0
 20
0.0
 30
0.04
 70
     1
1001
DCO15
1071
        2
1071
        2
1000
new-all-density-link
1004
0000000000C09340
  0
VERTEX
  5
20AD
  8
10BY10
 10
106763.0
 20
493031.0
 30
0.04
  0
VERTEX
  5
20AE
  8
10BY10
 10
106773.0
 20
493031.0
 30
0.04
  0
VERTEX
  5
20AF
  8
10BY10
 10
106773.0
 20
493041.0
 30
0.04
  0
VERTEX
  5
20B0
  8
10BY10
 10
106763.0
 20
493041.0
 30
0.04
  0
SEQEND
  5
20B1
  8
10BY10
  0
POLYLINE
  5
233
  8
10BY10
 66
     1
 10
0.0
 20
0.0
 30
0.06
 70
     1
1001
DCO15
1071
        2
1071
        2
1000
new-all-density-link
1004
0000000000C49340
  0
VERTEX
  5
20B2
  8
10BY10
 10
106790.0
 20
492956.0
 30
0.06
  0
VERTEX
  5
20B3
  8
10BY10
 10
106800.0
 20
492956.0
 30
0.06
  0
VERTEX
  5
20B4
  8
10BY10
 10
106800.0
 20
492966.0
 30
0.06
  0
VERTEX
  5
20B5
  8
10BY10
 10
106790.0
 20
492966.0
 30
0.06
  0
SEQEND
  5
20B6
  8
10BY10
  0
POLYLINE
  5
234
  8
10BY10
 66
     1
 10
0.0
 20
0.0
 30
0.034
 70
     1
1001
DCO15
1071
        2
1071
        2
1000
new-all-density-link
1004
0000000000D89540
  0
VERTEX
  5
20B7
  8
10BY10
 10
108544.0
 20
489194.0
 30
0.034
  0
VERTEX
  5
20B8
  8
10BY10
 10
108554.0
 20
489194.0
 30
0.034
  0
VERTEX
  5
20B9
  8
10BY10
 10
108554.0
 20
489204.0
 30
0.034
  0
VERTEX
  5
20BA
  8
10BY10
 10
108544.0
 20
489204.0
 30
0.034
  0
SEQEND
  5
20BB
  8
10BY10
  0
POLYLINE
  5
235
  8
10BY10
 66
     1
 10
0.0
 20
0.0
 30
0.01
 70
     1
1001
DCO15
1071
        2
1071
        2
1000
new-all-density-link
1004
0000000000E49540
  0
VERTEX
  5
20BC
  8
10BY10
 10
109467.0
 20
489376.0
 30
0.01
  0
VERTEX
  5
20BD
  8
10BY10
 10
109477.0
 20
489376.0
 30
0.01
  0
VERTEX
  5
20BE
  8
10BY10
 10
109477.0
 20
489386.0
 30
0.01
  0
VERTEX
  5
20BF
  8
10BY10
 10
109467.0
 20
489386.0
 30
0.01
  0
SEQEND
  5
20C0
  8
10BY10
  0
POLYLINE
  5
236
  8
10BY10
 66
     1
 10
0.0
 20
0.0
 30
0.187
 70
     1
1001
DCO15
1071
        2
1071
        2
1000
new-all-density-link
1004
0000000000409640
  0
VERTEX
  5
20C1
  8
10BY10
 10
108394.0
 20
492787.0
 30
0.187
  0
VERTEX
  5
20C2
  8
10BY10
 10
108404.0
 20
492787.0
 30
0.187
  0
VERTEX
  5
20C3
  8
10BY10
 10
108404.0
 20
492797.0
 30
0.187
  0
VERTEX
  5
20C4
  8
10BY10
 10
108394.0
 20
492797.0
 30
0.187
  0
SEQEND
  5
20C5
  8
10BY10
  0
POLYLINE
  5
237
  8
10BY10
 66
     1
 10
0.0
 20
0.0
 30
0.224
 70
     1
1001
DCO15
1071
        2
1071
        2
1000
new-all-density-link
1004
0000000000489640
  0
VERTEX
  5
20C6
  8
10BY10
 10
112127.0
 20
497031.0
 30
0.224
  0
VERTEX
  5
20C7
  8
10BY10
 10
112137.0
 20
497031.0
 30
0.224
  0
VERTEX
  5
20C8
  8
10BY10
 10
112137.0
 20
497041.0
 30
0.224
  0
VERTEX
  5
20C9
  8
10BY10
 10
112127.0
 20
497041.0
 30
0.224
  0
SEQEND
  5
20CA
  8
10BY10
  0
POLYLINE
  5
238
  8
10BY10
 66
     1
 10
0.0
 20
0.0
 30
0.03
 70
     1
1001
DCO15
1071
        2
1071
        2
1000
new-all-density-link
1004
0000000000809640
  0
VERTEX
  5
20CB
  8
10BY10
 10
108302.0
 20
492864.0
 30
0.03
  0
VERTEX
  5
20CC
  8
10BY10
 10
108312.0
 20
492864.0
 30
0.03
  0
VERTEX
  5
20CD
  8
10BY10
 10
108312.0
 20
492874.0
 30
0.03
  0
VERTEX
  5
20CE
  8
10BY10
 10
108302.0
 20
492874.0
 30
0.03
  0
SEQEND
  5
20CF
  8
10BY10
  0
POLYLINE
  5
239
  8
10BY10
 66
     1
 10
0.0
 20
0.0
 30
0.17
 70
     1
1001
DCO15
1071
        2
1071
        2
1000
new-all-density-link
1004
0000000000889640
  0
VERTEX
  5
20D0
  8
10BY10
 10
108463.0
 20
492771.0
 30
0.17
  0
VERTEX
  5
20D1
  8
10BY10
 10
108473.0
 20
492771.0
 30
0.17
  0
VERTEX
  5
20D2
  8
10BY10
 10
108473.0
 20
492781.0
 30
0.17
  0
VERTEX
  5
20D3
  8
10BY10
 10
108463.0
 20
492781.0
 30
0.17
  0
SEQEND
  5
20D4
  8
10BY10
  0
POLYLINE
  5
23A
  8
10BY10
 66
     1
 10
0.0
 20
0.0
 30
0.05
 70
     1
1001
DCO15
1071
        2
1071
        2
1000
new-all-density-link
1004
00000000008C9640
  0
VERTEX
  5
20D5
  8
10BY10
 10
108442.0
 20
492762.0
 30
0.05
  0
VERTEX
  5
20D6
  8
10BY10
 10
108452.0
 20
492762.0
 30
0.05
  0
VERTEX
  5
20D7
  8
10BY10
 10
108452.0
 20
492772.0
 30
0.05
  0
VERTEX
  5
20D8
  8
10BY10
 10
108442.0
 20
492772.0
 30
0.05
  0
SEQEND
  5
20D9
  8
10BY10
  0
POLYLINE
  5
23B
  8
10BY10
 66
     1
 10
0.0
 20
0.0
 30
0.02
 70
     1
1001
DCO15
1071
        2
1071
        2
1000
new-all-density-link
1004
0000000000949640
  0
VERTEX
  5
20DA
  8
10BY10
 10
108429.0
 20
492787.0
 30
0.02
  0
VERTEX
  5
20DB
  8
10BY10
 10
108439.0
 20
492787.0
 30
0.02
  0
VERTEX
  5
20DC
  8
10BY10
 10
108439.0
 20
492797.0
 30
0.02
  0
VERTEX
  5
20DD
  8
10BY10
 10
108429.0
 20
492797.0
 30
0.02
  0
SEQEND
  5
20DE
  8
10BY10
  0
POLYLINE
  5
23C
  8
10BY10
 66
     1
 10
0.0
 20
0.0
 30
0.02
 70
     1
1001
DCO15
1071
        2
1071
        2
1000
new-all-density-link
1004
0000000000989640
  0
VERTEX
  5
20DF
  8
10BY10
 10
108459.0
 20
492730.0
 30
0.02
  0
VERTEX
  5
20E0
  8
10BY10
 10
108469.0
 20
492730.0
 30
0.02
  0
VERTEX
  5
20E1
  8
10BY10
 10
108469.0
 20
492740.0
 30
0.02
  0
VERTEX
  5
20E2
  8
10BY10
 10
108459.0
 20
492740.0
 30
0.02
  0
SEQEND
  5
20E3
  8
10BY10
  0
POLYLINE
  5
23D
  8
10BY10
 66
     1
 10
0.0
 20
0.0
 30
0.01
 70
     1
1001
DCO15
1071
        2
1071
        2
1000
new-all-density-link
1004
0000000000B49640
  0
VERTEX
  5
20E4
  8
10BY10
 10
109731.0
 20
499459.0
 30
0.01
  0
VERTEX
  5
20E5
  8
10BY10
 10
109741.0
 20
499459.0
 30
0.01
  0
VERTEX
  5
20E6
  8
10BY10
 10
109741.0
 20
499469.0
 30
0.01
  0
VERTEX
  5
20E7
  8
10BY10
 10
109731.0
 20
499469.0
 30
0.01
  0
SEQEND
  5
20E8
  8
10BY10
  0
POLYLINE
  5
23E
  8
10BY10
 66
     1
 10
0.0
 20
0.0
 30
0.02
 70
     1
1001
DCO15
1071
        2
1071
        2
1000
new-all-density-link
1004
0000000000C09640
  0
VERTEX
  5
20E9
  8
10BY10
 10
109718.0
 20
499511.0
 30
0.02
  0
VERTEX
  5
20EA
  8
10BY10
 10
109728.0
 20
499511.0
 30
0.02
  0
VERTEX
  5
20EB
  8
10BY10
 10
109728.0
 20
499521.0
 30
0.02
  0
VERTEX
  5
20EC
  8
10BY10
 10
109718.0
 20
499521.0
 30
0.02
  0
SEQEND
  5
20ED
  8
10BY10
  0
POLYLINE
  5
23F
  8
10BY10
 66
     1
 10
0.0
 20
0.0
 30
0.02
 70
     1
1001
DCO15
1071
        2
1071
        2
1000
new-all-density-link
1004
0000000000C49640
  0
VERTEX
  5
20EE
  8
10BY10
 10
108857.0
 20
499053.0
 30
0.02
  0
VERTEX
  5
20EF
  8
10BY10
 10
108867.0
 20
499053.0
 30
0.02
  0
VERTEX
  5
20F0
  8
10BY10
 10
108867.0
 20
499063.0
 30
0.02
  0
VERTEX
  5
20F1
  8
10BY10
 10
108857.0
 20
499063.0
 30
0.02
  0
SEQEND
  5
20F2
  8
10BY10
  0
POLYLINE
  5
240
  8
10BY10
 66
     1
 10
0.0
 20
0.0
 30
0.032
 70
     1
1001
DCO15
1071
        2
1071
        2
1000
new-all-density-link
1004
0000000000E49640
  0
VERTEX
  5
20F3
  8
10BY10
 10
110605.0
 20
497566.0
 30
0.032
  0
VERTEX
  5
20F4
  8
10BY10
 10
110615.0
 20
497566.0
 30
0.032
  0
VERTEX
  5
20F5
  8
10BY10
 10
110615.0
 20
497576.0
 30
0.032
  0
VERTEX
  5
20F6
  8
10BY10
 10
110605.0
 20
497576.0
 30
0.032
  0
SEQEND
  5
20F7
  8
10BY10
  0
POLYLINE
  5
241
  8
10BY10
 66
     1
 10
0.0
 20
0.0
 30
0.08
 70
     1
1001
DCO15
1071
        2
1071
        2
1000
new-all-density-link
1004
0000000000F09640
  0
VERTEX
  5
20F8
  8
10BY10
 10
110570.0
 20
497452.0
 30
0.08
  0
VERTEX
  5
20F9
  8
10BY10
 10
110580.0
 20
497452.0
 30
0.08
  0
VERTEX
  5
20FA
  8
10BY10
 10
110580.0
 20
497462.0
 30
0.08
  0
VERTEX
  5
20FB
  8
10BY10
 10
110570.0
 20
497462.0
 30
0.08
  0
SEQEND
  5
20FC
  8
10BY10
  0
POLYLINE
  5
242
  8
10BY10
 66
     1
 10
0.0
 20
0.0
 30
0.16
 70
     1
1001
DCO15
1071
        2
1071
        2
1000
new-all-density-link
1004
0000000000FC9640
  0
VERTEX
  5
20FD
  8
10BY10
 10
110627.0
 20
497542.0
 30
0.16
  0
VERTEX
  5
20FE
  8
10BY10
 10
110637.0
 20
497542.0
 30
0.16
  0
VERTEX
  5
20FF
  8
10BY10
 10
110637.0
 20
497552.0
 30
0.16
  0
VERTEX
  5
2100
  8
10BY10
 10
110627.0
 20
497552.0
 30
0.16
  0
SEQEND
  5
2101
  8
10BY10
  0
POLYLINE
  5
243
  8
10BY10
 66
     1
 10
0.0
 20
0.0
 30
0.03
 70
     1
1001
DCO15
1071
        2
1071
        2
1000
new-all-density-link
1004
0000000000049740
  0
VERTEX
  5
2102
  8
10BY10
 10
109758.0
 20
499568.0
 30
0.03
  0
VERTEX
  5
2103
  8
10BY10
 10
109768.0
 20
499568.0
 30
0.03
  0
VERTEX
  5
2104
  8
10BY10
 10
109768.0
 20
499578.0
 30
0.03
  0
VERTEX
  5
2105
  8
10BY10
 10
109758.0
 20
499578.0
 30
0.03
  0
SEQEND
  5
2106
  8
10BY10
  0
POLYLINE
  5
244
  8
10BY10
 66
     1
 10
0.0
 20
0.0
 30
0.017
 70
     1
1001
DCO15
1071
        2
1071
        2
1000
new-all-density-link
1004
0000000000089740
  0
VERTEX
  5
2107
  8
10BY10
 10
109715.0
 20
499523.0
 30
0.017
  0
VERTEX
  5
2108
  8
10BY10
 10
109725.0
 20
499523.0
 30
0.017
  0
VERTEX
  5
2109
  8
10BY10
 10
109725.0
 20
499533.0
 30
0.017
  0
VERTEX
  5
210A
  8
10BY10
 10
109715.0
 20
499533.0
 30
0.017
  0
SEQEND
  5
210B
  8
10BY10
  0
POLYLINE
  5
245
  8
10BY10
 66
     1
 10
0.0
 20
0.0
 30
0.02
 70
     1
1001
DCO15
1071
        2
1071
        2
1000
new-all-density-link
1004
0000000000549740
  0
VERTEX
  5
210C
  8
10BY10
 10
109935.0
 20
497840.0
 30
0.02
  0
VERTEX
  5
210D
  8
10BY10
 10
109945.0
 20
497840.0
 30
0.02
  0
VERTEX
  5
210E
  8
10BY10
 10
109945.0
 20
497850.0
 30
0.02
  0
VERTEX
  5
210F
  8
10BY10
 10
109935.0
 20
497850.0
 30
0.02
  0
SEQEND
  5
2110
  8
10BY10
  0
POLYLINE
  5
246
  8
10BY10
 66
     1
 10
0.0
 20
0.0
 30
0.02
 70
     1
1001
DCO15
1071
        2
1071
        2
1000
new-all-density-link
1004
0000000000589740
  0
VERTEX
  5
2111
  8
10BY10
 10
109943.0
 20
497811.0
 30
0.02
  0
VERTEX
  5
2112
  8
10BY10
 10
109953.0
 20
497811.0
 30
0.02
  0
VERTEX
  5
2113
  8
10BY10
 10
109953.0
 20
497821.0
 30
0.02
  0
VERTEX
  5
2114
  8
10BY10
 10
109943.0
 20
497821.0
 30
0.02
  0
SEQEND
  5
2115
  8
10BY10
  0
POLYLINE
  5
247
  8
10BY10
 66
     1
 10
0.0
 20
0.0
 30
0.05
 70
     1
1001
DCO15
1071
        2
1071
        2
1000
new-all-density-link
1004
00000000005C9740
  0
VERTEX
  5
2116
  8
10BY10
 10
107242.0
 20
497538.0
 30
0.05
  0
VERTEX
  5
2117
  8
10BY10
 10
107252.0
 20
497538.0
 30
0.05
  0
VERTEX
  5
2118
  8
10BY10
 10
107252.0
 20
497548.0
 30
0.05
  0
VERTEX
  5
2119
  8
10BY10
 10
107242.0
 20
497548.0
 30
0.05
  0
SEQEND
  5
211A
  8
10BY10
  0
POLYLINE
  5
248
  8
10BY10
 66
     1
 10
0.0
 20
0.0
 30
0.01
 70
     1
1001
DCO15
1071
        2
1071
        2
1000
new-all-density-link
1004
0000000000A89740
  0
VERTEX
  5
211B
  8
10BY10
 10
108650.0
 20
499409.0
 30
0.01
  0
VERTEX
  5
211C
  8
10BY10
 10
108660.0
 20
499409.0
 30
0.01
  0
VERTEX
  5
211D
  8
10BY10
 10
108660.0
 20
499419.0
 30
0.01
  0
VERTEX
  5
211E
  8
10BY10
 10
108650.0
 20
499419.0
 30
0.01
  0
SEQEND
  5
211F
  8
10BY10
  0
POLYLINE
  5
249
  8
10BY10
 66
     1
 10
0.0
 20
0.0
 30
0.034
 70
     1
1001
DCO15
1071
        2
1071
        2
1000
new-all-density-link
1004
0000000000AC9740
  0
VERTEX
  5
2120
  8
10BY10
 10
103963.0
 20
496684.0
 30
0.034
  0
VERTEX
  5
2121
  8
10BY10
 10
103973.0
 20
496684.0
 30
0.034
  0
VERTEX
  5
2122
  8
10BY10
 10
103973.0
 20
496694.0
 30
0.034
  0
VERTEX
  5
2123
  8
10BY10
 10
103963.0
 20
496694.0
 30
0.034
  0
SEQEND
  5
2124
  8
10BY10
  0
POLYLINE
  5
24A
  8
10BY10
 66
     1
 10
0.0
 20
0.0
 30
0.03
 70
     1
1001
DCO15
1071
        2
1071
        2
1000
new-all-density-link
1004
0000000000D09740
  0
VERTEX
  5
2125
  8
10BY10
 10
107638.0
 20
499592.0
 30
0.03
  0
VERTEX
  5
2126
  8
10BY10
 10
107648.0
 20
499592.0
 30
0.03
  0
VERTEX
  5
2127
  8
10BY10
 10
107648.0
 20
499602.0
 30
0.03
  0
VERTEX
  5
2128
  8
10BY10
 10
107638.0
 20
499602.0
 30
0.03
  0
SEQEND
  5
2129
  8
10BY10
  0
POLYLINE
  5
24B
  8
10BY10
 66
     1
 10
0.0
 20
0.0
 30
0.01
 70
     1
1001
DCO15
1071
        2
1071
        2
1000
new-all-density-link
1004
0000000000E09740
  0
VERTEX
  5
212A
  8
10BY10
 10
108816.0
 20
499815.0
 30
0.01
  0
VERTEX
  5
212B
  8
10BY10
 10
108826.0
 20
499815.0
 30
0.01
  0
VERTEX
  5
212C
  8
10BY10
 10
108826.0
 20
499825.0
 30
0.01
  0
VERTEX
  5
212D
  8
10BY10
 10
108816.0
 20
499825.0
 30
0.01
  0
SEQEND
  5
212E
  8
10BY10
  0
POLYLINE
  5
24C
  8
10BY10
 66
     1
 10
0.0
 20
0.0
 30
0.08
 70
     1
1001
DCO15
1071
        2
1071
        2
1000
new-all-density-link
1004
0000000000E49740
  0
VERTEX
  5
212F
  8
10BY10
 10
108902.0
 20
499806.0
 30
0.08
  0
VERTEX
  5
2130
  8
10BY10
 10
108912.0
 20
499806.0
 30
0.08
  0
VERTEX
  5
2131
  8
10BY10
 10
108912.0
 20
499816.0
 30
0.08
  0
VERTEX
  5
2132
  8
10BY10
 10
108902.0
 20
499816.0
 30
0.08
  0
SEQEND
  5
2133
  8
10BY10
  0
POLYLINE
  5
24D
  8
10BY10
 66
     1
 10
0.0
 20
0.0
 30
0.03
 70
     1
1001
DCO15
1071
        2
1071
        2
1000
new-all-density-link
1004
0000000000E89740
  0
VERTEX
  5
2134
  8
10BY10
 10
108983.0
 20
499771.0
 30
0.03
  0
VERTEX
  5
2135
  8
10BY10
 10
108993.0
 20
499771.0
 30
0.03
  0
VERTEX
  5
2136
  8
10BY10
 10
108993.0
 20
499781.0
 30
0.03
  0
VERTEX
  5
2137
  8
10BY10
 10
108983.0
 20
499781.0
 30
0.03
  0
SEQEND
  5
2138
  8
10BY10
  0
POLYLINE
  5
24E
  8
10BY10
 66
     1
 10
0.0
 20
0.0
 30
0.01
 70
     1
1001
DCO15
1071
        2
1071
        2
1000
new-all-density-link
1004
0000000000049840
  0
VERTEX
  5
2139
  8
10BY10
 10
108282.0
 20
500187.0
 30
0.01
  0
VERTEX
  5
213A
  8
10BY10
 10
108292.0
 20
500187.0
 30
0.01
  0
VERTEX
  5
213B
  8
10BY10
 10
108292.0
 20
500197.0
 30
0.01
  0
VERTEX
  5
213C
  8
10BY10
 10
108282.0
 20
500197.0
 30
0.01
  0
SEQEND
  5
213D
  8
10BY10
  0
POLYLINE
  5
24F
  8
10BY10
 66
     1
 10
0.0
 20
0.0
 30
0.01
 70
     1
1001
DCO15
1071
        2
1071
        2
1000
new-all-density-link
1004
0000000000149840
  0
VERTEX
  5
213E
  8
10BY10
 10
109700.0
 20
500763.0
 30
0.01
  0
VERTEX
  5
213F
  8
10BY10
 10
109710.0
 20
500763.0
 30
0.01
  0
VERTEX
  5
2140
  8
10BY10
 10
109710.0
 20
500773.0
 30
0.01
  0
VERTEX
  5
2141
  8
10BY10
 10
109700.0
 20
500773.0
 30
0.01
  0
SEQEND
  5
2142
  8
10BY10
  0
POLYLINE
  5
250
  8
10BY10
 66
     1
 10
0.0
 20
0.0
 30
0.01
 70
     1
1001
DCO15
1071
        2
1071
        2
1000
new-all-density-link
1004
0000000000349840
  0
VERTEX
  5
2143
  8
10BY10
 10
109391.0
 20
500562.0
 30
0.01
  0
VERTEX
  5
2144
  8
10BY10
 10
109401.0
 20
500562.0
 30
0.01
  0
VERTEX
  5
2145
  8
10BY10
 10
109401.0
 20
500572.0
 30
0.01
  0
VERTEX
  5
2146
  8
10BY10
 10
109391.0
 20
500572.0
 30
0.01
  0
SEQEND
  5
2147
  8
10BY10
  0
POLYLINE
  5
251
  8
10BY10
 66
     1
 10
0.0
 20
0.0
 30
0.01
 70
     1
1001
DCO15
1071
        2
1071
        2
1000
new-all-density-link
1004
0000000000389840
  0
VERTEX
  5
2148
  8
10BY10
 10
108623.0
 20
499992.0
 30
0.01
  0
VERTEX
  5
2149
  8
10BY10
 10
108633.0
 20
499992.0
 30
0.01
  0
VERTEX
  5
214A
  8
10BY10
 10
108633.0
 20
500002.0
 30
0.01
  0
VERTEX
  5
214B
  8
10BY10
 10
108623.0
 20
500002.0
 30
0.01
  0
SEQEND
  5
214C
  8
10BY10
  0
POLYLINE
  5
252
  8
10BY10
 66
     1
 10
0.0
 20
0.0
 30
0.01
 70
     1
1001
DCO15
1071
        2
1071
        2
1000
new-all-density-link
1004
0000000000C89840
  0
VERTEX
  5
214D
  8
10BY10
 10
108913.0
 20
499799.0
 30
0.01
  0
VERTEX
  5
214E
  8
10BY10
 10
108923.0
 20
499799.0
 30
0.01
  0
VERTEX
  5
214F
  8
10BY10
 10
108923.0
 20
499809.0
 30
0.01
  0
VERTEX
  5
2150
  8
10BY10
 10
108913.0
 20
499809.0
 30
0.01
  0
SEQEND
  5
2151
  8
10BY10
  0
POLYLINE
  5
253
  8
10BY10
 66
     1
 10
0.0
 20
0.0
 30
0.01
 70
     1
1001
DCO15
1071
        2
1071
        2
1000
new-all-density-link
1004
0000000000D09840
  0
VERTEX
  5
2152
  8
10BY10
 10
108810.0
 20
499866.0
 30
0.01
  0
VERTEX
  5
2153
  8
10BY10
 10
108820.0
 20
499866.0
 30
0.01
  0
VERTEX
  5
2154
  8
10BY10
 10
108820.0
 20
499876.0
 30
0.01
  0
VERTEX
  5
2155
  8
10BY10
 10
108810.0
 20
499876.0
 30
0.01
  0
SEQEND
  5
2156
  8
10BY10
  0
POLYLINE
  5
254
  8
10BY10
 66
     1
 10
0.0
 20
0.0
 30
0.02
 70
     1
1001
DCO15
1071
        2
1071
        2
1000
new-all-density-link
1004
0000000000E49840
  0
VERTEX
  5
2157
  8
10BY10
 10
106449.0
 20
498203.0
 30
0.02
  0
VERTEX
  5
2158
  8
10BY10
 10
106459.0
 20
498203.0
 30
0.02
  0
VERTEX
  5
2159
  8
10BY10
 10
106459.0
 20
498213.0
 30
0.02
  0
VERTEX
  5
215A
  8
10BY10
 10
106449.0
 20
498213.0
 30
0.02
  0
SEQEND
  5
215B
  8
10BY10
  0
POLYLINE
  5
255
  8
10BY10
 66
     1
 10
0.0
 20
0.0
 30
0.06
 70
     1
1001
DCO15
1071
        2
1071
        2
1000
new-all-density-link
1004
0000000000F49840
  0
VERTEX
  5
215C
  8
10BY10
 10
109675.0
 20
500768.0
 30
0.06
  0
VERTEX
  5
215D
  8
10BY10
 10
109685.0
 20
500768.0
 30
0.06
  0
VERTEX
  5
215E
  8
10BY10
 10
109685.0
 20
500778.0
 30
0.06
  0
VERTEX
  5
215F
  8
10BY10
 10
109675.0
 20
500778.0
 30
0.06
  0
SEQEND
  5
2160
  8
10BY10
  0
POLYLINE
  5
256
  8
10BY10
 66
     1
 10
0.0
 20
0.0
 30
0.01
 70
     1
1001
DCO15
1071
        2
1071
        2
1000
new-all-density-link
1004
0000000000F89840
  0
VERTEX
  5
2161
  8
10BY10
 10
109641.0
 20
500739.0
 30
0.01
  0
VERTEX
  5
2162
  8
10BY10
 10
109651.0
 20
500739.0
 30
0.01
  0
VERTEX
  5
2163
  8
10BY10
 10
109651.0
 20
500749.0
 30
0.01
  0
VERTEX
  5
2164
  8
10BY10
 10
109641.0
 20
500749.0
 30
0.01
  0
SEQEND
  5
2165
  8
10BY10
  0
POLYLINE
  5
257
  8
10BY10
 66
     1
 10
0.0
 20
0.0
 30
0.06
 70
     1
1001
DCO15
1071
        2
1071
        2
1000
new-all-density-link
1004
0000000000FC9840
  0
VERTEX
  5
2166
  8
10BY10
 10
94390.0
 20
483292.0
 30
0.06
  0
VERTEX
  5
2167
  8
10BY10
 10
94400.0
 20
483292.0
 30
0.06
  0
VERTEX
  5
2168
  8
10BY10
 10
94400.0
 20
483302.0
 30
0.06
  0
VERTEX
  5
2169
  8
10BY10
 10
94390.0
 20
483302.0
 30
0.06
  0
SEQEND
  5
216A
  8
10BY10
  0
POLYLINE
  5
258
  8
10BY10
 66
     1
 10
0.0
 20
0.0
 30
0.051
 70
     1
1001
DCO15
1071
        2
1071
        2
1000
new-all-density-link
1004
0000000000009940
  0
VERTEX
  5
216B
  8
10BY10
 10
94426.0
 20
483286.0
 30
0.051
  0
VERTEX
  5
216C
  8
10BY10
 10
94436.0
 20
483286.0
 30
0.051
  0
VERTEX
  5
216D
  8
10BY10
 10
94436.0
 20
483296.0
 30
0.051
  0
VERTEX
  5
216E
  8
10BY10
 10
94426.0
 20
483296.0
 30
0.051
  0
SEQEND
  5
216F
  8
10BY10
  0
POLYLINE
  5
259
  8
R10BY10
 66
     1
 10
0.0
 20
0.0
 30
1.5
 70
     1
1001
DCO15
1071
        2
1071
        2
1000
new-all-density-link
1004
0000000000A88540
  0
VERTEX
  5
2170
  8
R10BY10
 10
103141.0
 20
478941.0
 30
1.5
  0
VERTEX
  5
2171
  8
R10BY10
 10
103151.0
 20
478941.0
 30
1.5
  0
VERTEX
  5
2172
  8
R10BY10
 10
103151.0
 20
478951.0
 30
1.5
  0
VERTEX
  5
2173
  8
R10BY10
 10
103141.0
 20
478951.0
 30
1.5
  0
SEQEND
  5
2174
  8
R10BY10
  0
POLYLINE
  5
25B
  8
R10BY10
 66
     1
 10
0.0
 20
0.0
 30
0.25
 70
     1
1001
DCO15
1071
        2
1071
        2
1000
new-all-density-link
1004
0000000000688740
  0
VERTEX
  5
2175
  8
R10BY10
 10
93305.0
 20
486037.0
 30
0.25
  0
VERTEX
  5
2176
  8
R10BY10
 10
93315.0
 20
486037.0
 30
0.25
  0
VERTEX
  5
2177
  8
R10BY10
 10
93315.0
 20
486047.0
 30
0.25
  0
VERTEX
  5
2178
  8
R10BY10
 10
93305.0
 20
486047.0
 30
0.25
  0
SEQEND
  5
2179
  8
R10BY10
  0
POLYLINE
  5
25C
  8
R10BY10
 66
     1
 10
0.0
 20
0.0
 30
0.5
 70
     1
1001
DCO15
1071
        2
1071
        2
1000
new-all-density-link
1004
0000000000C88B40
  0
VERTEX
  5
217A
  8
R10BY10
 10
81093.0
 20
495356.0
 30
0.5
  0
VERTEX
  5
217B
  8
R10BY10
 10
81103.0
 20
495356.0
 30
0.5
  0
VERTEX
  5
217C
  8
R10BY10
 10
81103.0
 20
495366.0
 30
0.5
  0
VERTEX
  5
217D
  8
R10BY10
 10
81093.0
 20
495366.0
 30
0.5
  0
SEQEND
  5
217E
  8
R10BY10
  0
POLYLINE
  5
25D
  8
R10BY10
 66
     1
 10
0.0
 20
0.0
 30
0.75
 70
     1
1001
DCO15
1071
        2
1071
        2
1000
new-all-density-link
1004
0000000000D88B40
  0
VERTEX
  5
217F
  8
R10BY10
 10
81086.0
 20
495340.0
 30
0.75
  0
VERTEX
  5
2180
  8
R10BY10
 10
81096.0
 20
495340.0
 30
0.75
  0
VERTEX
  5
2181
  8
R10BY10
 10
81096.0
 20
495350.0
 30
0.75
  0
VERTEX
  5
2182
  8
R10BY10
 10
81086.0
 20
495350.0
 30
0.75
  0
SEQEND
  5
2183
  8
R10BY10
  0
POLYLINE
  5
25E
  8
R10BY10
 66
     1
 10
0.0
 20
0.0
 30
0.25
 70
     1
1001
DCO15
1071
        2
1071
        2
1000
new-all-density-link
1004
0000000000E08B40
  0
VERTEX
  5
2184
  8
R10BY10
 10
81083.0
 20
495360.0
 30
0.25
  0
VERTEX
  5
2185
  8
R10BY10
 10
81093.0
 20
495360.0
 30
0.25
  0
VERTEX
  5
2186
  8
R10BY10
 10
81093.0
 20
495370.0
 30
0.25
  0
VERTEX
  5
2187
  8
R10BY10
 10
81083.0
 20
495370.0
 30
0.25
  0
SEQEND
  5
2188
  8
R10BY10
  0
POLYLINE
  5
25F
  8
R10BY10
 66
     1
 10
0.0
 20
0.0
 30
0.25
 70
     1
1001
DCO15
1071
        2
1071
        2
1000
new-all-density-link
1004
0000000000D08E40
  0
VERTEX
  5
2189
  8
R10BY10
 10
89449.0
 20
485039.0
 30
0.25
  0
VERTEX
  5
218A
  8
R10BY10
 10
89459.0
 20
485039.0
 30
0.25
  0
VERTEX
  5
218B
  8
R10BY10
 10
89459.0
 20
485049.0
 30
0.25
  0
VERTEX
  5
218C
  8
R10BY10
 10
89449.0
 20
485049.0
 30
0.25
  0
SEQEND
  5
218D
  8
R10BY10
  0
POLYLINE
  5
260
  8
R10BY10
 66
     1
 10
0.0
 20
0.0
 30
0.25
 70
     1
1001
DCO15
1071
        2
1071
        2
1000
new-all-density-link
1004
0000000000F08E40
  0
VERTEX
  5
218E
  8
R10BY10
 10
89399.0
 20
485062.0
 30
0.25
  0
VERTEX
  5
218F
  8
R10BY10
 10
89409.0
 20
485062.0
 30
0.25
  0
VERTEX
  5
2190
  8
R10BY10
 10
89409.0
 20
485072.0
 30
0.25
  0
VERTEX
  5
2191
  8
R10BY10
 10
89399.0
 20
485072.0
 30
0.25
  0
SEQEND
  5
2192
  8
R10BY10
  0
POLYLINE
  5
261
  8
R10BY10
 66
     1
 10
0.0
 20
0.0
 30
0.75
 70
     1
1001
DCO15
1071
        2
1071
        2
1000
new-all-density-link
1004
0000000000208F40
  0
VERTEX
  5
2193
  8
R10BY10
 10
89474.0
 20
485062.0
 30
0.75
  0
VERTEX
  5
2194
  8
R10BY10
 10
89484.0
 20
485062.0
 30
0.75
  0
VERTEX
  5
2195
  8
R10BY10
 10
89484.0
 20
485072.0
 30
0.75
  0
VERTEX
  5
2196
  8
R10BY10
 10
89474.0
 20
485072.0
 30
0.75
  0
SEQEND
  5
2197
  8
R10BY10
  0
POLYLINE
  5
262
  8
R10BY10
 66
     1
 10
0.0
 20
0.0
 30
0.25
 70
     1
1001
DCO15
1071
        2
1071
        2
1000
new-all-density-link
1004
0000000000288F40
  0
VERTEX
  5
2198
  8
R10BY10
 10
89497.0
 20
485060.0
 30
0.25
  0
VERTEX
  5
2199
  8
R10BY10
 10
89507.0
 20
485060.0
 30
0.25
  0
VERTEX
  5
219A
  8
R10BY10
 10
89507.0
 20
485070.0
 30
0.25
  0
VERTEX
  5
219B
  8
R10BY10
 10
89497.0
 20
485070.0
 30
0.25
  0
SEQEND
  5
219C
  8
R10BY10
  0
POLYLINE
  5
263
  8
R10BY10
 66
     1
 10
0.0
 20
0.0
 30
0.25
 70
     1
1001
DCO15
1071
        2
1071
        2
1000
new-all-density-link
1004
0000000000588F40
  0
VERTEX
  5
219D
  8
R10BY10
 10
89398.0
 20
485038.0
 30
0.25
  0
VERTEX
  5
219E
  8
R10BY10
 10
89408.0
 20
485038.0
 30
0.25
  0
VERTEX
  5
219F
  8
R10BY10
 10
89408.0
 20
485048.0
 30
0.25
  0
VERTEX
  5
21A0
  8
R10BY10
 10
89398.0
 20
485048.0
 30
0.25
  0
SEQEND
  5
21A1
  8
R10BY10
  0
POLYLINE
  5
264
  8
R10BY10
 66
     1
 10
0.0
 20
0.0
 30
1.75
 70
     1
1001
DCO15
1071
        2
1071
        2
1000
new-all-density-link
1004
0000000000B88F40
  0
VERTEX
  5
21A2
  8
R10BY10
 10
89462.0
 20
485029.0
 30
1.75
  0
VERTEX
  5
21A3
  8
R10BY10
 10
89472.0
 20
485029.0
 30
1.75
  0
VERTEX
  5
21A4
  8
R10BY10
 10
89472.0
 20
485039.0
 30
1.75
  0
VERTEX
  5
21A5
  8
R10BY10
 10
89462.0
 20
485039.0
 30
1.75
  0
SEQEND
  5
21A6
  8
R10BY10
  0
POLYLINE
  5
265
  8
R10BY10
 66
     1
 10
0.0
 20
0.0
 30
0.25
 70
     1
1001
DCO15
1071
        2
1071
        2
1000
new-all-density-link
1004
0000000000BC9540
  0
VERTEX
  5
21A7
  8
R10BY10
 10
106477.0
 20
487616.0
 30
0.25
  0
VERTEX
  5
21A8
  8
R10BY10
 10
106487.0
 20
487616.0
 30
0.25
  0
VERTEX
  5
21A9
  8
R10BY10
 10
106487.0
 20
487626.0
 30
0.25
  0
VERTEX
  5
21AA
  8
R10BY10
 10
106477.0
 20
487626.0
 30
0.25
  0
SEQEND
  5
21AB
  8
R10BY10
  0
POLYLINE
  5
266
  8
R10BY10
 66
     1
 10
0.0
 20
0.0
 30
0.25
 70
     1
1001
DCO15
1071
        2
1071
        2
1000
new-all-density-link
1004
0000000000C89540
  0
VERTEX
  5
21AC
  8
R10BY10
 10
106475.0
 20
487558.0
 30
0.25
  0
VERTEX
  5
21AD
  8
R10BY10
 10
106485.0
 20
487558.0
 30
0.25
  0
VERTEX
  5
21AE
  8
R10BY10
 10
106485.0
 20
487568.0
 30
0.25
  0
VERTEX
  5
21AF
  8
R10BY10
 10
106475.0
 20
487568.0
 30
0.25
  0
SEQEND
  5
21B0
  8
R10BY10
  0
POLYLINE
  5
267
  8
R10BY10
 66
     1
 10
0.0
 20
0.0
 30
4.5
 70
     1
1001
DCO15
1071
        2
1071
        2
1000
new-all-density-link
1004
0000000000449640
  0
VERTEX
  5
21B1
  8
R10BY10
 10
108207.0
 20
493940.0
 30
4.5
  0
VERTEX
  5
21B2
  8
R10BY10
 10
108217.0
 20
493940.0
 30
4.5
  0
VERTEX
  5
21B3
  8
R10BY10
 10
108217.0
 20
493950.0
 30
4.5
  0
VERTEX
  5
21B4
  8
R10BY10
 10
108207.0
 20
493950.0
 30
4.5
  0
SEQEND
  5
21B5
  8
R10BY10
  0
POLYLINE
  5
268
  8
R10BY10
 66
     1
 10
0.0
 20
0.0
 30
0.25
 70
     1
1001
DCO15
1071
        2
1071
        2
1000
new-all-density-link
1004
0000000000449740
  0
VERTEX
  5
21B6
  8
R10BY10
 10
106506.0
 20
498132.0
 30
0.25
  0
VERTEX
  5
21B7
  8
R10BY10
 10
106516.0
 20
498132.0
 30
0.25
  0
VERTEX
  5
21B8
  8
R10BY10
 10
106516.0
 20
498142.0
 30
0.25
  0
VERTEX
  5
21B9
  8
R10BY10
 10
106506.0
 20
498142.0
 30
0.25
  0
SEQEND
  5
21BA
  8
R10BY10
  0
POLYLINE
  5
269
  8
R10BY10
 66
     1
 10
0.0
 20
0.0
 30
0.25
 70
     1
1001
DCO15
1071
        2
1071
        2
1000
new-all-density-link
1004
0000000000909740
  0
VERTEX
  5
21BB
  8
R10BY10
 10
104441.0
 20
497270.0
 30
0.25
  0
VERTEX
  5
21BC
  8
R10BY10
 10
104451.0
 20
497270.0
 30
0.25
  0
VERTEX
  5
21BD
  8
R10BY10
 10
104451.0
 20
497280.0
 30
0.25
  0
VERTEX
  5
21BE
  8
R10BY10
 10
104441.0
 20
497280.0
 30
0.25
  0
SEQEND
  5
21BF
  8
R10BY10
  0
POLYLINE
  5
26A
  8
R10BY10
 66
     1
 10
0.0
 20
0.0
 30
0.75
 70
     1
1001
DCO15
1071
        2
1071
        2
1000
new-all-density-link
1004
0000000000109840
  0
VERTEX
  5
21C0
  8
R10BY10
 10
109497.0
 20
500539.0
 30
0.75
  0
VERTEX
  5
21C1
  8
R10BY10
 10
109507.0
 20
500539.0
 30
0.75
  0
VERTEX
  5
21C2
  8
R10BY10
 10
109507.0
 20
500549.0
 30
0.75
  0
VERTEX
  5
21C3
  8
R10BY10
 10
109497.0
 20
500549.0
 30
0.75
  0
SEQEND
  5
21C4
  8
R10BY10
  0
ENDSEC
  0
EOF
