  0
SECTION
  2
HEADER
  9
$ACADVER
  1
AC1009
  9
$INSBASE
 10
0.0
 20
0.0
 30
0.0
  9
$EXTMIN
 10
802158.780543873552233
 20
560575.466318397084251
 30
-0.0631496326891465
  9
$EXTMAX
 10
812637.1398494766326621
 20
575278.2497935129795223
 30
1004.3731319513129847
  9
$LIMMIN
 10
0.0
 20
0.0
  9
$LIMMAX
 10
12.0
 20
9.0
  9
$ORTHOMODE
 70
     0
  9
$REGENMODE
 70
     1
  9
$FILLMODE
 70
     1
  9
$QTEXTMODE
 70
     0
  9
$MIRRTEXT
 70
     1
  9
$DRAGMODE
 70
     2
  9
$LTSCALE
 40
1.0
  9
$OSMODE
 70
    37
  9
$ATTMODE
 70
     1
  9
$TEXTSIZE
 40
3.0
  9
$TRACEWID
 40
0.05
  9
$TEXTSTYLE
  7
STANDARD
  9
$CLAYER
  8
0
  9
$CELTYPE
  6
BYLAYER
  9
$CECOLOR
 62
   256
  9
$DIMSCALE
 40
1.0
  9
$DIMASZ
 40
0.18
  9
$DIMEXO
 40
0.0625
  9
$DIMDLI
 40
0.38
  9
$DIMRND
 40
0.0
  9
$DIMDLE
 40
0.0
  9
$DIMEXE
 40
0.18
  9
$DIMTP
 40
0.0
  9
$DIMTM
 40
0.0
  9
$DIMTXT
 40
0.18
  9
$DIMCEN
 40
0.09
  9
$DIMTSZ
 40
0.0
  9
$DIMTOL
 70
     0
  9
$DIMLIM
 70
     0
  9
$DIMTIH
 70
     1
  9
$DIMTOH
 70
     1
  9
$DIMSE1
 70
     0
  9
$DIMSE2
 70
     0
  9
$DIMTAD
 70
     0
  9
$DIMZIN
 70
     0
  9
$DIMBLK
  1

  9
$DIMASO
 70
     1
  9
$DIMSHO
 70
     1
  9
$DIMPOST
  1

  9
$DIMAPOST
  1

  9
$DIMALT
 70
     0
  9
$DIMALTD
 70
     2
  9
$DIMALTF
 40
25.3999999999999986
  9
$DIMLFAC
 40
1.0
  9
$DIMTOFL
 70
     0
  9
$DIMTVP
 40
0.0
  9
$DIMTIX
 70
     0
  9
$DIMSOXD
 70
     0
  9
$DIMSAH
 70
     0
  9
$DIMBLK1
  1

  9
$DIMBLK2
  1

  9
$DIMSTYLE
  2
STANDARD
  9
$DIMCLRD
 70
     0
  9
$DIMCLRE
 70
     0
  9
$DIMCLRT
 70
     0
  9
$DIMTFAC
 40
1.0
  9
$DIMGAP
 40
0.09
  9
$LUNITS
 70
     2
  9
$LUPREC
 70
     4
  9
$SKETCHINC
 40
0.1
  9
$FILLETRAD
 40
0.5
  9
$AUNITS
 70
     0
  9
$AUPREC
 70
     0
  9
$MENU
  1
.
  9
$ELEVATION
 40
0.0
  9
$PELEVATION
 40
0.0
  9
$THICKNESS
 40
0.0
  9
$LIMCHECK
 70
     0
  9
$BLIPMODE
 70
     0
  9
$CHAMFERA
 40
0.5
  9
$CHAMFERB
 40
0.5
  9
$SKPOLY
 70
     0
  9
$TDCREATE
 40
2457466.5392708331346512
  9
$TDUPDATE
 40
2458140.7954629631713033
  9
$TDINDWG
 40
12.4415129629999992
  9
$TDUSRTIMER
 40
12.4415098147999998
  9
$USRTIMER
 70
     1
  9
$ANGBASE
 50
0.0
  9
$ANGDIR
 70
     0
  9
$PDMODE
 70
     2
  9
$PDSIZE
 40
-0.1
  9
$PLINEWID
 40
0.0
  9
$COORDS
 70
     1
  9
$SPLFRAME
 70
     0
  9
$SPLINETYPE
 70
     6
  9
$SPLINESEGS
 70
     8
  9
$ATTDIA
 70
     1
  9
$ATTREQ
 70
     1
  9
$HANDLING
 70
     1
  9
$HANDSEED
  5
C0B7
  9
$SURFTAB1
 70
     6
  9
$SURFTAB2
 70
     6
  9
$SURFTYPE
 70
     6
  9
$SURFU
 70
     6
  9
$SURFV
 70
     6
  9
$UCSNAME
  2

  9
$UCSORG
 10
0.0
 20
0.0
 30
0.0
  9
$UCSXDIR
 10
1.0
 20
0.0
 30
0.0
  9
$UCSYDIR
 10
0.0
 20
1.0
 30
0.0
  9
$PUCSNAME
  2

  9
$PUCSORG
 10
0.0
 20
0.0
 30
0.0
  9
$PUCSXDIR
 10
1.0
 20
0.0
 30
0.0
  9
$PUCSYDIR
 10
0.0
 20
1.0
 30
0.0
  9
$USERI1
 70
     0
  9
$USERI2
 70
     0
  9
$USERI3
 70
     0
  9
$USERI4
 70
     0
  9
$USERI5
 70
     0
  9
$USERR1
 40
0.0
  9
$USERR2
 40
0.0
  9
$USERR3
 40
0.0
  9
$USERR4
 40
0.0
  9
$USERR5
 40
0.0
  9
$WORLDVIEW
 70
     1
  9
$SHADEDGE
 70
     3
  9
$SHADEDIF
 70
    70
  9
$TILEMODE
 70
     1
  9
$MAXACTVP
 70
    64
  9
$PLIMCHECK
 70
     0
  9
$PEXTMIN
 10
1.0000000000000000E+20
 20
1.0000000000000000E+20
 30
1.0000000000000000E+20
  9
$PEXTMAX
 10
-1.0000000000000000E+20
 20
-1.0000000000000000E+20
 30
-1.0000000000000000E+20
  9
$PLIMMIN
 10
0.0
 20
0.0
  9
$PLIMMAX
 10
12.0
 20
9.0
  9
$UNITMODE
 70
     0
  9
$VISRETAIN
 70
     1
  9
$PLINEGEN
 70
     0
  9
$PSLTSCALE
 70
     1
  0
ENDSEC
  0
SECTION
  2
TABLES
  0
TABLE
  2
VPORT
 70
     1
  0
VPORT
  2
*ACTIVE
 70
     0
 10
0.0
 20
0.0
 11
1.0
 21
1.0
 12
807397.9601966751506552
 22
567926.858055955148302
 13
0.0
 23
0.0
 14
0.5
 24
0.5
 15
0.5
 25
0.5
 16
0.0
 26
0.0
 36
1.0
 17
0.0
 27
0.0
 37
0.0
 40
14897.5223290908597846
 41
2.9203539823008842
 42
50.0
 43
0.0
 44
0.0
 50
0.0
 51
0.0
 71
     0
 72
   100
 73
     1
 74
     3
 75
     0
 76
     0
 77
     0
 78
     0
  0
ENDTAB
  0
TABLE
  2
LTYPE
 70
     1
  0
LTYPE
  2
CONTINUOUS
 70
     0
  3
Solid line
 72
    65
 73
     0
 40
0.0
  0
ENDTAB
  0
TABLE
  2
LAYER
 70
     3
  0
LAYER
  2
0
 70
     0
 62
     7
  6
CONTINUOUS
  0
LAYER
  2
LOTSDEF-LATE
 70
     0
 62
     7
  6
CONTINUOUS
  0
LAYER
  2
TEXT_LOTS
 70
     0
 62
     6
  6
CONTINUOUS
  0
ENDTAB
  0
TABLE
  2
STYLE
 70
     1
  0
STYLE
  2
STANDARD
 70
     0
 40
0.0
 41
1.0
 50
0.0
 71
     0
 42
3.0
  3
txt
  4

  0
ENDTAB
  0
TABLE
  2
VIEW
 70
     0
  0
ENDTAB
  0
TABLE
  2
UCS
 70
     0
  0
ENDTAB
  0
TABLE
  2
APPID
 70
    17
  0
APPID
  2
ACAD
 70
     0
  0
APPID
  2
ACADANNOTATIVE
 70
     0
  0
APPID
  2
ACAD_NAV_VCDISPLAY
 70
     0
  0
APPID
  2
ADE
 70
     0
  0
APPID
  2
ACAECLAYERSTANDARD
 70
     0
  0
APPID
  2
ACCMTRANSPARENCY
 70
     0
  0
APPID
  2
ACAD_PSEXT
 70
     0
  0
APPID
  2
ADE_PROJECTION
 70
     0
  0
APPID
  2
ACMAPDMDISPLAYSTYLEREGAPP
 70
     0
  0
APPID
  2
DCO15
 70
     0
  0
APPID
  2
MAPGWS
 70
     0
  0
APPID
  2
ACAD_EXEMPT_FROM_CAD_STANDARDS
 70
     0
  0
APPID
  2
ACAD_MLEADERVER
 70
     0
  0
APPID
  2
MAPMANAGEMENTAPPNAME
 70
     0
  0
APPID
  2
GRADIENTCOLOR1ACI
 70
     0
  0
APPID
  2
GRADIENTCOLOR2ACI
 70
     0
  0
APPID
  2
ACADANNOPO
 70
     0
  0
ENDTAB
  0
TABLE
  2
DIMSTYLE
 70
     1
  0
DIMSTYLE
  2
STANDARD
 70
     0
  3

  4

  5

  6

  7

 40
1.0
 41
0.18
 42
0.0625
 43
0.38
 44
0.18
 45
0.0
 46
0.0
 47
0.0
 48
0.0
140
0.18
141
0.09
142
0.0
143
25.3999999999999986
144
1.0
145
0.0
146
1.0
147
0.09
 71
     0
 72
     0
 73
     1
 74
     1
 75
     0
 76
     0
 77
     0
 78
     0
170
     0
171
     2
172
     0
173
     0
174
     0
175
     0
176
     0
177
     0
178
     0
  0
ENDTAB
  0
ENDSEC
  0
SECTION
  2
BLOCKS
  0
BLOCK
  8
0
  2
$MODEL_SPACE
 70
     0
 10
0.0
 20
0.0
 30
0.0
  3
$MODEL_SPACE
  1

  0
ENDBLK
  5
B642
  8
0
  0
BLOCK
 67
     1
  8
0
  2
$PAPER_SPACE
 70
     0
 10
0.0
 20
0.0
 30
0.0
  3
$PAPER_SPACE
  1

  0
ENDBLK
  5
B63E
 67
     1
  8
0
  0
ENDSEC
  0
SECTION
  2
ENTITIES
  0
POLYLINE
  5
66
  8
LOTSDEF-LATE
 66
     1
 10
0.0
 20
0.0
 30
4.0
 70
     1
  0
VERTEX
  5
BE41
  8
LOTSDEF-LATE
 10
807042.8644966223509982
 20
568077.5070477549452335
 30
4.0
  0
VERTEX
  5
BE42
  8
LOTSDEF-LATE
 10
807057.9663510211976245
 20
568015.2432239239569753
 30
4.0
  0
VERTEX
  5
BE43
  8
LOTSDEF-LATE
 10
806874.032618009368889
 20
567967.9916279371827841
 30
4.0
  0
VERTEX
  5
BE44
  8
LOTSDEF-LATE
 10
806874.032618009368889
 20
567967.9916279371827841
 30
4.0
  0
VERTEX
  5
BE45
  8
LOTSDEF-LATE
 10
806870.7401704250369221
 20
568020.9371774663450196
 30
4.0
  0
SEQEND
  5
BE46
  8
LOTSDEF-LATE
  0
POLYLINE
  5
67
  8
LOTSDEF-LATE
 66
     1
 10
0.0
 20
0.0
 30
5.5999999999999979
 70
     1
  0
VERTEX
  5
BE47
  8
LOTSDEF-LATE
 10
806867.0131800218950957
 20
568085.6593429059721529
 30
5.5999999999999979
  0
VERTEX
  5
BE48
  8
LOTSDEF-LATE
 10
807025.7991540652001277
 20
568114.6809400011552498
 30
5.5999999999999979
  0
VERTEX
  5
BE49
  8
LOTSDEF-LATE
 10
807042.8979146858910099
 20
568077.9209135699784383
 30
5.5999999999999979
  0
VERTEX
  5
BE4A
  8
LOTSDEF-LATE
 10
806870.7189840020146221
 20
568021.0556111756013706
 30
5.5999999999999979
  0
SEQEND
  5
BE4B
  8
LOTSDEF-LATE
  0
POLYLINE
  5
6A
  8
LOTSDEF-LATE
 66
     1
 10
0.0
 20
0.0
 30
1.04
 70
     1
  0
VERTEX
  5
BE4C
  8
LOTSDEF-LATE
 10
804808.1301392392488196
 20
569502.2448007736820728
 30
1.04
  0
VERTEX
  5
BE4D
  8
LOTSDEF-LATE
 10
804884.045639508869499
 20
569529.9003133564256132
 30
1.04
  0
VERTEX
  5
BE4E
  8
LOTSDEF-LATE
 10
804944.8936758622294292
 20
569440.8137727837311104
 30
1.04
  0
VERTEX
  5
BE4F
  8
LOTSDEF-LATE
 10
804960.4818606919143349
 20
569417.9913853493053466
 30
1.04
  0
VERTEX
  5
BE50
  8
LOTSDEF-LATE
 10
804889.902051693177782
 20
569391.5410221397178248
 30
1.04
  0
SEQEND
  5
BE51
  8
LOTSDEF-LATE
  0
POLYLINE
  5
6B
  8
LOTSDEF-LATE
 66
     1
 10
0.0
 20
0.0
 30
12.5
 70
     1
  0
VERTEX
  5
BE52
  8
LOTSDEF-LATE
 10
804807.83479578664992
 20
569502.1717570670880377
 30
12.5
  0
VERTEX
  5
BE53
  8
LOTSDEF-LATE
 10
804766.4825566640356556
 20
569480.931389291305095
 30
12.5
  0
VERTEX
  5
BE54
  8
LOTSDEF-LATE
 10
804757.6208306499756873
 20
569463.8230168897425756
 30
12.5
  0
VERTEX
  5
BE55
  8
LOTSDEF-LATE
 10
804817.2885446730069816
 20
569369.4270769640570506
 30
12.5
  0
VERTEX
  5
BE56
  8
LOTSDEF-LATE
 10
804889.3626751168631017
 20
569391.2561467295745388
 30
12.5
  0
VERTEX
  5
BE57
  8
LOTSDEF-LATE
 10
804807.83479578664992
 20
569502.1717570670880377
 30
12.5
  0
SEQEND
  5
BE58
  8
LOTSDEF-LATE
  0
POLYLINE
  5
115
  8
LOTSDEF-LATE
 66
     1
 10
0.0
 20
0.0
 30
7.6399999999999988
 70
     1
  0
VERTEX
  5
BE59
  8
LOTSDEF-LATE
 10
808305.9266715769190341
 20
569343.39952312852256
 30
7.6399999999999988
  0
VERTEX
  5
BE5A
  8
LOTSDEF-LATE
 10
808312.2490290438290685
 20
569354.672127338941209
 30
7.6399999999999988
  0
VERTEX
  5
BE5B
  8
LOTSDEF-LATE
 10
808334.824089894653298
 20
569364.5927947453455999
 30
7.6399999999999988
  0
VERTEX
  5
BE5C
  8
LOTSDEF-LATE
 10
808367.379503411357291
 20
569370.4044919580919668
 30
7.6399999999999988
  0
VERTEX
  5
BE5D
  8
LOTSDEF-LATE
 10
808398.9375605821842328
 20
569353.3201905352761969
 30
7.6399999999999988
  0
VERTEX
  5
BE5E
  8
LOTSDEF-LATE
 10
808403.0035289884544909
 20
569325.8146484112367034
 30
7.6399999999999988
  0
VERTEX
  5
BE5F
  8
LOTSDEF-LATE
 10
808387.968382078805007
 20
569304.0271340804174542
 30
7.6399999999999988
  0
VERTEX
  5
BE60
  8
LOTSDEF-LATE
 10
808364.6225744705880061
 20
569296.5069856094196439
 30
7.6399999999999988
  0
VERTEX
  5
BE61
  8
LOTSDEF-LATE
 10
808340.2416576886316761
 20
569303.7210090460721403
 30
7.6399999999999988
  0
VERTEX
  5
BE62
  8
LOTSDEF-LATE
 10
808313.1538187165278941
 20
569317.6988720452645794
 30
7.6399999999999988
  0
SEQEND
  5
BE63
  8
LOTSDEF-LATE
  0
POLYLINE
  5
124
  8
LOTSDEF-LATE
 66
     1
 10
0.0
 20
0.0
 30
15.6500000000000004
 70
     1
  0
VERTEX
  5
BE64
  8
LOTSDEF-LATE
 10
802448.4085983885452151
 20
573521.2363183086272329
 30
15.6500000000000004
  0
VERTEX
  5
BE65
  8
LOTSDEF-LATE
 10
802343.4330507048871368
 20
573490.3704623512458056
 30
15.6500000000000004
  0
VERTEX
  5
BE66
  8
LOTSDEF-LATE
 10
802359.9442759094526991
 20
573479.4623349367175251
 30
15.6500000000000004
  0
VERTEX
  5
BE67
  8
LOTSDEF-LATE
 10
802366.8698231395101175
 20
573462.2509161130292341
 30
15.6500000000000004
  0
VERTEX
  5
BE68
  8
LOTSDEF-LATE
 10
802378.4825463802553713
 20
573446.4505239489953965
 30
15.6500000000000004
  0
VERTEX
  5
BE69
  8
LOTSDEF-LATE
 10
802388.0640127134975046
 20
573430.0365443448536098
 30
15.6500000000000004
  0
VERTEX
  5
BE6A
  8
LOTSDEF-LATE
 10
802402.1465858181472868
 20
573419.2500579246552661
 30
15.6500000000000004
  0
VERTEX
  5
BE6B
  8
LOTSDEF-LATE
 10
802413.1291101443348452
 20
573437.0650945313973352
 30
15.6500000000000004
  0
VERTEX
  5
BE6C
  8
LOTSDEF-LATE
 10
802426.9148581959307194
 20
573447.8892388192471117
 30
15.6500000000000004
  0
VERTEX
  5
BE6D
  8
LOTSDEF-LATE
 10
802445.2493385629495606
 20
573460.3569954908452928
 30
15.6500000000000004
  0
VERTEX
  5
BE6E
  8
LOTSDEF-LATE
 10
802455.3591085942462087
 20
573480.6219456183025613
 30
15.6500000000000004
  0
VERTEX
  5
BE6F
  8
LOTSDEF-LATE
 10
802452.8615701891249046
 20
573501.3343486397061497
 30
15.6500000000000004
  0
SEQEND
  5
BE70
  8
LOTSDEF-LATE
  0
POLYLINE
  5
125
  8
LOTSDEF-LATE
 66
     1
 10
0.0
 20
0.0
 30
19.3999999999999986
 70
     1
  0
VERTEX
  5
BE71
  8
LOTSDEF-LATE
 10
802401.9793448528507724
 20
573585.0234861306380481
 30
19.3999999999999986
  0
VERTEX
  5
BE72
  8
LOTSDEF-LATE
 10
802418.9216274943901226
 20
573573.2800710625015199
 30
19.3999999999999986
  0
VERTEX
  5
BE73
  8
LOTSDEF-LATE
 10
802425.8936918693361804
 20
573554.7041440441971645
 30
19.3999999999999986
  0
VERTEX
  5
BE74
  8
LOTSDEF-LATE
 10
802440.376092653721571
 20
573539.7111594364978373
 30
19.3999999999999986
  0
VERTEX
  5
BE75
  8
LOTSDEF-LATE
 10
802448.5631457818672061
 20
573522.601636819774285
 30
19.3999999999999986
  0
VERTEX
  5
BE76
  8
LOTSDEF-LATE
 10
802342.7417176828021184
 20
573491.0761655868263915
 30
19.3999999999999986
  0
VERTEX
  5
BE77
  8
LOTSDEF-LATE
 10
802322.401453800033778
 20
573495.2815547145437449
 30
19.3999999999999986
  0
VERTEX
  5
BE78
  8
LOTSDEF-LATE
 10
802301.0123343896120787
 20
573502.0575825036503375
 30
19.3999999999999986
  0
SEQEND
  5
BE79
  8
LOTSDEF-LATE
  0
POLYLINE
  5
126
  8
LOTSDEF-LATE
 66
     1
 10
0.0
 20
0.0
 30
20.5500000000000007
 70
     1
  0
VERTEX
  5
BE7A
  8
LOTSDEF-LATE
 10
802366.4687835328513756
 20
573651.0117328717606142
 30
20.5500000000000007
  0
VERTEX
  5
BE7B
  8
LOTSDEF-LATE
 10
802374.3701915418496355
 20
573639.2671442303108051
 30
20.5500000000000007
  0
VERTEX
  5
BE7C
  8
LOTSDEF-LATE
 10
802386.3085364466533065
 20
573622.9096514279954135
 30
20.5500000000000007
  0
VERTEX
  5
BE7D
  8
LOTSDEF-LATE
 10
802395.1933497170684859
 20
573603.6182420828845352
 30
20.5500000000000007
  0
VERTEX
  5
BE7E
  8
LOTSDEF-LATE
 10
802401.822567485854961
 20
573585.2771248163189739
 30
20.5500000000000007
  0
VERTEX
  5
BE7F
  8
LOTSDEF-LATE
 10
802300.579008202184923
 20
573502.6839407399529591
 30
20.5500000000000007
  0
VERTEX
  5
BE80
  8
LOTSDEF-LATE
 10
802300.579008202184923
 20
573502.6839407399529591
 30
20.5500000000000007
  0
VERTEX
  5
BE81
  8
LOTSDEF-LATE
 10
802290.3089142523240298
 20
573520.6623054724186659
 30
20.5500000000000007
  0
VERTEX
  5
BE82
  8
LOTSDEF-LATE
 10
802268.1400754962814972
 20
573521.8595740216551349
 30
20.5500000000000007
  0
VERTEX
  5
BE83
  8
LOTSDEF-LATE
 10
802249.565014905994758
 20
573531.462062505655922
 30
20.5500000000000007
  0
SEQEND
  5
BE84
  8
LOTSDEF-LATE
  0
POLYLINE
  5
127
  8
LOTSDEF-LATE
 66
     1
 10
0.0
 20
0.0
 30
9.8000000000000007
 70
     1
  0
VERTEX
  5
BE85
  8
LOTSDEF-LATE
 10
802249.4004285363480449
 20
573531.5583795215934515
 30
9.8000000000000007
  0
VERTEX
  5
BE86
  8
LOTSDEF-LATE
 10
802366.3215827683452517
 20
573651.3350728921359405
 30
9.8000000000000007
  0
VERTEX
  5
BE87
  8
LOTSDEF-LATE
 10
802366.3215827683452517
 20
573651.3350728921359405
 30
9.8000000000000007
  0
VERTEX
  5
BE88
  8
LOTSDEF-LATE
 10
802348.3027560580521822
 20
573651.2708345530554652
 30
9.8000000000000007
  0
VERTEX
  5
BE89
  8
LOTSDEF-LATE
 10
802333.2732223122147843
 20
573662.7816638970980421
 30
9.8000000000000007
  0
VERTEX
  5
BE8A
  8
LOTSDEF-LATE
 10
802315.8380777018610388
 20
573669.224316174746491
 30
9.8000000000000007
  0
VERTEX
  5
BE8B
  8
LOTSDEF-LATE
 10
802299.8427553713554516
 20
573656.3024614913156256
 30
9.8000000000000007
  0
VERTEX
  5
BE8C
  8
LOTSDEF-LATE
 10
802285.0458086698781699
 20
573663.2180407148553059
 30
9.8000000000000007
  0
VERTEX
  5
BE8D
  8
LOTSDEF-LATE
 10
802265.3368514409521595
 20
573661.3617766405222937
 30
9.8000000000000007
  0
VERTEX
  5
BE8E
  8
LOTSDEF-LATE
 10
802252.683025200269185
 20
573644.9666272904723883
 30
9.8000000000000007
  0
VERTEX
  5
BE8F
  8
LOTSDEF-LATE
 10
802244.4948646619450301
 20
573626.1215630996739492
 30
9.8000000000000007
  0
VERTEX
  5
BE90
  8
LOTSDEF-LATE
 10
802226.7640024081338197
 20
573614.9352486699353904
 30
9.8000000000000007
  0
VERTEX
  5
BE91
  8
LOTSDEF-LATE
 10
802215.3550689407857135
 20
573599.4781990337651223
 30
9.8000000000000007
  0
VERTEX
  5
BE92
  8
LOTSDEF-LATE
 10
802222.4467493966221809
 20
573562.7250639470294118
 30
9.8000000000000007
  0
VERTEX
  5
BE93
  8
LOTSDEF-LATE
 10
802230.1520156422629952
 20
573541.901905441773124
 30
9.8000000000000007
  0
SEQEND
  5
BE94
  8
LOTSDEF-LATE
  0
POLYLINE
  5
374
  8
LOTSDEF-LATE
 66
     1
 10
0.0
 20
0.0
 30
435.0
 70
     1
  0
VERTEX
  5
BE95
  8
LOTSDEF-LATE
 10
810377.1241514512803406
 20
568903.3485669444780797
 30
435.0
  0
VERTEX
  5
BE96
  8
LOTSDEF-LATE
 10
810415.3662251431960613
 20
568959.3502755824010819
 30
435.0
  0
VERTEX
  5
BE97
  8
LOTSDEF-LATE
 10
810513.6258227387443185
 20
568955.343282365007326
 30
435.0
  0
VERTEX
  5
BE98
  8
LOTSDEF-LATE
 10
810434.1198664334369823
 20
568880.4616607126081362
 30
435.0
  0
SEQEND
  5
BE99
  8
LOTSDEF-LATE
  0
POLYLINE
  5
375
  8
LOTSDEF-LATE
 66
     1
 10
0.0
 20
0.0
 30
167.0500000000000114
 70
     1
  0
VERTEX
  5
BE9A
  8
LOTSDEF-LATE
 10
810514.1454879768425599
 20
568955.0704540049191564
 30
167.0500000000000114
  0
VERTEX
  5
BE9B
  8
LOTSDEF-LATE
 10
810435.0316771107027307
 20
568879.8199785329634324
 30
167.0500000000000114
  0
VERTEX
  5
BE9C
  8
LOTSDEF-LATE
 10
810490.5403700326569378
 20
568856.7413656690623611
 30
167.0500000000000114
  0
VERTEX
  5
BE9D
  8
LOTSDEF-LATE
 10
810527.6680492947343737
 20
568906.2788895167177543
 30
167.0500000000000114
  0
VERTEX
  5
BE9E
  8
LOTSDEF-LATE
 10
810550.6877565479371697
 20
568933.2845353403827175
 30
167.0500000000000114
  0
SEQEND
  5
BE9F
  8
LOTSDEF-LATE
  0
POLYLINE
  5
376
  8
LOTSDEF-LATE
 66
     1
 10
0.0
 20
0.0
 30
582.3500000000000227
 70
     1
  0
VERTEX
  5
BEA0
  8
LOTSDEF-LATE
 10
810450.5904908096417785
 20
568787.8834798811003566
 30
582.3500000000000227
  0
VERTEX
  5
BEA1
  8
LOTSDEF-LATE
 10
810490.2040355687495321
 20
568856.1716868318617344
 30
582.3500000000000227
  0
VERTEX
  5
BEA2
  8
LOTSDEF-LATE
 10
810376.9246506706112996
 20
568903.0169767009792849
 30
582.3500000000000227
  0
VERTEX
  5
BEA3
  8
LOTSDEF-LATE
 10
810337.2572388099506497
 20
568844.8873033245326951
 30
582.3500000000000227
  0
SEQEND
  5
BEA4
  8
LOTSDEF-LATE
  0
POLYLINE
  5
377
  8
LOTSDEF-LATE
 66
     1
 10
0.0
 20
0.0
 30
223.3000000000000114
 70
     1
  0
VERTEX
  5
BEA5
  8
LOTSDEF-LATE
 10
810626.7947480337461457
 20
568876.2807118970667943
 30
223.3000000000000114
  0
VERTEX
  5
BEA6
  8
LOTSDEF-LATE
 10
810528.5403382106451318
 20
568905.9054110733559355
 30
223.3000000000000114
  0
VERTEX
  5
BEA7
  8
LOTSDEF-LATE
 10
810491.9214599779807031
 20
568856.4591560955159366
 30
223.3000000000000114
  0
VERTEX
  5
BEA8
  8
LOTSDEF-LATE
 10
810564.7510002973722294
 20
568846.5395856620743871
 30
223.3000000000000114
  0
VERTEX
  5
BEA9
  8
LOTSDEF-LATE
 10
810621.8312476213322952
 20
568831.6690225445199758
 30
223.3000000000000114
  0
SEQEND
  5
BEAA
  8
LOTSDEF-LATE
  0
POLYLINE
  5
378
  8
LOTSDEF-LATE
 66
     1
 10
0.0
 20
0.0
 30
10.0
 70
     1
  0
VERTEX
  5
BEAB
  8
LOTSDEF-LATE
 10
810683.8750101970508695
 20
568760.62078267254401
 30
10.0
  0
VERTEX
  5
BEAC
  8
LOTSDEF-LATE
 10
810769.9090173476142809
 20
568783.7527685174718499
 30
10.0
  0
VERTEX
  5
BEAD
  8
LOTSDEF-LATE
 10
810673.1207518837181851
 20
568840.7565919609041885
 30
10.0
  0
VERTEX
  5
BEAE
  8
LOTSDEF-LATE
 10
810627.5203930335119367
 20
568876.2088386127725244
 30
10.0
  0
VERTEX
  5
BEAF
  8
LOTSDEF-LATE
 10
810622.776752938167192
 20
568831.533303831005469
 30
10.0
  0
SEQEND
  5
BEB0
  8
LOTSDEF-LATE
  0
POLYLINE
  5
379
  8
LOTSDEF-LATE
 66
     1
 10
0.0
 20
0.0
 30
0.9
 70
     1
  0
VERTEX
  5
BEB1
  8
LOTSDEF-LATE
 10
809827.7469067466445267
 20
568841.8364810653729364
 30
0.9
  0
VERTEX
  5
BEB2
  8
LOTSDEF-LATE
 10
809803.6600463010836393
 20
568898.3083516840124503
 30
0.9
  0
VERTEX
  5
BEB3
  8
LOTSDEF-LATE
 10
809940.5299089760519564
 20
568944.8222263302886859
 30
0.9
  0
VERTEX
  5
BEB4
  8
LOTSDEF-LATE
 10
809979.7338813395472243
 20
568883.4303801247151569
 30
0.9
  0
SEQEND
  5
BEB5
  8
LOTSDEF-LATE
  0
POLYLINE
  5
37C
  8
LOTSDEF-LATE
 66
     1
 10
0.0
 20
0.0
 30
85.7000000000000028
 70
     1
  0
VERTEX
  5
BEB6
  8
LOTSDEF-LATE
 10
809979.4878319010604173
 20
568882.3531540567055345
 30
85.7000000000000028
  0
VERTEX
  5
BEB7
  8
LOTSDEF-LATE
 10
809827.8997702860506251
 20
568841.607242492842488
 30
85.7000000000000028
  0
VERTEX
  5
BEB8
  8
LOTSDEF-LATE
 10
809852.6292449138127267
 20
568783.4996054547373205
 30
85.7000000000000028
  0
VERTEX
  5
BEB9
  8
LOTSDEF-LATE
 10
810015.7428333199350163
 20
568835.9233312922297046
 30
85.7000000000000028
  0
SEQEND
  5
BEBA
  8
LOTSDEF-LATE
  0
POLYLINE
  5
37D
  8
LOTSDEF-LATE
 66
     1
 10
0.0
 20
0.0
 30
153.8000000000000114
 70
     1
  0
VERTEX
  5
BEBB
  8
LOTSDEF-LATE
 10
810034.9722896034363657
 20
568982.467026045313105
 30
153.8000000000000114
  0
VERTEX
  5
BEBC
  8
LOTSDEF-LATE
 10
810094.2751090270467103
 20
568924.4708764164242893
 30
153.8000000000000114
  0
VERTEX
  5
BEBD
  8
LOTSDEF-LATE
 10
810016.5190483746118844
 20
568836.0644597889622673
 30
153.8000000000000114
  0
VERTEX
  5
BEBE
  8
LOTSDEF-LATE
 10
809980.3040388446534052
 20
568883.5416626273654401
 30
153.8000000000000114
  0
VERTEX
  5
BEBF
  8
LOTSDEF-LATE
 10
810034.9722896034363657
 20
568982.467026045313105
 30
153.8000000000000114
  0
SEQEND
  5
BEC0
  8
LOTSDEF-LATE
  0
POLYLINE
  5
37F
  8
LOTSDEF-LATE
 66
     1
 10
0.0
 20
0.0
 30
2.0
 70
     1
  0
VERTEX
  5
BEC1
  8
LOTSDEF-LATE
 10
812407.8969744975911453
 20
560602.9098269357345998
 30
2.0
  0
VERTEX
  5
BEC2
  8
LOTSDEF-LATE
 10
812364.4562704365234822
 20
560653.9476122396299616
 30
2.0
  0
VERTEX
  5
BEC3
  8
LOTSDEF-LATE
 10
812411.0909789997385815
 20
560712.6411980809643865
 30
2.0
  0
VERTEX
  5
BEC4
  8
LOTSDEF-LATE
 10
812431.2620476719457656
 20
560682.4291728945681825
 30
2.0
  0
SEQEND
  5
BEC5
  8
LOTSDEF-LATE
  0
POLYLINE
  5
381
  8
LOTSDEF-LATE
 66
     1
 10
0.0
 20
0.0
 30
114.2000000000000028
 70
     1
  0
VERTEX
  5
BEC6
  8
LOTSDEF-LATE
 10
812476.9753501863451675
 20
561143.6488114725798368
 30
114.2000000000000028
  0
VERTEX
  5
BEC7
  8
LOTSDEF-LATE
 10
812557.1813892404315993
 20
561068.8313297460554168
 30
114.2000000000000028
  0
VERTEX
  5
BEC8
  8
LOTSDEF-LATE
 10
812446.8330940873129293
 20
561029.8994365924736485
 30
114.2000000000000028
  0
VERTEX
  5
BEC9
  8
LOTSDEF-LATE
 10
812421.4477909153793007
 20
561059.3303290037438273
 30
114.2000000000000028
  0
SEQEND
  5
BECA
  8
LOTSDEF-LATE
  0
POLYLINE
  5
382
  8
LOTSDEF-LATE
 66
     1
 10
0.0
 20
0.0
 30
122.25
 70
     1
  0
VERTEX
  5
BECB
  8
LOTSDEF-LATE
 10
812557.5118912101024762
 20
561068.7321710844989866
 30
122.25
  0
VERTEX
  5
BECC
  8
LOTSDEF-LATE
 10
812447.219875521142967
 20
561029.3438943299697712
 30
122.25
  0
VERTEX
  5
BECD
  8
LOTSDEF-LATE
 10
812487.6237309782300144
 20
560982.6081027999753132
 30
122.25
  0
VERTEX
  5
BECE
  8
LOTSDEF-LATE
 10
812615.4124562512151897
 20
561014.5124549659667537
 30
122.25
  0
SEQEND
  5
BECF
  8
LOTSDEF-LATE
  0
POLYLINE
  5
389
  8
LOTSDEF-LATE
 66
     1
 10
0.0
 20
0.0
 30
126.25
 70
     1
  0
VERTEX
  5
BED0
  8
LOTSDEF-LATE
 10
812436.9873629035428166
 20
560861.2577139871427789
 30
126.25
  0
VERTEX
  5
BED1
  8
LOTSDEF-LATE
 10
812408.8246936477953568
 20
560925.1664637323701754
 30
126.25
  0
VERTEX
  5
BED2
  8
LOTSDEF-LATE
 10
812452.002374037518166
 20
560941.915850393474102
 30
126.25
  0
VERTEX
  5
BED3
  8
LOTSDEF-LATE
 10
812467.2598481457680464
 20
560890.1531812505563721
 30
126.25
  0
SEQEND
  5
BED4
  8
LOTSDEF-LATE
  0
POLYLINE
  5
38A
  8
LOTSDEF-LATE
 66
     1
 10
0.0
 20
0.0
 30
400.0
 70
     1
  0
VERTEX
  5
BED5
  8
LOTSDEF-LATE
 10
812467.362752533168532
 20
560889.7061427840963006
 30
400.0
  0
VERTEX
  5
BED6
  8
LOTSDEF-LATE
 10
812478.6788872184697539
 20
560833.9067119960673153
 30
400.0
  0
VERTEX
  5
BED7
  8
LOTSDEF-LATE
 10
812497.6372059617424384
 20
560800.6468727984465659
 30
400.0
  0
VERTEX
  5
BED8
  8
LOTSDEF-LATE
 10
812482.4652047157287598
 20
560775.2844275761162862
 30
400.0
  0
VERTEX
  5
BED9
  8
LOTSDEF-LATE
 10
812450.7463850344065577
 20
560777.4799804006470367
 30
400.0
  0
VERTEX
  5
BEDA
  8
LOTSDEF-LATE
 10
812444.6193422896321863
 20
560817.2791303527774289
 30
400.0
  0
VERTEX
  5
BEDB
  8
LOTSDEF-LATE
 10
812437.1782375995535403
 20
560860.9436043332098052
 30
400.0
  0
SEQEND
  5
BEDC
  8
LOTSDEF-LATE
  0
POLYLINE
  5
38B
  8
LOTSDEF-LATE
 66
     1
 10
0.0
 20
0.0
 30
358.0500000000000114
 70
     1
  0
VERTEX
  5
BEDD
  8
LOTSDEF-LATE
 10
812478.8249867658596486
 20
560834.7605746781919152
 30
358.0500000000000114
  0
VERTEX
  5
BEDE
  8
LOTSDEF-LATE
 10
812473.0863792834570631
 20
560864.5267926889937371
 30
358.0500000000000114
  0
VERTEX
  5
BEDF
  8
LOTSDEF-LATE
 10
812554.4101988923503086
 20
560926.0493865843163803
 30
358.0500000000000114
  0
VERTEX
  5
BEE0
  8
LOTSDEF-LATE
 10
812561.6443030037917197
 20
560898.8993202410638332
 30
358.0500000000000114
  0
SEQEND
  5
BEE1
  8
LOTSDEF-LATE
  0
POLYLINE
  5
38C
  8
LOTSDEF-LATE
 66
     1
 10
0.0
 20
0.0
 30
210.4000000000000057
 70
     1
  0
VERTEX
  5
BEE2
  8
LOTSDEF-LATE
 10
812574.1675976011902094
 20
560854.16547544777859
 30
210.4000000000000057
  0
VERTEX
  5
BEE3
  8
LOTSDEF-LATE
 10
812497.8278839879203588
 20
560800.7193169116508216
 30
210.4000000000000057
  0
VERTEX
  5
BEE4
  8
LOTSDEF-LATE
 10
812478.8821901077171788
 20
560834.2474828505655751
 30
210.4000000000000057
  0
VERTEX
  5
BEE5
  8
LOTSDEF-LATE
 10
812561.9533599483547732
 20
560898.4739201415795833
 30
210.4000000000000057
  0
SEQEND
  5
BEE6
  8
LOTSDEF-LATE
  0
POLYLINE
  5
38D
  8
LOTSDEF-LATE
 66
     1
 10
0.0
 20
0.0
 30
6.5
 70
     1
  0
VERTEX
  5
BEE7
  8
LOTSDEF-LATE
 10
812619.9929222811479121
 20
560927.0018771907780319
 30
6.5
  0
VERTEX
  5
BEE8
  8
LOTSDEF-LATE
 10
812606.17274503945373
 20
560795.4625671044923365
 30
6.5
  0
VERTEX
  5
BEE9
  8
LOTSDEF-LATE
 10
812592.9565554662840441
 20
560786.8037790935486555
 30
6.5
  0
VERTEX
  5
BEEA
  8
LOTSDEF-LATE
 10
812554.6774360818089917
 20
560926.2234693847130984
 30
6.5
  0
SEQEND
  5
BEEB
  8
LOTSDEF-LATE
  0
POLYLINE
  5
398
  8
LOTSDEF-LATE
 66
     1
 10
0.0
 20
0.0
 30
2.8500000000000001
 70
     1
  0
VERTEX
  5
BEEC
  8
LOTSDEF-LATE
 10
802774.7544585717841983
 20
572309.728664877009578
 30
2.8500000000000001
  0
VERTEX
  5
BEED
  8
LOTSDEF-LATE
 10
802821.7609389632707462
 20
572329.5199325960129499
 30
2.8500000000000001
  0
VERTEX
  5
BEEE
  8
LOTSDEF-LATE
 10
802862.9765699212439358
 20
572286.2208678547758609
 30
2.8500000000000001
  0
VERTEX
  5
BEEF
  8
LOTSDEF-LATE
 10
802785.5788668800378218
 20
572231.629795218934305
 30
2.8500000000000001
  0
VERTEX
  5
BEF0
  8
LOTSDEF-LATE
 10
802758.5460505350492895
 20
572244.6303886268287897
 30
2.8500000000000001
  0
SEQEND
  5
BEF1
  8
LOTSDEF-LATE
  0
POLYLINE
  5
399
  8
LOTSDEF-LATE
 66
     1
 10
0.0
 20
0.0
 30
21.6999999999999993
 70
     1
  0
VERTEX
  5
BEF2
  8
LOTSDEF-LATE
 10
802682.0055955643765628
 20
572278.8229985074140131
 30
21.6999999999999993
  0
VERTEX
  5
BEF3
  8
LOTSDEF-LATE
 10
802699.1836472200229764
 20
572327.9162446716800332
 30
21.6999999999999993
  0
VERTEX
  5
BEF4
  8
LOTSDEF-LATE
 10
802774.6565798048395663
 20
572309.7413411807501689
 30
21.6999999999999993
  0
VERTEX
  5
BEF5
  8
LOTSDEF-LATE
 10
802757.9499175597447902
 20
572244.7296879466157407
 30
21.6999999999999993
  0
SEQEND
  5
BEF6
  8
LOTSDEF-LATE
  0
POLYLINE
  5
39A
  8
LOTSDEF-LATE
 66
     1
 10
0.0
 20
0.0
 30
147.8000000000000114
 70
     1
  0
VERTEX
  5
BEF7
  8
LOTSDEF-LATE
 10
802735.2952755143633112
 20
572173.6298333569429815
 30
147.8000000000000114
  0
VERTEX
  5
BEF8
  8
LOTSDEF-LATE
 10
802785.2359736105427146
 20
572230.971374629996717
 30
147.8000000000000114
  0
VERTEX
  5
BEF9
  8
LOTSDEF-LATE
 10
802681.9652555962093174
 20
572278.5390193798812106
 30
147.8000000000000114
  0
VERTEX
  5
BEFA
  8
LOTSDEF-LATE
 10
802649.3091187082463875
 20
572239.7549280525417998
 30
147.8000000000000114
  0
SEQEND
  5
BEFB
  8
LOTSDEF-LATE
  0
POLYLINE
  5
39B
  8
LOTSDEF-LATE
 66
     1
 10
0.0
 20
0.0
 30
55.2999999999999972
 70
     1
  0
VERTEX
  5
BEFC
  8
LOTSDEF-LATE
 10
802597.8462286937283352
 20
572284.7757155486615375
 30
55.2999999999999972
  0
VERTEX
  5
BEFD
  8
LOTSDEF-LATE
 10
802609.0986121272435412
 20
572316.976880430127494
 30
55.2999999999999972
  0
VERTEX
  5
BEFE
  8
LOTSDEF-LATE
 10
802653.5556838301708922
 20
572290.0313240584218875
 30
55.2999999999999972
  0
VERTEX
  5
BEFF
  8
LOTSDEF-LATE
 10
802681.8432545985560864
 20
572278.589849145617336
 30
55.2999999999999972
  0
VERTEX
  5
BF00
  8
LOTSDEF-LATE
 10
802648.9033987087896094
 20
572239.9887122045038268
 30
55.2999999999999972
  0
SEQEND
  5
BF01
  8
LOTSDEF-LATE
  0
POLYLINE
  5
39C
  8
LOTSDEF-LATE
 66
     1
 10
0.0
 20
0.0
 30
6.25
 70
     1
  0
VERTEX
  5
BF02
  8
LOTSDEF-LATE
 10
802597.364776614587754
 20
572285.0501087266020477
 30
6.25
  0
VERTEX
  5
BF03
  8
LOTSDEF-LATE
 10
802609.0395549734821543
 20
572317.0423545021330938
 30
6.25
  0
VERTEX
  5
BF04
  8
LOTSDEF-LATE
 10
802570.3814408902544528
 20
572351.3280854541808367
 30
6.25
  0
VERTEX
  5
BF05
  8
LOTSDEF-LATE
 10
802515.4943472938612103
 20
572270.9363654097542167
 30
6.25
  0
SEQEND
  5
BF06
  8
LOTSDEF-LATE
  0
POLYLINE
  5
39D
  8
LOTSDEF-LATE
 66
     1
 10
0.0
 20
0.0
 30
45.8499999999999872
 70
     1
  0
VERTEX
  5
BF07
  8
LOTSDEF-LATE
 10
802484.4986105386633426
 20
572200.8834611824713647
 30
45.8499999999999872
  0
VERTEX
  5
BF08
  8
LOTSDEF-LATE
 10
802484.575104538584128
 20
572244.1556311745662242
 30
45.8499999999999872
  0
VERTEX
  5
BF09
  8
LOTSDEF-LATE
 10
802515.4673535459442064
 20
572270.8929856966715306
 30
45.8499999999999872
  0
VERTEX
  5
BF0A
  8
LOTSDEF-LATE
 10
802597.8462286937283352
 20
572284.7757155486615375
 30
45.8499999999999872
  0
VERTEX
  5
BF0B
  8
LOTSDEF-LATE
 10
802648.8962482911301777
 20
572239.6076567326672375
 30
45.8499999999999872
  0
VERTEX
  5
BF0C
  8
LOTSDEF-LATE
 10
802552.9458519477630034
 20
572215.7986724337097257
 30
45.8499999999999872
  0
SEQEND
  5
BF0D
  8
LOTSDEF-LATE
  0
POLYLINE
  5
39E
  8
LOTSDEF-LATE
 66
     1
 10
0.0
 20
0.0
 30
140.0
 70
     1
  0
VERTEX
  5
BF0E
  8
LOTSDEF-LATE
 10
802735.1979554740246385
 20
572172.7801460733171552
 30
140.0
  0
VERTEX
  5
BF0F
  8
LOTSDEF-LATE
 10
802649.0171676189638674
 20
572239.4985200844239444
 30
140.0
  0
VERTEX
  5
BF10
  8
LOTSDEF-LATE
 10
802552.9594241793965921
 20
572215.6431529952678829
 30
140.0
  0
VERTEX
  5
BF11
  8
LOTSDEF-LATE
 10
802610.2746476226020604
 20
572169.2730122999055311
 30
140.0
  0
SEQEND
  5
BF12
  8
LOTSDEF-LATE
  0
POLYLINE
  5
39F
  8
LOTSDEF-LATE
 66
     1
 10
0.0
 20
0.0
 30
30.6000000000000014
 70
     1
  0
VERTEX
  5
BF13
  8
LOTSDEF-LATE
 10
802609.9675202979706228
 20
572169.1847605193033814
 30
30.6000000000000014
  0
VERTEX
  5
BF14
  8
LOTSDEF-LATE
 10
802547.3686172477900982
 20
572130.3728866194142029
 30
30.6000000000000014
  0
VERTEX
  5
BF15
  8
LOTSDEF-LATE
 10
802495.0201148972846568
 20
572160.3189748969161883
 30
30.6000000000000014
  0
VERTEX
  5
BF16
  8
LOTSDEF-LATE
 10
802484.3468804473523051
 20
572200.4162651551887393
 30
30.6000000000000014
  0
VERTEX
  5
BF17
  8
LOTSDEF-LATE
 10
802552.8176740888739005
 20
572215.5971718962537125
 30
30.6000000000000014
  0
SEQEND
  5
BF18
  8
LOTSDEF-LATE
  0
POLYLINE
  5
3A0
  8
LOTSDEF-LATE
 66
     1
 10
0.0
 20
0.0
 30
190.0
 70
     1
  0
VERTEX
  5
BF19
  8
LOTSDEF-LATE
 10
802623.4109712182544172
 20
572082.0337810718920082
 30
190.0
  0
VERTEX
  5
BF1A
  8
LOTSDEF-LATE
 10
802610.2744586003245786
 20
572169.2332766251638532
 30
190.0
  0
VERTEX
  5
BF1B
  8
LOTSDEF-LATE
 10
802735.2203285433351994
 20
572172.1400715074269101
 30
190.0
  0
VERTEX
  5
BF1C
  8
LOTSDEF-LATE
 10
802739.3018892836989835
 20
572104.3862848163116723
 30
190.0
  0
SEQEND
  5
BF1D
  8
LOTSDEF-LATE
  0
POLYLINE
  5
3A1
  8
LOTSDEF-LATE
 66
     1
 10
0.0
 20
0.0
 30
87.0499999999999829
 70
     1
  0
VERTEX
  5
BF1E
  8
LOTSDEF-LATE
 10
802638.2510035991435871
 20
571987.4204369963845238
 30
87.0499999999999829
  0
VERTEX
  5
BF1F
  8
LOTSDEF-LATE
 10
802623.425930637633428
 20
572081.9335768448654562
 30
87.0499999999999829
  0
VERTEX
  5
BF20
  8
LOTSDEF-LATE
 10
802739.5373270468553528
 20
572103.7572095384821296
 30
87.0499999999999829
  0
VERTEX
  5
BF21
  8
LOTSDEF-LATE
 10
802744.7728899557841942
 20
572021.9307894870871678
 30
87.0499999999999829
  0
SEQEND
  5
BF22
  8
LOTSDEF-LATE
  0
POLYLINE
  5
3A2
  8
LOTSDEF-LATE
 66
     1
 10
0.0
 20
0.0
 30
9.9499999999999993
 70
     1
  0
VERTEX
  5
BF23
  8
LOTSDEF-LATE
 10
803292.9783360369037837
 20
575110.6576856635510921
 30
9.9499999999999993
  0
VERTEX
  5
BF24
  8
LOTSDEF-LATE
 10
803317.7595652843592688
 20
575093.1634126276476309
 30
9.9499999999999993
  0
VERTEX
  5
BF25
  8
LOTSDEF-LATE
 10
803360.85989995370619
 20
575044.835023142863065
 30
9.9499999999999993
  0
VERTEX
  5
BF26
  8
LOTSDEF-LATE
 10
803329.647543182130903
 20
575006.4999878340167925
 30
9.9499999999999993
  0
VERTEX
  5
BF27
  8
LOTSDEF-LATE
 10
803284.7153715183958411
 20
575000.2387057492742315
 30
9.9499999999999993
  0
VERTEX
  5
BF28
  8
LOTSDEF-LATE
 10
803265.6433483349392191
 20
575065.4636179954977706
 30
9.9499999999999993
  0
SEQEND
  5
BF29
  8
LOTSDEF-LATE
  0
POLYLINE
  5
3B9
  8
LOTSDEF-LATE
 66
     1
 10
0.0
 20
0.0
 30
17.3999999999999986
 70
     1
  0
VERTEX
  5
BF2A
  8
LOTSDEF-LATE
 10
803815.2391215965617448
 20
574879.7905256251106039
 30
17.3999999999999986
  0
VERTEX
  5
BF2B
  8
LOTSDEF-LATE
 10
803775.488145385752432
 20
574878.5767176892841235
 30
17.3999999999999986
  0
VERTEX
  5
BF2C
  8
LOTSDEF-LATE
 10
803726.4337463539559394
 20
574954.4385448500979692
 30
17.3999999999999986
  0
VERTEX
  5
BF2D
  8
LOTSDEF-LATE
 10
803748.5928909330395982
 20
574985.0269975024275482
 30
17.3999999999999986
  0
VERTEX
  5
BF2E
  8
LOTSDEF-LATE
 10
803789.9800384775735438
 20
575024.2395280634518713
 30
17.3999999999999986
  0
VERTEX
  5
BF2F
  8
LOTSDEF-LATE
 10
803811.9293957120971754
 20
574966.1373344410676509
 30
17.3999999999999986
  0
SEQEND
  5
BF30
  8
LOTSDEF-LATE
  0
POLYLINE
  5
3BA
  8
LOTSDEF-LATE
 66
     1
 10
0.0
 20
0.0
 30
2.8500000000000001
 70
     1
  0
VERTEX
  5
BF31
  8
LOTSDEF-LATE
 10
803704.7001840459415689
 20
574988.9393907013582066
 30
2.8500000000000001
  0
VERTEX
  5
BF32
  8
LOTSDEF-LATE
 10
803743.9755142881767824
 20
575051.8917931475443766
 30
2.8500000000000001
  0
VERTEX
  5
BF33
  8
LOTSDEF-LATE
 10
803789.5165854757651687
 20
575024.6361812368268147
 30
2.8500000000000001
  0
VERTEX
  5
BF34
  8
LOTSDEF-LATE
 10
803747.9889277655165642
 20
574985.4632095885463059
 30
2.8500000000000001
  0
VERTEX
  5
BF35
  8
LOTSDEF-LATE
 10
803725.7074775027576834
 20
574954.74393378442619
 30
2.8500000000000001
  0
SEQEND
  5
BF36
  8
LOTSDEF-LATE
  0
POLYLINE
  5
3BB
  8
LOTSDEF-LATE
 66
     1
 10
0.0
 20
0.0
 30
10.4199999999999999
 70
     1
  0
VERTEX
  5
BF37
  8
LOTSDEF-LATE
 10
803704.435257415054366
 20
574988.9520113017642871
 30
10.4199999999999999
  0
VERTEX
  5
BF38
  8
LOTSDEF-LATE
 10
803612.5802597380243242
 20
575069.1561416934709996
 30
10.4199999999999999
  0
VERTEX
  5
BF39
  8
LOTSDEF-LATE
 10
803540.5664463506545871
 20
575014.2755194624187425
 30
10.4199999999999999
  0
VERTEX
  5
BF3A
  8
LOTSDEF-LATE
 10
803588.9845429888227955
 20
574959.9556582741206512
 30
10.4199999999999999
  0
SEQEND
  5
BF3B
  8
LOTSDEF-LATE
  0
POLYLINE
  5
3BD
  8
LOTSDEF-LATE
 66
     1
 10
0.0
 20
0.0
 30
3.129999999999999
 70
     1
  0
VERTEX
  5
BF3C
  8
LOTSDEF-LATE
 10
803484.981618044548668
 20
575158.0574678110424429
 30
3.129999999999999
  0
VERTEX
  5
BF3D
  8
LOTSDEF-LATE
 10
803527.4984931673388928
 20
575128.5676218833541498
 30
3.129999999999999
  0
VERTEX
  5
BF3E
  8
LOTSDEF-LATE
 10
803446.6434615906327963
 20
575068.2096295955125242
 30
3.129999999999999
  0
VERTEX
  5
BF3F
  8
LOTSDEF-LATE
 10
803395.6829640122596174
 20
575113.8307296807179227
 30
3.129999999999999
  0
VERTEX
  5
BF40
  8
LOTSDEF-LATE
 10
803453.2835513692116365
 20
575145.0379213821142912
 30
3.129999999999999
  0
SEQEND
  5
BF41
  8
LOTSDEF-LATE
  0
POLYLINE
  5
3BE
  8
LOTSDEF-LATE
 66
     1
 10
0.0
 20
0.0
 30
16.6999999999999993
 70
     1
  0
VERTEX
  5
BF42
  8
LOTSDEF-LATE
 10
803870.6918071922846138
 20
574712.1894071517745033
 30
16.6999999999999993
  0
VERTEX
  5
BF43
  8
LOTSDEF-LATE
 10
803897.4828576141735539
 20
574609.4286402172874659
 30
16.6999999999999993
  0
VERTEX
  5
BF44
  8
LOTSDEF-LATE
 10
803940.7577557362383232
 20
574618.280069645261392
 30
16.6999999999999993
  0
VERTEX
  5
BF45
  8
LOTSDEF-LATE
 10
803980.6416773701785132
 20
574740.0662110776174814
 30
16.6999999999999993
  0
SEQEND
  5
BF46
  8
LOTSDEF-LATE
  0
POLYLINE
  5
3BF
  8
LOTSDEF-LATE
 66
     1
 10
0.0
 20
0.0
 30
139.1999999999999886
 70
     1
  0
VERTEX
  5
BF47
  8
LOTSDEF-LATE
 10
803861.2559321789303795
 20
574779.0416674645384774
 30
139.1999999999999886
  0
VERTEX
  5
BF48
  8
LOTSDEF-LATE
 10
803870.5080430749803782
 20
574713.053778130444698
 30
139.1999999999999886
  0
VERTEX
  5
BF49
  8
LOTSDEF-LATE
 10
803980.3567328640492633
 20
574740.8545043997000903
 30
139.1999999999999886
  0
VERTEX
  5
BF4A
  8
LOTSDEF-LATE
 10
803969.8212527495343238
 20
574785.6054098738823086
 30
139.1999999999999886
  0
VERTEX
  5
BF4B
  8
LOTSDEF-LATE
 10
804021.5108287723269314
 20
574795.413294461206533
 30
139.1999999999999886
  0
VERTEX
  5
BF4C
  8
LOTSDEF-LATE
 10
804013.5897558813448995
 20
574823.5264024573843926
 30
139.1999999999999886
  0
VERTEX
  5
BF4D
  8
LOTSDEF-LATE
 10
803956.1729607436573133
 20
574809.623046740423888
 30
139.1999999999999886
  0
SEQEND
  5
BF4E
  8
LOTSDEF-LATE
  0
POLYLINE
  5
3C0
  8
LOTSDEF-LATE
 66
     1
 10
0.0
 20
0.0
 30
3.399999999999999
 70
     1
  0
VERTEX
  5
BF4F
  8
LOTSDEF-LATE
 10
803960.6069416285026819
 20
574899.3312116302549839
 30
3.399999999999999
  0
VERTEX
  5
BF50
  8
LOTSDEF-LATE
 10
804027.5809590137796476
 20
574909.6002935563446954
 30
3.399999999999999
  0
VERTEX
  5
BF51
  8
LOTSDEF-LATE
 10
804014.4195397329749539
 20
574984.7082593434024602
 30
3.399999999999999
  0
VERTEX
  5
BF52
  8
LOTSDEF-LATE
 10
803925.0343807941535488
 20
574988.5061565225478262
 30
3.399999999999999
  0
SEQEND
  5
BF53
  8
LOTSDEF-LATE
  0
POLYLINE
  5
3C1
  8
LOTSDEF-LATE
 66
     1
 10
0.0
 20
0.0
 30
109.4000000000000057
 70
     1
  0
VERTEX
  5
BF54
  8
LOTSDEF-LATE
 10
803960.3408597954548895
 20
574898.7741573998937383
 30
109.4000000000000057
  0
VERTEX
  5
BF55
  8
LOTSDEF-LATE
 10
804013.603436209843494
 20
574824.6562128722434863
 30
109.4000000000000057
  0
VERTEX
  5
BF56
  8
LOTSDEF-LATE
 10
803956.922695285291411
 20
574810.6722642106469721
 30
109.4000000000000057
  0
VERTEX
  5
BF57
  8
LOTSDEF-LATE
 10
803909.8305737044429407
 20
574885.3509751058882102
 30
109.4000000000000057
  0
SEQEND
  5
BF58
  8
LOTSDEF-LATE
  0
POLYLINE
  5
3C2
  8
LOTSDEF-LATE
 66
     1
 10
0.0
 20
0.0
 30
244.9000000000000057
 70
     1
  0
VERTEX
  5
BF59
  8
LOTSDEF-LATE
 10
803875.3936322041554376
 20
574976.7312874810304493
 30
244.9000000000000057
  0
VERTEX
  5
BF5A
  8
LOTSDEF-LATE
 10
803924.1128710662014782
 20
574988.2532732096733525
 30
244.9000000000000057
  0
VERTEX
  5
BF5B
  8
LOTSDEF-LATE
 10
803960.1536247826879844
 20
574899.2741906868759543
 30
244.9000000000000057
  0
VERTEX
  5
BF5C
  8
LOTSDEF-LATE
 10
803909.4060507549438626
 20
574885.4774797187419608
 30
244.9000000000000057
  0
VERTEX
  5
BF5D
  8
LOTSDEF-LATE
 10
803889.0668199063511565
 20
574917.9956944939913228
 30
244.9000000000000057
  0
SEQEND
  5
BF5E
  8
LOTSDEF-LATE
  0
POLYLINE
  5
3C3
  8
LOTSDEF-LATE
 66
     1
 10
0.0
 20
0.0
 30
348.1999999999999886
  0
VERTEX
  5
BF5F
  8
LOTSDEF-LATE
 10
803861.0812377936672419
 20
574779.693571382202208
 30
348.1999999999999886
  0
VERTEX
  5
BF60
  8
LOTSDEF-LATE
 10
803956.2513015209697187
 20
574810.5042970010545105
 30
348.1999999999999886
  0
VERTEX
  5
BF61
  8
LOTSDEF-LATE
 10
803889.0278898540418595
 20
574917.6785714610014111
 30
348.1999999999999886
  0
VERTEX
  5
BF62
  8
LOTSDEF-LATE
 10
803844.7495900696376339
 20
574894.675226574530825
 30
348.1999999999999886
  0
VERTEX
  5
BF63
  8
LOTSDEF-LATE
 10
803861.0812377936672419
 20
574779.693571382202208
 30
348.1999999999999886
  0
SEQEND
  5
BF64
  8
LOTSDEF-LATE
  0
POLYLINE
  5
3C5
  8
LOTSDEF-LATE
 66
     1
 10
0.0
 20
0.0
 30
20.3000000000000007
 70
     1
  0
VERTEX
  5
BF65
  8
LOTSDEF-LATE
 10
803329.9237459851428866
 20
575164.3184399077435955
 30
20.3000000000000007
  0
VERTEX
  5
BF66
  8
LOTSDEF-LATE
 10
803370.8363204773049802
 20
575203.0790997156873345
 30
20.3000000000000007
  0
VERTEX
  5
BF67
  8
LOTSDEF-LATE
 10
803389.4201209869934246
 20
575224.9859357490204275
 30
20.3000000000000007
  0
VERTEX
  5
BF68
  8
LOTSDEF-LATE
 10
803349.828806174104102
 20
575242.4954783553257585
 30
20.3000000000000007
  0
VERTEX
  5
BF69
  8
LOTSDEF-LATE
 10
803279.5752007478149608
 20
575215.6519151451066136
 30
20.3000000000000007
  0
SEQEND
  5
BF6A
  8
LOTSDEF-LATE
  0
POLYLINE
  5
3C6
  8
LOTSDEF-LATE
 66
     1
 10
0.0
 20
0.0
 30
6.25
 70
     1
  0
VERTEX
  5
BF6B
  8
LOTSDEF-LATE
 10
803248.1240303788799793
 20
575141.5617197157116607
 30
6.25
  0
VERTEX
  5
BF6C
  8
LOTSDEF-LATE
 10
803207.5109817624324933
 20
575150.2441076361574233
 30
6.25
  0
VERTEX
  5
BF6D
  8
LOTSDEF-LATE
 10
803199.6318884058855474
 20
575186.7825779765844345
 30
6.25
  0
VERTEX
  5
BF6E
  8
LOTSDEF-LATE
 10
803278.82580551574938
 20
575215.075409276643768
 30
6.25
  0
SEQEND
  5
BF6F
  8
LOTSDEF-LATE
  0
POLYLINE
  5
3D1
  8
LOTSDEF-LATE
 66
     1
 10
0.0
 20
0.0
 30
285.1000000000000227
 70
     1
  0
VERTEX
  5
BF70
  8
LOTSDEF-LATE
 10
804341.1575173670426011
 20
571215.372321548871696
 30
285.1000000000000227
  0
VERTEX
  5
BF71
  8
LOTSDEF-LATE
 10
804376.8606381084537134
 20
571210.2635625522816554
 30
285.1000000000000227
  0
VERTEX
  5
BF72
  8
LOTSDEF-LATE
 10
804396.7038418302545324
 20
571160.7796735857846215
 30
285.1000000000000227
  0
VERTEX
  5
BF73
  8
LOTSDEF-LATE
 10
804389.973180093918927
 20
571144.1050960305146873
 30
285.1000000000000227
  0
VERTEX
  5
BF74
  8
LOTSDEF-LATE
 10
804348.0833395243389532
 20
571155.5138624350074679
 30
285.1000000000000227
  0
VERTEX
  5
BF75
  8
LOTSDEF-LATE
 10
804335.4256209065206349
 20
571170.4515207558870316
 30
285.1000000000000227
  0
SEQEND
  5
BF76
  8
LOTSDEF-LATE
  0
POLYLINE
  5
3D2
  8
LOTSDEF-LATE
 66
     1
 10
0.0
 20
0.0
 30
35.6000000000000014
 70
     1
  0
VERTEX
  5
BF77
  8
LOTSDEF-LATE
 10
804520.6031024801777676
 20
571186.2199779426446185
 30
35.6000000000000014
  0
VERTEX
  5
BF78
  8
LOTSDEF-LATE
 10
804534.4696162919281051
 20
571149.6806394803570583
 30
35.6000000000000014
  0
VERTEX
  5
BF79
  8
LOTSDEF-LATE
 10
804554.4886673239525408
 20
571129.9665958969853818
 30
35.6000000000000014
  0
VERTEX
  5
BF7A
  8
LOTSDEF-LATE
 10
804490.6563582477392629
 20
571112.6486699874512851
 30
35.6000000000000014
  0
VERTEX
  5
BF7B
  8
LOTSDEF-LATE
 10
804477.5758609701879323
 20
571150.9724374803481624
 30
35.6000000000000014
  0
SEQEND
  5
BF7C
  8
LOTSDEF-LATE
  0
POLYLINE
  5
3D3
  8
LOTSDEF-LATE
 66
     1
 10
0.0
 20
0.0
 30
58.8999999999999986
 70
     1
  0
VERTEX
  5
BF7D
  8
LOTSDEF-LATE
 10
804277.8860502727329731
 20
571287.5268326965160668
 30
58.8999999999999986
  0
VERTEX
  5
BF7E
  8
LOTSDEF-LATE
 10
804264.8738060677424073
 20
571325.8925583325326443
 30
58.8999999999999986
  0
VERTEX
  5
BF7F
  8
LOTSDEF-LATE
 10
804326.2172772934427485
 20
571372.9214878359343857
 30
58.8999999999999986
  0
VERTEX
  5
BF80
  8
LOTSDEF-LATE
 10
804360.373098949668929
 20
571323.9973760461434722
 30
58.8999999999999986
  0
VERTEX
  5
BF81
  8
LOTSDEF-LATE
 10
804345.5383656099438667
 20
571250.9800923996372148
 30
58.8999999999999986
  0
SEQEND
  5
BF82
  8
LOTSDEF-LATE
  0
POLYLINE
  5
3D4
  8
LOTSDEF-LATE
 66
     1
 10
0.0
 20
0.0
 30
88.2999999999999829
 70
     1
  0
VERTEX
  5
BF83
  8
LOTSDEF-LATE
 10
804335.0566476926906034
 20
571170.5733070445712656
 30
88.2999999999999829
  0
VERTEX
  5
BF84
  8
LOTSDEF-LATE
 10
804249.8416452278615907
 20
571203.8603324021678418
 30
88.2999999999999829
  0
VERTEX
  5
BF85
  8
LOTSDEF-LATE
 10
804246.8615936869755387
 20
571237.1922563647385687
 30
88.2999999999999829
  0
VERTEX
  5
BF86
  8
LOTSDEF-LATE
 10
804277.8860502727329731
 20
571287.5268326965160668
 30
88.2999999999999829
  0
VERTEX
  5
BF87
  8
LOTSDEF-LATE
 10
804345.5243296046974137
 20
571250.7758713328512385
 30
88.2999999999999829
  0
SEQEND
  5
BF88
  8
LOTSDEF-LATE
  0
POLYLINE
  5
3D5
  8
LOTSDEF-LATE
 66
     1
 10
0.0
 20
0.0
 30
351.3999999999999773
 70
     1
  0
VERTEX
  5
BF89
  8
LOTSDEF-LATE
 10
804504.0571488084970042
 20
571267.2170737367123365
 30
351.3999999999999773
  0
VERTEX
  5
BF8A
  8
LOTSDEF-LATE
 10
804464.178277600207366
 20
571281.850638626026921
 30
351.3999999999999773
  0
VERTEX
  5
BF8B
  8
LOTSDEF-LATE
 10
804411.929467904032208
 20
571313.9610235685249791
 30
351.3999999999999773
  0
VERTEX
  5
BF8C
  8
LOTSDEF-LATE
 10
804398.4219986844109371
 20
571297.0426733953645453
 30
351.3999999999999773
  0
VERTEX
  5
BF8D
  8
LOTSDEF-LATE
 10
804412.7329356633126736
 20
571252.5649276650510728
 30
351.3999999999999773
  0
VERTEX
  5
BF8E
  8
LOTSDEF-LATE
 10
804417.289682308328338
 20
571227.8346532955765724
 30
351.3999999999999773
  0
VERTEX
  5
BF8F
  8
LOTSDEF-LATE
 10
804440.6471313021611422
 20
571207.8918051009532064
 30
351.3999999999999773
  0
VERTEX
  5
BF90
  8
LOTSDEF-LATE
 10
804469.5099988599540666
 20
571227.4320378034608439
 30
351.3999999999999773
  0
SEQEND
  5
BF91
  8
LOTSDEF-LATE
  0
POLYLINE
  5
3D6
  8
LOTSDEF-LATE
 66
     1
 10
0.0
 20
0.0
 30
36.8999999999999986
 70
     1
  0
VERTEX
  5
BF92
  8
LOTSDEF-LATE
 10
804520.6542147257132456
 20
571186.2575212471419945
 30
36.8999999999999986
  0
VERTEX
  5
BF93
  8
LOTSDEF-LATE
 10
804551.4971444052644074
 20
571209.8578409481560811
 30
36.8999999999999986
  0
VERTEX
  5
BF94
  8
LOTSDEF-LATE
 10
804611.6196718253195286
 20
571163.2136357915587723
 30
36.8999999999999986
  0
VERTEX
  5
BF95
  8
LOTSDEF-LATE
 10
804571.1023139229509979
 20
571154.8432716736570001
 30
36.8999999999999986
  0
VERTEX
  5
BF96
  8
LOTSDEF-LATE
 10
804554.4968289788812399
 20
571129.9685103335650638
 30
36.8999999999999986
  0
VERTEX
  5
BF97
  8
LOTSDEF-LATE
 10
804534.5803409507498145
 20
571149.8597542006755248
 30
36.8999999999999986
  0
SEQEND
  5
BF98
  8
LOTSDEF-LATE
  0
POLYLINE
  5
3D7
  8
LOTSDEF-LATE
 66
     1
 10
0.0
 20
0.0
 30
126.5
 70
     1
  0
VERTEX
  5
BF99
  8
LOTSDEF-LATE
 10
804446.333684385754168
 20
571113.1529430421069264
 30
126.5
  0
VERTEX
  5
BF9A
  8
LOTSDEF-LATE
 10
804386.5732578880852088
 20
571123.7911511013517156
 30
126.5
  0
VERTEX
  5
BF9B
  8
LOTSDEF-LATE
 10
804390.2506487554637715
 20
571144.0345705625368282
 30
126.5
  0
VERTEX
  5
BF9C
  8
LOTSDEF-LATE
 10
804397.0857687229290605
 20
571160.8042702665552497
 30
126.5
  0
VERTEX
  5
BF9D
  8
LOTSDEF-LATE
 10
804414.6818211517529562
 20
571187.4864653130061924
 30
126.5
  0
VERTEX
  5
BF9E
  8
LOTSDEF-LATE
 10
804428.373092225054279
 20
571189.4383859895169735
 30
126.5
  0
VERTEX
  5
BF9F
  8
LOTSDEF-LATE
 10
804440.7534223408438265
 20
571207.6605593040585518
 30
126.5
  0
VERTEX
  5
BFA0
  8
LOTSDEF-LATE
 10
804469.5260795756476
 20
571227.3674396325368434
 30
126.5
  0
VERTEX
  5
BFA1
  8
LOTSDEF-LATE
 10
804520.617932976456359
 20
571186.2992360298521817
 30
126.5
  0
VERTEX
  5
BFA2
  8
LOTSDEF-LATE
 10
804477.356749601312913
 20
571151.3515174672938883
 30
126.5
  0
SEQEND
  5
BFA3
  8
LOTSDEF-LATE
  0
POLYLINE
  5
3D8
  8
LOTSDEF-LATE
 66
     1
 10
0.0
 20
0.0
 30
1.6000000000000001
 70
     1
  0
VERTEX
  5
BFA4
  8
LOTSDEF-LATE
 10
806583.1296141812345013
 20
568683.7788019877625629
 30
1.6000000000000001
  0
VERTEX
  5
BFA5
  8
LOTSDEF-LATE
 10
806562.8624192745191976
 20
568658.4408927434124053
 30
1.6000000000000001
  0
VERTEX
  5
BFA6
  8
LOTSDEF-LATE
 10
806553.6514555094763637
 20
568625.6416606907732785
 30
1.6000000000000001
  0
VERTEX
  5
BFA7
  8
LOTSDEF-LATE
 10
806560.4606727871578187
 20
568610.4419986630091444
 30
1.6000000000000001
  0
VERTEX
  5
BFA8
  8
LOTSDEF-LATE
 10
806664.1968125080456957
 20
568598.0416175138670951
 30
1.6000000000000001
  0
VERTEX
  5
BFA9
  8
LOTSDEF-LATE
 10
806691.0317486538551748
 20
568613.6413865647045895
 30
1.6000000000000001
  0
VERTEX
  5
BFAA
  8
LOTSDEF-LATE
 10
806676.9129169570514932
 20
568690.6729333478724584
 30
1.6000000000000001
  0
SEQEND
  5
BFAB
  8
LOTSDEF-LATE
  0
POLYLINE
  5
3D9
  8
LOTSDEF-LATE
 66
     1
 10
0.0
 20
0.0
 30
2.1000000000000001
 70
     1
  0
VERTEX
  5
BFAC
  8
LOTSDEF-LATE
 10
806583.3132395144784823
 20
568684.5256032041506842
 30
2.1000000000000001
  0
VERTEX
  5
BFAD
  8
LOTSDEF-LATE
 10
806591.2575026116101071
 20
568791.7825371735962108
 30
2.1000000000000001
  0
VERTEX
  5
BFAE
  8
LOTSDEF-LATE
 10
806632.1456332429079339
 20
568792.0017618271522224
 30
2.1000000000000001
  0
VERTEX
  5
BFAF
  8
LOTSDEF-LATE
 10
806645.812408824567683
 20
568789.7351738476427272
 30
2.1000000000000001
  0
VERTEX
  5
BFB0
  8
LOTSDEF-LATE
 10
806676.7797925987979397
 20
568690.8791273520328104
 30
2.1000000000000001
  0
SEQEND
  5
BFB1
  8
LOTSDEF-LATE
  0
POLYLINE
  5
3DA
  8
LOTSDEF-LATE
 66
     1
 10
0.0
 20
0.0
 30
0.0
 70
     1
  0
VERTEX
  5
BFB2
  8
LOTSDEF-LATE
 10
806750.8549577425001189
 20
568731.9623919343575835
 30
0.0
  0
VERTEX
  5
BFB3
  8
LOTSDEF-LATE
 10
806734.9567168204812333
 20
568779.9317384734749794
 30
0.0
  0
VERTEX
  5
BFB4
  8
LOTSDEF-LATE
 10
806744.0887275862041861
 20
568832.2679130203323439
 30
0.0
  0
VERTEX
  5
BFB5
  8
LOTSDEF-LATE
 10
806706.6796616277424619
 20
568853.2787666491931304
 30
0.0
  0
VERTEX
  5
BFB6
  8
LOTSDEF-LATE
 10
806690.5597069065552205
 20
568790.2361223447369412
 30
0.0
  0
SEQEND
  5
BFB7
  8
LOTSDEF-LATE
  0
POLYLINE
  5
3DB
  8
LOTSDEF-LATE
 66
     1
 10
0.0
 20
0.0
 30
236.9000000000000057
 70
     1
  0
VERTEX
  5
BFB8
  8
LOTSDEF-LATE
 10
806690.487073601456359
 20
568790.3059387654066086
 30
236.9000000000000057
  0
VERTEX
  5
BFB9
  8
LOTSDEF-LATE
 10
806706.5851593113038689
 20
568853.3331237643724307
 30
236.9000000000000057
  0
VERTEX
  5
BFBA
  8
LOTSDEF-LATE
 10
806676.10600900137797
 20
568870.4528207455296069
 30
236.9000000000000057
  0
VERTEX
  5
BFBB
  8
LOTSDEF-LATE
 10
806647.1898012176388875
 20
568895.2530660408083349
 30
236.9000000000000057
  0
VERTEX
  5
BFBC
  8
LOTSDEF-LATE
 10
806647.8277102862484753
 20
568850.0352346416329965
 30
236.9000000000000057
  0
VERTEX
  5
BFBD
  8
LOTSDEF-LATE
 10
806632.4408466786844656
 20
568792.1920922334538773
 30
236.9000000000000057
  0
VERTEX
  5
BFBE
  8
LOTSDEF-LATE
 10
806645.8150409872177988
 20
568789.8255944721167907
 30
236.9000000000000057
  0
VERTEX
  5
BFBF
  8
LOTSDEF-LATE
 10
806645.8150409872177988
 20
568789.8255944721167907
 30
236.9000000000000057
  0
SEQEND
  5
BFC0
  8
LOTSDEF-LATE
  0
POLYLINE
  5
3DC
  8
LOTSDEF-LATE
 66
     1
 10
0.0
 20
0.0
 30
210.4000000000000057
 70
     1
  0
VERTEX
  5
BFC1
  8
LOTSDEF-LATE
 10
806728.7840578790055588
 20
568923.0636900933459401
 30
210.4000000000000057
  0
VERTEX
  5
BFC2
  8
LOTSDEF-LATE
 10
806789.3866438145050779
 20
568900.252886948408559
 30
210.4000000000000057
  0
VERTEX
  5
BFC3
  8
LOTSDEF-LATE
 10
806744.1899586052168161
 20
568832.4392400906654075
 30
210.4000000000000057
  0
VERTEX
  5
BFC4
  8
LOTSDEF-LATE
 10
806706.697670086985454
 20
568853.4949580449610949
 30
210.4000000000000057
  0
SEQEND
  5
BFC5
  8
LOTSDEF-LATE
  0
POLYLINE
  5
3DD
  8
LOTSDEF-LATE
 66
     1
 10
0.0
 20
0.0
 30
1004.2999999999999545
 70
     1
  0
VERTEX
  5
BFC6
  8
LOTSDEF-LATE
 10
806706.5165261711226776
 20
568853.5023941583931446
 30
1004.2999999999999545
  0
VERTEX
  5
BFC7
  8
LOTSDEF-LATE
 10
806728.7360520551446825
 20
568923.0866418700898066
 30
1004.2999999999999545
  0
VERTEX
  5
BFC8
  8
LOTSDEF-LATE
 10
806673.4230687149101868
 20
568956.0943705523386598
 30
1004.2999999999999545
  0
VERTEX
  5
BFC9
  8
LOTSDEF-LATE
 10
806647.7239376937504858
 20
568895.3310763870831579
 30
1004.2999999999999545
  0
VERTEX
  5
BFCA
  8
LOTSDEF-LATE
 10
806676.1344011900946498
 20
568870.6919679117854685
 30
1004.2999999999999545
  0
SEQEND
  5
BFCB
  8
LOTSDEF-LATE
  0
POLYLINE
  5
3DE
  8
LOTSDEF-LATE
 66
     1
 10
0.0
 20
0.0
 30
577.5
 70
     1
  0
VERTEX
  5
BFCC
  8
LOTSDEF-LATE
 10
806728.8835625250358135
 20
568923.2256609176984057
 30
577.5
  0
VERTEX
  5
BFCD
  8
LOTSDEF-LATE
 10
806768.76912764494773
 20
569018.7403137518558651
 30
577.5
  0
VERTEX
  5
BFCE
  8
LOTSDEF-LATE
 10
806810.9506311740260571
 20
568993.2906556960660964
 30
577.5
  0
VERTEX
  5
BFCF
  8
LOTSDEF-LATE
 10
806789.3882788056507707
 20
568900.2619450750062242
 30
577.5
  0
SEQEND
  5
BFD0
  8
LOTSDEF-LATE
  0
POLYLINE
  5
3DF
  8
LOTSDEF-LATE
 66
     1
 10
0.0
 20
0.0
 30
646.8999999999999773
 70
     1
  0
VERTEX
  5
BFD1
  8
LOTSDEF-LATE
 10
806768.6936457123374566
 20
569018.7772701977519318
 30
646.8999999999999773
  0
VERTEX
  5
BFD2
  8
LOTSDEF-LATE
 10
806728.7021537785185501
 20
568923.2914070426486433
 30
646.8999999999999773
  0
VERTEX
  5
BFD3
  8
LOTSDEF-LATE
 10
806673.4243928664363921
 20
568956.1192180534126237
 30
646.8999999999999773
  0
VERTEX
  5
BFD4
  8
LOTSDEF-LATE
 10
806696.2125389113789424
 20
569009.0685574299423024
 30
646.8999999999999773
  0
VERTEX
  5
BFD5
  8
LOTSDEF-LATE
 10
806705.1942285494878888
 20
569044.5724222607677802
 30
646.8999999999999773
  0
VERTEX
  5
BFD6
  8
LOTSDEF-LATE
 10
806747.2852949961088598
 20
569031.6348544483771548
 30
646.8999999999999773
  0
SEQEND
  5
BFD7
  8
LOTSDEF-LATE
  0
POLYLINE
  5
3E0
  8
LOTSDEF-LATE
 66
     1
 10
0.0
 20
0.0
 30
290.6000000000000227
 70
     1
  0
VERTEX
  5
BFD8
  8
LOTSDEF-LATE
 10
806722.5052563678473234
 20
569128.360979249002412
 30
290.6000000000000227
  0
VERTEX
  5
BFD9
  8
LOTSDEF-LATE
 10
806729.8223341746488586
 20
569168.1368660401785746
 30
290.6000000000000227
  0
VERTEX
  5
BFDA
  8
LOTSDEF-LATE
 10
806809.3811610667034984
 20
569139.8289259922457859
 30
290.6000000000000227
  0
VERTEX
  5
BFDB
  8
LOTSDEF-LATE
 10
806860.3711646521696821
 20
569095.934506677207537
 30
290.6000000000000227
  0
VERTEX
  5
BFDC
  8
LOTSDEF-LATE
 10
806847.675508517306298
 20
569048.4397450604010373
 30
290.6000000000000227
  0
SEQEND
  5
BFDD
  8
LOTSDEF-LATE
  0
POLYLINE
  5
3E1
  8
LOTSDEF-LATE
 66
     1
 10
0.0
 20
0.0
 30
33.75
 70
     1
  0
VERTEX
  5
BFDE
  8
LOTSDEF-LATE
 10
806876.9925486637512222
 20
569158.1872579394839704
 30
33.75
  0
VERTEX
  5
BFDF
  8
LOTSDEF-LATE
 10
806809.9165984790306538
 20
569204.6525382692925632
 30
33.75
  0
VERTEX
  5
BFE0
  8
LOTSDEF-LATE
 10
806740.5488069935236126
 20
569226.1232276272494346
 30
33.75
  0
VERTEX
  5
BFE1
  8
LOTSDEF-LATE
 10
806729.8374812175752595
 20
569168.1765881398459896
 30
33.75
  0
VERTEX
  5
BFE2
  8
LOTSDEF-LATE
 10
806809.4820119787473232
 20
569139.938672810443677
 30
33.75
  0
VERTEX
  5
BFE3
  8
LOTSDEF-LATE
 10
806860.4186748312786222
 20
569096.1675326550612226
 30
33.75
  0
SEQEND
  5
BFE4
  8
LOTSDEF-LATE
  0
POLYLINE
  5
3E2
  8
LOTSDEF-LATE
 66
     1
 10
0.0
 20
0.0
 30
248.5
 70
     1
  0
VERTEX
  5
BFE5
  8
LOTSDEF-LATE
 10
806722.5052563678473234
 20
569128.360979249002412
 30
248.5
  0
VERTEX
  5
BFE6
  8
LOTSDEF-LATE
 10
806740.4063282990828156
 20
569226.2450166560010985
 30
248.5
  0
VERTEX
  5
BFE7
  8
LOTSDEF-LATE
 10
806692.9396189847029746
 20
569244.3420857404125854
 30
248.5
  0
VERTEX
  5
BFE8
  8
LOTSDEF-LATE
 10
806686.4318099471274763
 20
569119.7528331563808024
 30
248.5
  0
SEQEND
  5
BFE9
  8
LOTSDEF-LATE
  0
POLYLINE
  5
3E3
  8
LOTSDEF-LATE
 66
     1
 10
0.0
 20
0.0
 30
1.8
 70
     1
  0
VERTEX
  5
BFEA
  8
LOTSDEF-LATE
 10
806847.2982049485435709
 20
569313.0244540207786486
 30
1.8
  0
VERTEX
  5
BFEB
  8
LOTSDEF-LATE
 10
806915.2582018487155437
 20
569287.4214216618565843
 30
1.8
  0
VERTEX
  5
BFEC
  8
LOTSDEF-LATE
 10
806877.1104555433848873
 20
569158.5566052959766239
 30
1.8
  0
VERTEX
  5
BFED
  8
LOTSDEF-LATE
 10
806809.9260192792862654
 20
569204.6921090399846435
 30
1.8
  0
SEQEND
  5
BFEE
  8
LOTSDEF-LATE
  0
POLYLINE
  5
3E4
  8
LOTSDEF-LATE
 66
     1
 10
0.0
 20
0.0
 30
23.4499999999999993
 70
     1
  0
VERTEX
  5
BFEF
  8
LOTSDEF-LATE
 10
806772.3882930420804769
 20
569341.248863915563561
 30
23.4499999999999993
  0
VERTEX
  5
BFF0
  8
LOTSDEF-LATE
 10
806847.2982049485435709
 20
569313.0244540207786486
 30
23.4499999999999993
  0
VERTEX
  5
BFF1
  8
LOTSDEF-LATE
 10
806809.9260192792862654
 20
569204.6921090399846435
 30
23.4499999999999993
  0
VERTEX
  5
BFF2
  8
LOTSDEF-LATE
 10
806740.5194655192317441
 20
569226.286840196698904
 30
23.4499999999999993
  0
SEQEND
  5
BFF3
  8
LOTSDEF-LATE
  0
POLYLINE
  5
3E5
  8
LOTSDEF-LATE
 66
     1
 10
0.0
 20
0.0
 30
22.8999999999999986
 70
     1
  0
VERTEX
  5
BFF4
  8
LOTSDEF-LATE
 10
806766.2255965416552499
 20
569320.0576604092493653
 30
22.8999999999999986
  0
VERTEX
  5
BFF5
  8
LOTSDEF-LATE
 10
806783.391399608575739
 20
569379.3678856105543673
 30
22.8999999999999986
  0
VERTEX
  5
BFF6
  8
LOTSDEF-LATE
 10
806724.6519334793556482
 20
569399.9376020672498271
 30
22.8999999999999986
  0
VERTEX
  5
BFF7
  8
LOTSDEF-LATE
 10
806688.5321662316564471
 20
569380.2509161924244836
 30
22.8999999999999986
  0
VERTEX
  5
BFF8
  8
LOTSDEF-LATE
 10
806690.5215713451616466
 20
569322.7693965325597674
 30
22.8999999999999986
  0
SEQEND
  5
BFF9
  8
LOTSDEF-LATE
  0
POLYLINE
  5
3E6
  8
LOTSDEF-LATE
 66
     1
 10
0.0
 20
0.0
 30
91.6999999999999886
 70
     1
  0
VERTEX
  5
BFFA
  8
LOTSDEF-LATE
 10
806692.6900017325533554
 20
569244.7289275702787563
 30
91.6999999999999886
  0
VERTEX
  5
BFFB
  8
LOTSDEF-LATE
 10
806690.3661378445103765
 20
569322.6321034155553207
 30
91.6999999999999886
  0
VERTEX
  5
BFFC
  8
LOTSDEF-LATE
 10
806688.4735017888015136
 20
569380.2095645332010463
 30
91.6999999999999886
  0
VERTEX
  5
BFFD
  8
LOTSDEF-LATE
 10
806671.6975909154862165
 20
569370.0661049447953701
 30
91.6999999999999886
  0
VERTEX
  5
BFFE
  8
LOTSDEF-LATE
 10
806648.1291398465400562
 20
569355.0831972125452012
 30
91.6999999999999886
  0
VERTEX
  5
BFFF
  8
LOTSDEF-LATE
 10
806651.2626052717678249
 20
569289.2923481912584975
 30
91.6999999999999886
  0
SEQEND
  5
C000
  8
LOTSDEF-LATE
  0
POLYLINE
  5
3E7
  8
LOTSDEF-LATE
 66
     1
 10
0.0
 20
0.0
 30
37.5
 70
     1
  0
VERTEX
  5
C001
  8
LOTSDEF-LATE
 10
806692.9487409228459001
 20
569244.4254978679819033
 30
37.5
  0
VERTEX
  5
C002
  8
LOTSDEF-LATE
 10
806740.4868367062881589
 20
569226.3933761876542121
 30
37.5
  0
VERTEX
  5
C003
  8
LOTSDEF-LATE
 10
806766.1920588241191581
 20
569319.9435827394481748
 30
37.5
  0
VERTEX
  5
C004
  8
LOTSDEF-LATE
 10
806690.5353425202192739
 20
569322.6178630498470739
 30
37.5
  0
SEQEND
  5
C005
  8
LOTSDEF-LATE
  0
POLYLINE
  5
3E8
  8
LOTSDEF-LATE
 66
     1
 10
0.0
 20
0.0
 30
31.5
 70
     1
  0
VERTEX
  5
C006
  8
LOTSDEF-LATE
 10
803361.4291626419872046
 20
575045.8114732489921153
 30
31.5
  0
VERTEX
  5
C007
  8
LOTSDEF-LATE
 10
803385.9717297181487083
 20
575026.6315862217452377
 30
31.5
  0
VERTEX
  5
C008
  8
LOTSDEF-LATE
 10
803446.5314987015444785
 20
575068.0167687216307968
 30
31.5
  0
VERTEX
  5
C009
  8
LOTSDEF-LATE
 10
803395.5479080528020859
 20
575113.8411596408113837
 30
31.5
  0
VERTEX
  5
C00A
  8
LOTSDEF-LATE
 10
803370.2246586898108944
 20
575133.3194846219848841
 30
31.5
  0
VERTEX
  5
C00B
  8
LOTSDEF-LATE
 10
803317.9149659804534167
 20
575093.7256742338649929
 30
31.5
  0
SEQEND
  5
C00C
  8
LOTSDEF-LATE
  0
POLYLINE
  5
3E9
  8
LOTSDEF-LATE
 66
     1
 10
0.0
 20
0.0
 30
27.0
 70
     1
  0
VERTEX
  5
C00D
  8
LOTSDEF-LATE
 10
803190.4802882689982653
 20
575053.6374025815166533
 30
27.0
  0
VERTEX
  5
C00E
  8
LOTSDEF-LATE
 10
803229.0093337475555018
 20
575004.9387654378078878
 30
27.0
  0
VERTEX
  5
C00F
  8
LOTSDEF-LATE
 10
803292.8564510970609263
 20
575110.7176315173273906
 30
27.0
  0
VERTEX
  5
C010
  8
LOTSDEF-LATE
 10
803247.9653997907880694
 20
575141.1578563172370195
 30
27.0
  0
SEQEND
  5
C011
  8
LOTSDEF-LATE
  0
POLYLINE
  5
3EA
  8
LOTSDEF-LATE
 66
     1
 10
0.0
 20
0.0
 30
31.0
 70
     1
  0
VERTEX
  5
C012
  8
LOTSDEF-LATE
 10
803248.9765190717298537
 20
575141.4253305129241198
 30
31.0
  0
VERTEX
  5
C013
  8
LOTSDEF-LATE
 10
803280.0220439209369943
 20
575214.0136773717822507
 30
31.0
  0
VERTEX
  5
C014
  8
LOTSDEF-LATE
 10
803329.8567479503108189
 20
575163.8219973633531481
 30
31.0
  0
VERTEX
  5
C015
  8
LOTSDEF-LATE
 10
803370.0503053929423913
 20
575133.4112859593005851
 30
31.0
  0
VERTEX
  5
C016
  8
LOTSDEF-LATE
 10
803318.1141730381641537
 20
575096.0682124549057335
 30
31.0
  0
SEQEND
  5
C017
  8
LOTSDEF-LATE
  0
POLYLINE
  5
3EB
  8
LOTSDEF-LATE
 66
     1
 10
0.0
 20
0.0
 30
0.9
 70
     1
  0
VERTEX
  5
C018
  8
LOTSDEF-LATE
 10
803154.3063861994305626
 20
575158.5949102324666455
 30
0.9
  0
VERTEX
  5
C019
  8
LOTSDEF-LATE
 10
803190.3224368344526738
 20
575054.6867852444993332
 30
0.9
  0
VERTEX
  5
C01A
  8
LOTSDEF-LATE
 10
803247.6891790481749922
 20
575141.1762207126012072
 30
0.9
  0
VERTEX
  5
C01B
  8
LOTSDEF-LATE
 10
803207.0878771954448894
 20
575149.984818750526756
 30
0.9
  0
VERTEX
  5
C01C
  8
LOTSDEF-LATE
 10
803203.3598828006070107
 20
575168.3836983635555953
 30
0.9
  0
VERTEX
  5
C01D
  8
LOTSDEF-LATE
 10
803182.9974568166071549
 20
575165.0536615685559809
 30
0.9
  0
SEQEND
  5
C01E
  8
LOTSDEF-LATE
  0
POLYLINE
  5
3EC
  8
LOTSDEF-LATE
 66
     1
 10
0.0
 20
0.0
 30
22.1000000000000014
 70
     1
  0
VERTEX
  5
C01F
  8
LOTSDEF-LATE
 10
803395.5807395216543227
 20
575114.8633519220165908
 30
22.1000000000000014
  0
VERTEX
  5
C020
  8
LOTSDEF-LATE
 10
803330.3318534848513082
 20
575164.06566610513255
 30
22.1000000000000014
  0
VERTEX
  5
C021
  8
LOTSDEF-LATE
 10
803371.8368505069520324
 20
575202.3287319374503568
 30
22.1000000000000014
  0
VERTEX
  5
C022
  8
LOTSDEF-LATE
 10
803452.8227081906516105
 20
575145.4006081799743697
 30
22.1000000000000014
  0
SEQEND
  5
C023
  8
LOTSDEF-LATE
  0
POLYLINE
  5
3ED
  8
LOTSDEF-LATE
 66
     1
 10
0.0
 20
0.0
 30
192.1999999999999886
 70
     1
  0
VERTEX
  5
C024
  8
LOTSDEF-LATE
 10
803888.877466251142323
 20
574917.921151990769431
 30
192.1999999999999886
  0
VERTEX
  5
C025
  8
LOTSDEF-LATE
 10
803815.4874323712429032
 20
574879.8998505298513919
 30
192.1999999999999886
  0
VERTEX
  5
C026
  8
LOTSDEF-LATE
 10
803812.5319263716228306
 20
574966.4264665651135147
 30
192.1999999999999886
  0
VERTEX
  5
C027
  8
LOTSDEF-LATE
 10
803868.4330541101517156
 20
575002.8135672077769414
 30
192.1999999999999886
  0
SEQEND
  5
C028
  8
LOTSDEF-LATE
  0
POLYLINE
  5
3EE
  8
LOTSDEF-LATE
 66
     1
 10
0.0
 20
0.0
 30
133.5
 70
     1
  0
VERTEX
  5
C029
  8
LOTSDEF-LATE
 10
804520.6301151694497094
 20
571186.3588156217010692
 30
133.5
  0
VERTEX
  5
C02A
  8
LOTSDEF-LATE
 10
804551.4473139160545543
 20
571209.8953301049768925
 30
133.5
  0
VERTEX
  5
C02B
  8
LOTSDEF-LATE
 10
804522.746820432250388
 20
571235.889511335757561
 30
133.5
  0
VERTEX
  5
C02C
  8
LOTSDEF-LATE
 10
804529.1922778806183487
 20
571272.7435285373358056
 30
133.5
  0
VERTEX
  5
C02D
  8
LOTSDEF-LATE
 10
804504.0747794570634142
 20
571267.2228312692604959
 30
133.5
  0
VERTEX
  5
C02E
  8
LOTSDEF-LATE
 10
804469.5965244319522753
 20
571227.4313720712671056
 30
133.5
  0
VERTEX
  5
C02F
  8
LOTSDEF-LATE
 10
804520.6301151694497094
 20
571186.3588156217010692
 30
133.5
  0
SEQEND
  5
C030
  8
LOTSDEF-LATE
  0
POLYLINE
  5
3EF
  8
LOTSDEF-LATE
 66
     1
 10
0.0
 20
0.0
 30
326.5
 70
     1
  0
VERTEX
  5
C031
  8
LOTSDEF-LATE
 10
804417.2777123128762469
 20
571227.8286600345745683
 30
326.5
  0
VERTEX
  5
C032
  8
LOTSDEF-LATE
 10
804440.489292451296933
 20
571207.6289112854283303
 30
326.5
  0
VERTEX
  5
C033
  8
LOTSDEF-LATE
 10
804428.2358599159633741
 20
571189.7182158965151757
 30
326.5
  0
VERTEX
  5
C034
  8
LOTSDEF-LATE
 10
804414.5555217959918082
 20
571187.7542657884769142
 30
326.5
  0
VERTEX
  5
C035
  8
LOTSDEF-LATE
 10
804396.9517229786142707
 20
571161.4989815349690616
 30
326.5
  0
VERTEX
  5
C036
  8
LOTSDEF-LATE
 10
804376.909896541852504
 20
571210.2780720419250429
 30
326.5
  0
SEQEND
  5
C037
  8
LOTSDEF-LATE
  0
POLYLINE
  5
3F0
  8
LOTSDEF-LATE
 66
     1
 10
0.0
 20
0.0
 30
431.5500000000000114
 70
     1
  0
VERTEX
  5
C038
  8
LOTSDEF-LATE
 10
804345.6646354290423915
 20
571250.6945493664825335
 30
431.5500000000000114
  0
VERTEX
  5
C039
  8
LOTSDEF-LATE
 10
804360.8658324510324746
 20
571323.6334643486188725
 30
431.5500000000000114
  0
VERTEX
  5
C03A
  8
LOTSDEF-LATE
 10
804398.0473258746787906
 20
571297.2565679955296218
 30
431.5500000000000114
  0
VERTEX
  5
C03B
  8
LOTSDEF-LATE
 10
804412.5955128441564739
 20
571252.461601976887323
 30
431.5500000000000114
  0
VERTEX
  5
C03C
  8
LOTSDEF-LATE
 10
804417.2740046889521182
 20
571227.8481571613810956
 30
431.5500000000000114
  0
VERTEX
  5
C03D
  8
LOTSDEF-LATE
 10
804376.8815597011707723
 20
571210.3346590517321602
 30
431.5500000000000114
  0
VERTEX
  5
C03E
  8
LOTSDEF-LATE
 10
804349.7949828079435974
 20
571214.481108455453068
 30
431.5500000000000114
  0
VERTEX
  5
C03F
  8
LOTSDEF-LATE
 10
804341.3852970538428053
 20
571215.8313071513548493
 30
431.5500000000000114
  0
SEQEND
  5
C040
  8
LOTSDEF-LATE
  0
POLYLINE
  5
3F3
  8
LOTSDEF-LATE
 66
     1
 10
0.0
 20
0.0
 30
226.8000000000000114
 70
     1
  0
VERTEX
  5
C041
  8
LOTSDEF-LATE
 10
806600.2036148066399619
 20
568910.658865355886519
 30
226.8000000000000114
  0
VERTEX
  5
C042
  8
LOTSDEF-LATE
 10
806591.2891332588624209
 20
568791.9189510910073295
 30
226.8000000000000114
  0
VERTEX
  5
C043
  8
LOTSDEF-LATE
 10
806632.2120333110215142
 20
568792.1929990765638649
 30
226.8000000000000114
  0
VERTEX
  5
C044
  8
LOTSDEF-LATE
 10
806647.8277102862484753
 20
568850.0352346416329965
 30
226.8000000000000114
  0
VERTEX
  5
C045
  8
LOTSDEF-LATE
 10
806647.1898012176388875
 20
568895.2530660408083349
 30
226.8000000000000114
  0
SEQEND
  5
C046
  8
LOTSDEF-LATE
  0
POLYLINE
  5
3F4
  8
LOTSDEF-LATE
 66
     1
 10
0.0
 20
0.0
 30
103.6800000000000068
 70
     1
  0
VERTEX
  5
C047
  8
LOTSDEF-LATE
 10
806658.1760219078278169
 20
569059.0404249825514853
 30
103.6800000000000068
  0
VERTEX
  5
C048
  8
LOTSDEF-LATE
 10
806620.6227174578234553
 20
568991.0405913089634851
 30
103.6800000000000068
  0
VERTEX
  5
C049
  8
LOTSDEF-LATE
 10
806600.2036148066399619
 20
568910.658865355886519
 30
103.6800000000000068
  0
VERTEX
  5
C04A
  8
LOTSDEF-LATE
 10
806647.1898012176388875
 20
568895.2530660408083349
 30
103.6800000000000068
  0
VERTEX
  5
C04B
  8
LOTSDEF-LATE
 10
806696.2125389113789424
 20
569009.0685574299423024
 30
103.6800000000000068
  0
VERTEX
  5
C04C
  8
LOTSDEF-LATE
 10
806705.1734301605029032
 20
569044.6098650804487988
 30
103.6800000000000068
  0
SEQEND
  5
C04D
  8
LOTSDEF-LATE
  0
POLYLINE
  5
3F5
  8
LOTSDEF-LATE
 66
     1
 10
0.0
 20
0.0
 30
250.0
 70
     1
  0
VERTEX
  5
C04E
  8
LOTSDEF-LATE
 10
806747.4330702961888164
 20
569031.6673194314353168
 30
250.0
  0
VERTEX
  5
C04F
  8
LOTSDEF-LATE
 10
806773.3533346066251397
 20
569095.6729404268553481
 30
250.0
  0
VERTEX
  5
C050
  8
LOTSDEF-LATE
 10
806847.6474990855203941
 20
569048.4045598451048136
 30
250.0
  0
VERTEX
  5
C051
  8
LOTSDEF-LATE
 10
806810.9899556310847402
 20
568993.3628108693519607
 30
250.0
  0
SEQEND
  5
C052
  8
LOTSDEF-LATE
  0
POLYLINE
  5
3F6
  8
LOTSDEF-LATE
 66
     1
 10
0.0
 20
0.0
 30
355.0
 70
     1
  0
VERTEX
  5
C053
  8
LOTSDEF-LATE
 10
806686.5056848777458072
 20
569119.4586188582470641
 30
355.0
  0
VERTEX
  5
C054
  8
LOTSDEF-LATE
 10
806658.1760219078278169
 20
569059.0404249825514853
 30
355.0
  0
VERTEX
  5
C055
  8
LOTSDEF-LATE
 10
806747.3625549699645489
 20
569031.6556891927029938
 30
355.0
  0
VERTEX
  5
C056
  8
LOTSDEF-LATE
 10
806773.1782817870844156
 20
569095.835718763875775
 30
355.0
  0
VERTEX
  5
C057
  8
LOTSDEF-LATE
 10
806722.1160893784835935
 20
569127.641517597483471
 30
355.0
  0
SEQEND
  5
C058
  8
LOTSDEF-LATE
  0
POLYLINE
  5
3FA
  8
LOTSDEF-LATE
 66
     1
 10
0.0
 20
0.0
 30
20.5500000000000007
 70
     1
  0
VERTEX
  5
C059
  8
LOTSDEF-LATE
 10
803484.3550308094127104
 20
575158.6941350309643894
 30
20.5500000000000007
  0
VERTEX
  5
C05A
  8
LOTSDEF-LATE
 10
803390.2290490879677236
 20
575224.3792567757191136
 30
20.5500000000000007
  0
VERTEX
  5
C05B
  8
LOTSDEF-LATE
 10
803371.9536406636470929
 20
575203.1691034409450367
 30
20.5500000000000007
  0
VERTEX
  5
C05C
  8
LOTSDEF-LATE
 10
803453.2703098547644913
 20
575145.4990510998759419
 30
20.5500000000000007
  0
SEQEND
  5
C05D
  8
LOTSDEF-LATE
  0
POLYLINE
  5
B954
  8
LOTSDEF-LATE
 66
     1
 10
0.0
 20
0.0
 30
75.3499999999999943
 70
     1
  0
VERTEX
  5
C09A
  8
LOTSDEF-LATE
 10
812547.6520402047317475
 20
567385.4681716148043051
 30
75.3499999999999943
  0
VERTEX
  5
C09B
  8
LOTSDEF-LATE
 10
812590.8039409217890352
 20
567366.6153089364524931
 30
75.3499999999999943
  0
VERTEX
  5
C09C
  8
LOTSDEF-LATE
 10
812597.4280872138915583
 20
567352.8919209456071258
 30
75.3499999999999943
  0
VERTEX
  5
C09D
  8
LOTSDEF-LATE
 10
812593.4997711159521714
 20
567328.3111679529538378
 30
75.3499999999999943
  0
VERTEX
  5
C09E
  8
LOTSDEF-LATE
 10
812557.8395974020240828
 20
567316.9398858273634687
 30
75.3499999999999943
  0
VERTEX
  5
C09F
  8
LOTSDEF-LATE
 10
812495.5823034167988226
 20
567300.5776511499425396
 30
75.3499999999999943
  0
VERTEX
  5
C0A0
  8
LOTSDEF-LATE
 10
812453.8602352885063738
 20
567324.4214663804741576
 30
75.3499999999999943
  0
VERTEX
  5
C0A1
  8
LOTSDEF-LATE
 10
812442.775309200049378
 20
567333.6982938129222021
 30
75.3499999999999943
  0
VERTEX
  5
C0A2
  8
LOTSDEF-LATE
 10
812432.4723228092771024
 20
567369.9855524996528402
 30
75.3499999999999943
  0
VERTEX
  5
C0A3
  8
LOTSDEF-LATE
 10
812479.6046689373906702
 20
567385.9419173192000017
 30
75.3499999999999943
  0
VERTEX
  5
C0A4
  8
LOTSDEF-LATE
 10
812519.6846637014532462
 20
567398.4199913096381351
 30
75.3499999999999943
  0
SEQEND
  5
C0A5
  8
LOTSDEF-LATE
  0
POLYLINE
  5
BD36
  8
LOTSDEF-LATE
 66
     1
 10
0.0
 20
0.0
 30
62.5
 70
     1
  0
VERTEX
  5
C0A8
  8
LOTSDEF-LATE
 10
806728.9490166348405182
 20
573731.4026930523104966
 30
62.5
  0
VERTEX
  5
C0A9
  8
LOTSDEF-LATE
 10
806751.1256721555255353
 20
573738.6513460176065564
 30
62.5
  0
VERTEX
  5
C0AA
  8
LOTSDEF-LATE
 10
806775.404153857845813
 20
573733.0249888952821493
 30
62.5
  0
VERTEX
  5
C0AB
  8
LOTSDEF-LATE
 10
806828.1444967784918845
 20
573692.7450574783142656
 30
62.5
  0
VERTEX
  5
C0AC
  8
LOTSDEF-LATE
 10
806841.0461272994289175
 20
573673.8193274063523859
 30
62.5
  0
VERTEX
  5
C0AD
  8
LOTSDEF-LATE
 10
806843.8684753326233476
 20
573660.9329871545778587
 30
62.5
  0
VERTEX
  5
C0AE
  8
LOTSDEF-LATE
 10
806842.2562369444640353
 20
573652.4764562252676114
 30
62.5
  0
VERTEX
  5
C0AF
  8
LOTSDEF-LATE
 10
806834.5934503318276256
 20
573644.4230130107607692
 30
62.5
  0
VERTEX
  5
C0B0
  8
LOTSDEF-LATE
 10
806807.1742274878779426
 20
573642.0072570827323943
 30
62.5
  0
VERTEX
  5
C0B1
  8
LOTSDEF-LATE
 10
806780.5629855452571064
 20
573649.2559100482612848
 30
62.5
  0
VERTEX
  5
C0B2
  8
LOTSDEF-LATE
 10
806751.5315243132645264
 20
573652.4764562252676114
 30
62.5
  0
VERTEX
  5
C0B3
  8
LOTSDEF-LATE
 10
806722.9021918246289715
 20
573662.947040548780933
 30
62.5
  0
VERTEX
  5
C0B4
  8
LOTSDEF-LATE
 10
806716.9965011171298102
 20
573679.9368253526045009
 30
62.5
  0
VERTEX
  5
C0B5
  8
LOTSDEF-LATE
 10
806719.6777150485431775
 20
573716.5036845875438303
 30
62.5
  0
SEQEND
  5
C0B6
  8
LOTSDEF-LATE
  0
TEXT
  5
BDB2
  8
TEXT_LOTS
 10
808374.38985077990219
 20
568355.2640591923845932
 30
668.6099999999997863
 40
2.990400915391541
  1
CA-LE-LT-02
  0
TEXT
  5
BDB3
  8
TEXT_LOTS
 10
808340.0309215687448159
 20
569342.722299259272404
 30
668.6099999999997863
 40
2.990400915391541
  1
CA-LE-LT-01
  0
TEXT
  5
BDB4
  8
TEXT_LOTS
 10
804301.5741276283515617
 20
571315.315377127728425
 30
668.6099999999997863
 40
2.990400915391541
  1
CA-EA-LT-01
  0
TEXT
  5
BDB5
  8
TEXT_LOTS
 10
804376.063782298238948
 20
571254.3257122345967218
 30
668.6099999999997863
 40
2.990400915391541
  1
CA-EA-LT-02
  0
TEXT
  5
BDB6
  8
TEXT_LOTS
 10
804272.5523618690203875
 20
571229.905385181773454
 30
668.6099999999997863
 40
2.990400915391541
  1
CA-EA-LT-03
  0
TEXT
  5
BDB7
  8
TEXT_LOTS
 10
804350.543228619499132
 20
571177.1229274503421038
 30
668.6099999999997863
 40
2.990400915391541
  1
CA-EA-LT-04
  0
TEXT
  5
BDB8
  8
TEXT_LOTS
 10
804395.2999338262015954
 20
571200.3940926189534366
 30
668.6099999999997863
 40
2.990400915391541
  1
CA-EA-LT-05
  0
TEXT
  5
BDB9
  8
TEXT_LOTS
 10
804447.1274462421424687
 20
571257.1209020068636164
 30
668.6099999999997863
 40
2.990400915391541
  1
CA-EA-LT-06
  0
TEXT
  5
BDBA
  8
TEXT_LOTS
 10
804500.9585819772910327
 20
571215.0197893300792202
 30
668.6099999999997863
 40
2.990400915391541
  1
CA-EA-LT-07
  0
TEXT
  5
BDBB
  8
TEXT_LOTS
 10
804449.4251166699687019
 20
571186.1098320324672386
 30
668.6099999999997863
 40
2.990400915391541
  1
CA-EA-LT-08
  0
TEXT
  5
BDBC
  8
TEXT_LOTS
 10
804488.4786756363464519
 20
571156.6596922081662342
 30
668.6099999999997863
 40
2.990400915391541
  1
CA-EA-LT-09
  0
TEXT
  5
BDBD
  8
TEXT_LOTS
 10
804537.5161596756661311
 20
571157.0036763646639884
 30
668.6099999999997863
 40
2.990400915391541
  1
CA-EA-LT-10
  0
TEXT
  5
BDBE
  8
TEXT_LOTS
 10
803905.0755460781510919
 20
574678.7771073532057926
 30
668.6099999999997863
 40
2.990400915391541
  1
CA-PS-LT-01
  0
TEXT
  5
BDBF
  8
TEXT_LOTS
 10
803912.9943029533606023
 20
574767.0842087984783575
 30
668.6099999999997863
 40
2.990400915391541
  1
CA-PS-LT-02
  0
TEXT
  5
BDC0
  8
TEXT_LOTS
 10
803874.7681795244570822
 20
574833.470601765322499
 30
668.6099999999997863
 40
2.990400915391541
  1
CA-PS-LT-04
  0
TEXT
  5
BDC1
  8
TEXT_LOTS
 10
803951.220426382147707
 20
574851.7272420356748626
 30
668.6099999999997863
 40
2.990400915391541
  1
CA-PS-LT-03
  0
TEXT
  5
BDC2
  8
TEXT_LOTS
 10
803969.499214919982478
 20
574944.6666633709101006
 30
668.6099999999997863
 40
2.990400915391541
  1
CA-PS-LT-05
  0
TEXT
  5
BDC3
  8
TEXT_LOTS
 10
803901.362346610869281
 20
574934.7089592291740701
 30
668.6099999999997863
 40
2.990400915391541
  1
CA-PS-LT-06
  0
TEXT
  5
BDC4
  8
TEXT_LOTS
 10
803838.2106024490203708
 20
574936.3702752735698596
 30
668.6099999999997863
 40
2.990400915391541
  1
CA-PS-LT-07
  0
TEXT
  5
BDC5
  8
TEXT_LOTS
 10
803768.4120260903146118
 20
574941.3491273442050442
 30
668.6099999999997863
 40
2.990400915391541
  1
CA-PS-LT-08
  0
TEXT
  5
BDC6
  8
TEXT_LOTS
 10
803738.4944429059978575
 20
575019.3519924663705751
 30
668.6099999999997863
 40
2.990400915391541
  1
CA-PS-LT-09
  0
TEXT
  5
BDC7
  8
TEXT_LOTS
 10
803597.2355821407400072
 20
575009.3942883246345446
 30
668.6099999999997863
 40
2.990400915391541
  1
CA-PS-LT-10
  0
TEXT
  5
BDC9
  8
TEXT_LOTS
 10
803446.9638357454678044
 20
575110.3319781607715413
 30
668.6099999999997863
 40
2.990400915391541
  1
CA-PS-LT-12
  0
TEXT
  5
BDCA
  8
TEXT_LOTS
 10
803410.1053732618456706
 20
575182.8973456782987341
 30
668.6099999999997863
 40
2.990400915391541
  1
CA-PS-LT-14
  0
TEXT
  5
BDCB
  8
TEXT_LOTS
 10
803373.2469107789220288
 20
575158.7088898390065879
 30
668.6099999999997863
 40
2.990400915391541
  1
CA-PS-LT-15
  0
TEXT
  5
BDCC
  8
TEXT_LOTS
 10
803326.9173962471541017
 20
575201.8266660649096593
 30
668.6099999999997863
 40
2.990400915391541
  1
CA-PS-LT-16
  0
TEXT
  5
BDCD
  8
TEXT_LOTS
 10
803227.9260970052564517
 20
575187.1015964032849297
 30
668.6099999999997863
 40
2.990400915391541
  1
CA-PS-LT-22
  0
TEXT
  5
BDCE
  8
TEXT_LOTS
 10
803281.6341423379490152
 20
575151.3476290235994384
 30
668.6099999999997863
 40
2.990400915391541
  1
CA-PS-LT-17
  0
TEXT
  5
BDCF
  8
TEXT_LOTS
 10
803366.9283172094728798
 20
575086.1435223217122257
 30
668.6099999999997863
 40
2.990400915391541
  1
CA-PS-LT-13
  0
TEXT
  5
BDD0
  8
TEXT_LOTS
 10
803274.2624498418299481
 20
575043.0257460958091542
 30
668.6099999999997863
 40
2.990400915391541
  1
CA-PS-LT-18
  0
TEXT
  5
BDD1
  8
TEXT_LOTS
 10
803224.7668002208229154
 20
575076.6775881127687171
 30
668.6099999999997863
 40
2.990400915391541
  1
CA-PS-LT-20
  0
TEXT
  5
BDD2
  8
TEXT_LOTS
 10
803181.5897441687993705
 20
575133.4680973029462621
 30
668.6099999999997863
 40
2.990400915391541
  1
CA-PS-LT-21
  0
TEXT
  5
BDD4
  8
TEXT_LOTS
 10
802668.137205519946292
 20
572054.3093543746508658
 30
668.6099999999997863
 40
2.990400915391541
  1
CA-COR-LT-01
  0
TEXT
  5
BDD5
  8
TEXT_LOTS
 10
802659.6309610947500914
 20
572132.6492039482109249
 30
668.6099999999997863
 40
2.990400915391541
  1
CA-COR-LT-02
  0
TEXT
  5
BDD6
  8
TEXT_LOTS
 10
802524.4794785483973101
 20
572173.2348314374685287
 30
668.6099999999997863
 40
2.990400915391541
  1
CA-COR-LT-03
  0
TEXT
  5
BDD7
  8
TEXT_LOTS
 10
802617.10065004194621
 20
572200.6064981709932908
 30
668.6099999999997863
 40
2.990400915391541
  1
CA-COR-LT-04
  0
TEXT
  5
BDD8
  8
TEXT_LOTS
 10
802695.5455067219445482
 20
572229.8658250870648772
 30
668.6099999999997863
 40
2.990400915391541
  1
CA-COR-LT-05
  0
TEXT
  5
BDD9
  8
TEXT_LOTS
 10
802712.5575400355737656
 20
572287.4409034358104691
 30
668.6099999999997863
 40
2.990400915391541
  1
CA-COR-LT-07
  0
TEXT
  5
BDDA
  8
TEXT_LOTS
 10
802794.7824436414521188
 20
572284.6093282925430685
 30
668.6099999999997863
 40
2.990400915391541
  1
CA-COR-LT-06
  0
TEXT
  5
BDDB
  8
TEXT_LOTS
 10
802623.71641546767205
 20
572278.9461780060082674
 30
668.6099999999997863
 40
2.990400915391541
  1
CA-COR-LT-08
  0
TEXT
  5
BDDC
  8
TEXT_LOTS
 10
802540.5462723620003089
 20
572244.0237008032854646
 30
668.6099999999997863
 40
2.990400915391541
  1
CA-COR-LT-09
  0
TEXT
  5
BDDD
  8
TEXT_LOTS
 10
802555.6682822131551802
 20
572307.2617597002536058
 30
668.6099999999997863
 40
2.990400915391541
  1
CA-COR-LT-10
  0
TEXT
  5
BDDE
  8
TEXT_LOTS
 10
812455.946754400851205
 20
560816.2303232217673212
 30
668.6099999999997863
 40
2.990400915391541
  1
CA-SJ-LT-01
  0
TEXT
  5
BDDF
  8
TEXT_LOTS
 10
812424.4420237536542118
 20
560904.3270225217565894
 30
668.6099999999997863
 40
2.990400915391541
  1
CA-SJ-LT-02
  0
TEXT
  5
BDE0
  8
TEXT_LOTS
 10
812501.3354229979449883
 20
560879.5145749632501975
 30
668.6099999999997863
 40
2.990400915391541
  1
CA-SJ-LT-03
  0
TEXT
  5
BDE1
  8
TEXT_LOTS
 10
812513.0504167540930212
 20
560847.2999177840538323
 30
668.6099999999997863
 40
2.990400915391541
  1
CA-SJ-LT-04
  0
TEXT
  5
BDE2
  8
TEXT_LOTS
 10
812581.1133593498962
 20
560869.3240926093421876
 30
668.6099999999997863
 40
2.990400915391541
  1
CA-SJ-LT-05
  0
TEXT
  5
BDE3
  8
TEXT_LOTS
 10
812520.5394550786586478
 20
561035.7545060989214107
 30
668.6099999999997863
 40
2.990400915391541
  1
CA-SJ-LT-06
  0
TEXT
  5
BDE4
  8
TEXT_LOTS
 10
812493.4082575666252524
 20
561077.6808799238642678
 30
668.6099999999997863
 40
2.990400915391541
  1
CA-SJ-LT-07
  0
TEXT
  5
BDE5
  8
TEXT_LOTS
 10
812393.0210119429975748
 20
560668.9253333563683555
 30
668.6099999999997863
 40
2.990400915391541
  1
CA-SJ-LT-08
  0
TEXT
  5
BDE6
  8
TEXT_LOTS
 10
810661.3401573166484013
 20
568803.74778699176386
 30
668.6099999999997863
 40
2.990400915391541
  1
CA-TL-LT-01
  0
TEXT
  5
BDE7
  8
TEXT_LOTS
 10
810548.4590634355554357
 20
568867.09206849464681
 30
668.6099999999997863
 40
2.990400915391541
  1
CA-TL-LT-02
  0
TEXT
  5
BDE8
  8
TEXT_LOTS
 10
810477.4893069700337946
 20
568901.9387386506423354
 30
668.6099999999997863
 40
2.990400915391541
  1
CA-TL-LT-03
  0
TEXT
  5
BDE9
  8
TEXT_LOTS
 10
810410.8885277645895258
 20
568916.4001368513563648
 30
668.6099999999997863
 40
2.990400915391541
  1
CA-TL-LT-04
  0
TEXT
  5
BDEA
  8
TEXT_LOTS
 10
810398.0632098735077307
 20
568840.3318913195980713
 30
668.6099999999997863
 40
2.990400915391541
  1
CA-TL-LT-05
  0
TEXT
  5
BDEB
  8
TEXT_LOTS
 10
809912.5468005631119013
 20
568836.9851178327808157
 30
668.6099999999997863
 40
2.990400915391541
  1
CA-TL-LT-06
  0
TEXT
  5
BDEC
  8
TEXT_LOTS
 10
809871.639853366650641
 20
568887.6788397768978029
 30
668.6099999999997863
 40
2.990400915391541
  1
CA-TL-LT-07
  0
TEXT
  5
BDED
  8
TEXT_LOTS
 10
809831.1007344474783167
 20
568961.8788568143500015
 30
668.6099999999997863
 40
2.990400915391541
  1
CA-TL-LT-08
  0
TEXT
  5
BDEE
  8
TEXT_LOTS
 10
812510.4223093929467723
 20
567351.2426963568432257
 30
668.6099999999997863
 40
2.990400915391541
  1
ca-ec-lt-01
  0
TEXT
  5
BDEF
  8
TEXT_LOTS
 10
810020.5765617721481249
 20
568903.4975941062439233
 30
668.6099999999997863
 40
2.990400915391541
  1
CA-TL-LT-10
  0
TEXT
  5
BDF0
  8
TEXT_LOTS
 10
802404.6518187671899796
 20
573468.9881952536525205
 30
668.6099999999997863
 40
2.990400915391541
  1
CA-TC-PS-01
  0
TEXT
  5
BDF1
  8
TEXT_LOTS
 10
802364.9936646148562431
 20
573518.6650327327661216
 30
668.6099999999997863
 40
2.990400915391541
  1
CA-TC-PS-02
  0
TEXT
  5
BDF2
  8
TEXT_LOTS
 10
802306.4950015882495791
 20
573564.9675630963174626
 30
668.6099999999997863
 40
2.990400915391541
  1
CA-TC-PS-03
  0
TEXT
  5
BDF3
  8
TEXT_LOTS
 10
802269.6592003453988582
 20
573603.7485468096565455
 30
668.6099999999997863
 40
2.990400915391541
  1
CA-TC-PS-04
  0
TEXT
  5
BDF4
  8
TEXT_LOTS
 10
806768.9027350877877325
 20
573685.4670726918848231
 30
668.6099999999997863
 40
2.990400915391541
  1
CA-ER-LT-01
  0
TEXT
  5
BDF6
  8
TEXT_LOTS
 10
804871.2684708578744903
 20
569454.93167402560357
 30
668.6099999999997863
 40
2.990400915391541
  1
CA-EV-LT-01
  0
TEXT
  5
BDF7
  8
TEXT_LOTS
 10
804791.1257016451563686
 20
569438.2250041583320126
 30
668.6099999999997863
 40
2.990400915391541
  1
CA-EV-LT-02
  0
TEXT
  5
BDF8
  8
TEXT_LOTS
 10
806948.7123919433215633
 20
568021.1912313656648621
 30
668.6099999999997863
 40
2.990400915391541
  1
CA-CT2-LT-01
  0
TEXT
  5
BDF9
  8
TEXT_LOTS
 10
806945.0580161635298282
 20
568068.6284500161418691
 30
668.6099999999997863
 40
2.990400915391541
  1
CA-CT2-LT-02
  0
TEXT
  5
BDFA
  8
TEXT_LOTS
 10
806655.6380502026295289
 20
569314.7840066577773541
 30
668.6099999999997863
 40
2.990400915391541
  1
CA-CT-LT-01
  0
TEXT
  5
BDFB
  8
TEXT_LOTS
 10
806711.397233021678403
 20
569358.7075659185647964
 30
668.6099999999997863
 40
2.990400915391541
  1
CA-CT-LT-02
  0
TEXT
  5
BDFC
  8
TEXT_LOTS
 10
806710.9687186279334128
 20
569290.6763095014030114
 30
668.6099999999997863
 40
2.990400915391541
  1
CA-CT-LT-03
  0
TEXT
  5
BDFD
  8
TEXT_LOTS
 10
806774.2348010371206328
 20
569269.038889609510079
 30
668.6099999999997863
 40
2.990400915391541
  1
CA-CT-LT-04
  0
TEXT
  5
BDFE
  8
TEXT_LOTS
 10
806851.0786583699518815
 20
569250.8633709688438103
 30
668.6099999999997863
 40
2.990400915391541
  1
CA-CT-LT-05
  0
TEXT
  5
BDFF
  8
TEXT_LOTS
 10
806696.0442569728475064
 20
569183.3588239663513377
 30
668.6099999999997863
 40
2.990400915391541
  1
CA-CT-LT-06
  0
TEXT
  5
BE00
  8
TEXT_LOTS
 10
806791.5012305751442909
 20
569176.2598097067093477
 30
668.6099999999997863
 40
2.990400915391541
  1
CA-CT-LT-07
  0
TEXT
  5
BE01
  8
TEXT_LOTS
 10
806777.0815429096110165
 20
569115.5727250020718202
 30
668.6099999999997863
 40
2.990400915391541
  1
CA-CT-LT-08
  0
TEXT
  5
BE02
  8
TEXT_LOTS
 10
806700.6357980372849852
 20
569075.7728657459374517
 30
668.6099999999997863
 40
2.990400915391541
  1
CA-CT-LT-09
  0
TEXT
  5
BE03
  8
TEXT_LOTS
 10
806649.1413779655704275
 20
569017.4333532092859969
 30
668.6099999999997863
 40
2.990400915391541
  1
CA-CT-LT-10
  0
TEXT
  5
BE04
  8
TEXT_LOTS
 10
806705.1313776933820918
 20
569000.77781077765394
 30
668.6099999999997863
 40
2.990400915391541
  1
CA-CT-LT-11
  0
TEXT
  5
BE05
  8
TEXT_LOTS
 10
806761.5867477885913104
 20
568972.5879892878001556
 30
668.6099999999997863
 40
2.990400915391541
  1
CA-CT-LT-12
  0
TEXT
  5
BE06
  8
TEXT_LOTS
 10
806791.5910776279633865
 20
569038.31249098922126
 30
668.6099999999997863
 40
2.990400915391541
  1
CA-CT-LT-22
  0
TEXT
  5
BE07
  8
TEXT_LOTS
 10
806674.0775867219781503
 20
568896.5457076115999371
 30
668.6099999999997863
 40
2.990400915391541
  1
CA-CT-LT-13
  0
TEXT
  5
BE08
  8
TEXT_LOTS
 10
806729.2593026618706062
 20
568871.6064338468713686
 30
668.6099999999997863
 40
2.990400915391541
  1
CA-CT-LT-14
  0
TEXT
  5
BE09
  8
TEXT_LOTS
 10
806658.2716388592962176
 20
568837.1439303582301363
 30
668.6099999999997863
 40
2.990400915391541
  1
CA-CT-LT-16
  0
TEXT
  5
BE0A
  8
TEXT_LOTS
 10
806703.1552520635304973
 20
568797.1233662093291059
 30
668.6099999999997863
 40
2.990400915391541
  1
CA-CT-LT-15
  0
TEXT
  5
BE0B
  8
TEXT_LOTS
 10
806603.5332136711804196
 20
568838.6081774762133136
 30
668.6099999999997863
 40
2.990400915391541
  1
CA-CT-LT-19
  0
TEXT
  5
BE0C
  8
TEXT_LOTS
 10
806610.3755168196512386
 20
568728.3018561153439805
 30
668.6099999999997863
 40
2.990400915391541
  1
CA-CT-LT-17
  0
TEXT
  5
BE0F
  8
TEXT_LOTS
 10
806620.6031346272211522
 20
568644.0222840149654076
 30
668.6099999999997863
 40
2.990400915391541
  1
CA-CT-LT-21
  0
ENDSEC
  0
EOF
