  0
SECTION
  2
HEADER
  9
$ACADVER
  1
AC1009
  9
$INSBASE
 10
0.0
 20
0.0
 30
0.0
  9
$EXTMIN
 10
1086920.920367447
 20
699875.02318355464
 30
0.0
  9
$EXTMAX
 10
1086931.2014797181
 20
699888.56998851942
 30
0.0
  9
$LIMMIN
 10
0.0
 20
0.0
  9
$LIMMAX
 10
420.0
 20
297.0
  9
$ORTHOMODE
 70
     1
  9
$REGENMODE
 70
     1
  9
$FILLMODE
 70
     1
  9
$QTEXTMODE
 70
     0
  9
$MIRRTEXT
 70
     0
  9
$DRAGMODE
 70
     2
  9
$LTSCALE
 40
1.0
  9
$OSMODE
 70
    37
  9
$ATTMODE
 70
     1
  9
$TEXTSIZE
 40
2.5
  9
$TRACEWID
 40
1.0
  9
$TEXTSTYLE
  7
STANDARD
  9
$CLAYER
  8
0
  9
$CELTYPE
  6
BYLAYER
  9
$CECOLOR
 62
   256
  9
$DIMSCALE
 40
1.0
  9
$DIMASZ
 40
2.5
  9
$DIMEXO
 40
0.625
  9
$DIMDLI
 40
3.75
  9
$DIMRND
 40
0.0
  9
$DIMDLE
 40
0.0
  9
$DIMEXE
 40
1.25
  9
$DIMTP
 40
0.0
  9
$DIMTM
 40
0.0
  9
$DIMTXT
 40
2.5
  9
$DIMCEN
 40
2.5
  9
$DIMTSZ
 40
0.0
  9
$DIMTOL
 70
     0
  9
$DIMLIM
 70
     0
  9
$DIMTIH
 70
     0
  9
$DIMTOH
 70
     0
  9
$DIMSE1
 70
     0
  9
$DIMSE2
 70
     0
  9
$DIMTAD
 70
     1
  9
$DIMZIN
 70
     8
  9
$DIMBLK
  1

  9
$DIMASO
 70
     1
  9
$DIMSHO
 70
     1
  9
$DIMPOST
  1

  9
$DIMAPOST
  1

  9
$DIMALT
 70
     0
  9
$DIMALTD
 70
     3
  9
$DIMALTF
 40
0.03937007874016
  9
$DIMLFAC
 40
1.0
  9
$DIMTOFL
 70
     1
  9
$DIMTVP
 40
0.0
  9
$DIMTIX
 70
     0
  9
$DIMSOXD
 70
     0
  9
$DIMSAH
 70
     0
  9
$DIMBLK1
  1

  9
$DIMBLK2
  1

  9
$DIMSTYLE
  2
ISO-25
  9
$DIMCLRD
 70
     0
  9
$DIMCLRE
 70
     0
  9
$DIMCLRT
 70
     0
  9
$DIMTFAC
 40
1.0
  9
$DIMGAP
 40
0.625
  9
$LUNITS
 70
     2
  9
$LUPREC
 70
     4
  9
$SKETCHINC
 40
1.0
  9
$FILLETRAD
 40
0.0
  9
$AUNITS
 70
     0
  9
$AUPREC
 70
     0
  9
$MENU
  1
.
  9
$ELEVATION
 40
0.0
  9
$PELEVATION
 40
0.0
  9
$THICKNESS
 40
0.0
  9
$LIMCHECK
 70
     0
  9
$BLIPMODE
 70
     0
  9
$CHAMFERA
 40
0.0
  9
$CHAMFERB
 40
0.0
  9
$SKPOLY
 70
     0
  9
$TDCREATE
 40
2456170.3607584368
  9
$TDUPDATE
 40
2457021.0943434029
  9
$TDINDWG
 40
1.4821315741000001
  9
$TDUSRTIMER
 40
1.4821304977
  9
$USRTIMER
 70
     1
  9
$ANGBASE
 50
0.0
  9
$ANGDIR
 70
     0
  9
$PDMODE
 70
     0
  9
$PDSIZE
 40
0.0
  9
$PLINEWID
 40
0.0
  9
$COORDS
 70
     1
  9
$SPLFRAME
 70
     0
  9
$SPLINETYPE
 70
     6
  9
$SPLINESEGS
 70
     8
  9
$ATTDIA
 70
     1
  9
$ATTREQ
 70
     1
  9
$HANDLING
 70
     1
  9
$HANDSEED
  5
2F5
  9
$SURFTAB1
 70
     6
  9
$SURFTAB2
 70
     6
  9
$SURFTYPE
 70
     6
  9
$SURFU
 70
     6
  9
$SURFV
 70
     6
  9
$UCSNAME
  2

  9
$UCSORG
 10
0.0
 20
0.0
 30
0.0
  9
$UCSXDIR
 10
1.0
 20
0.0
 30
0.0
  9
$UCSYDIR
 10
0.0
 20
1.0
 30
0.0
  9
$PUCSNAME
  2

  9
$PUCSORG
 10
0.0
 20
0.0
 30
0.0
  9
$PUCSXDIR
 10
1.0
 20
0.0
 30
0.0
  9
$PUCSYDIR
 10
0.0
 20
1.0
 30
0.0
  9
$USERI1
 70
     0
  9
$USERI2
 70
     0
  9
$USERI3
 70
     0
  9
$USERI4
 70
     0
  9
$USERI5
 70
     0
  9
$USERR1
 40
0.0
  9
$USERR2
 40
0.0
  9
$USERR3
 40
0.0
  9
$USERR4
 40
0.0
  9
$USERR5
 40
0.0
  9
$WORLDVIEW
 70
     1
  9
$SHADEDGE
 70
     3
  9
$SHADEDIF
 70
    70
  9
$TILEMODE
 70
     1
  9
$MAXACTVP
 70
    64
  9
$PLIMCHECK
 70
     0
  9
$PEXTMIN
 10
0.0
 20
0.0
 30
0.0
  9
$PEXTMAX
 10
0.0
 20
0.0
 30
0.0
  9
$PLIMMIN
 10
0.0
 20
0.0
  9
$PLIMMAX
 10
12.0
 20
9.0
  9
$UNITMODE
 70
     0
  9
$VISRETAIN
 70
     1
  9
$PLINEGEN
 70
     0
  9
$PSLTSCALE
 70
     1
  0
ENDSEC
  0
SECTION
  2
TABLES
  0
TABLE
  2
VPORT
 70
     1
  0
VPORT
  2
*ACTIVE
 70
     0
 10
0.0
 20
0.0
 11
1.0
 21
1.0
 12
1086926.2799745209
 22
699880.34093753807
 13
0.0
 23
0.0
 14
10.0
 24
10.0
 15
10.0
 25
10.0
 16
0.0
 26
0.0
 36
1.0
 17
0.0
 27
0.0
 37
0.0
 40
31.076272530388739
 41
1.3077922077922071
 42
50.0
 43
0.0
 44
0.0
 50
0.0
 51
0.0
 71
     0
 72
  1000
 73
     1
 74
     3
 75
     0
 76
     0
 77
     0
 78
     0
  0
ENDTAB
  0
TABLE
  2
LTYPE
 70
     2
  0
LTYPE
  2
CONTINUOUS
 70
     0
  3
Solid line
 72
    65
 73
     0
 40
0.0
  0
LTYPE
  2
ACAD_ISO03W100
 70
     0
  3
ISO dash space __    __    __    __    __    __
 72
    65
 73
     2
 40
30.0
 49
12.0
 49
-18.0
  0
ENDTAB
  0
TABLE
  2
LAYER
 70
     8
  0
LAYER
  2
0
 70
     0
 62
     7
  6
CONTINUOUS
  0
LAYER
  2
RASGOS
 70
     0
 62
     7
  6
CONTINUOUS
  0
LAYER
  2
EXCAVACION
 70
     0
 62
     7
  6
CONTINUOUS
  0
LAYER
  2
HOUSE
 70
     0
 62
     7
  6
CONTINUOUS
  0
LAYER
  2
SCALE
 70
     0
 62
     7
  6
CONTINUOUS
  0
LAYER
  2
TEXT
 70
     0
 62
     7
  6
CONTINUOUS
  0
LAYER
  2
NORTH
 70
     0
 62
     7
  6
CONTINUOUS
  0
LAYER
  2
LINES
 70
     0
 62
     7
  6
CONTINUOUS
  0
ENDTAB
  0
TABLE
  2
STYLE
 70
     2
  0
STYLE
  2
STANDARD
 70
     0
 40
0.0
 41
1.0
 50
0.0
 71
     0
 42
2.5
  3
txt
  4

  0
STYLE
  2
CALIBRI
 70
     0
 40
0.0
 41
1.0
 50
0.0
 71
     0
 42
2.5
  3
txt
  4

  0
ENDTAB
  0
TABLE
  2
VIEW
 70
     0
  0
ENDTAB
  0
TABLE
  2
UCS
 70
     0
  0
ENDTAB
  0
TABLE
  2
APPID
 70
     6
  0
APPID
  2
ACAD
 70
     0
  0
APPID
  2
ACAD_PSEXT
 70
     0
  0
APPID
  2
ACAECLAYERSTANDARD
 70
     0
  0
APPID
  2
ADE
 70
     0
  0
APPID
  2
ACAD_NAV_VCDISPLAY
 70
     0
  0
APPID
  2
ADE_PROJECTION
 70
     0
  0
ENDTAB
  0
TABLE
  2
DIMSTYLE
 70
     1
  0
DIMSTYLE
  2
ISO-25
 70
     0
  3

  4

  5

  6

  7

 40
1.0
 41
2.5
 42
0.625
 43
3.75
 44
1.25
 45
0.0
 46
0.0
 47
0.0
 48
0.0
140
2.5
141
2.5
142
0.0
143
0.03937007874016
144
1.0
145
0.0
146
1.0
147
0.625
 71
     0
 72
     0
 73
     0
 74
     0
 75
     0
 76
     0
 77
     1
 78
     8
170
     0
171
     3
172
     1
173
     0
174
     0
175
     0
176
     0
177
     0
178
     0
  0
ENDTAB
  0
ENDSEC
  0
SECTION
  2
BLOCKS
  0
BLOCK
  8
0
  2
$MODEL_SPACE
 70
     0
 10
0.0
 20
0.0
 30
0.0
  3
$MODEL_SPACE
  1

  0
ENDBLK
  5
17
  8
0
  0
BLOCK
 67
     1
  8
0
  2
$PAPER_SPACE
 70
     0
 10
0.0
 20
0.0
 30
0.0
  3
$PAPER_SPACE
  1

  0
ENDBLK
  5
1D
 67
     1
  8
0
  0
BLOCK
  8
0
  2
*U0
 70
     1
 10
0.0
 20
0.0
 30
0.0
  3
*U0
  1

  0
SOLID
  5
D9
  8
SCALE
  6
CONTINUOUS
 10
-1086923.0
 20
699876.00953503605
 30
0.0
 11
-1086924.0
 21
699875.88453503605
 31
0.0
 12
-1086923.0
 22
699875.88453503605
 32
0.0
 13
-1086923.0
 23
699875.88453503605
 33
0.0
210
0.0
220
0.0
230
-1.0
  0
SOLID
  5
DA
  8
SCALE
  6
CONTINUOUS
 10
-1086923.0
 20
699876.00953503605
 30
0.0
 11
-1086924.0
 21
699876.00953503605
 31
0.0
 12
-1086924.0
 22
699875.88453503605
 32
0.0
 13
-1086924.0
 23
699875.88453503605
 33
0.0
210
0.0
220
0.0
230
-1.0
  0
LINE
  5
DB
  8
SCALE
  6
CONTINUOUS
 10
1086923.0
 20
699876.00953503605
 30
0.0
 11
1086924.0
 21
699875.88453503605
 31
0.0
  0
LINE
  5
DC
  8
SCALE
  6
CONTINUOUS
 10
1086924.0
 20
699876.00953503605
 30
0.0
 11
1086924.0
 21
699875.88453503605
 31
0.0
  0
ENDBLK
  5
DE
  8
0
  0
BLOCK
  8
0
  2
*U1
 70
     1
 10
0.0
 20
0.0
 30
0.0
  3
*U1
  1

  0
SOLID
  5
E0
  8
SCALE
  6
CONTINUOUS
 10
-1086922.0
 20
699875.88453503605
 30
0.0
 11
-1086923.0
 21
699875.75953503605
 31
0.0
 12
-1086922.0
 22
699875.75953503605
 32
0.0
 13
-1086922.0
 23
699875.75953503605
 33
0.0
210
0.0
220
0.0
230
-1.0
  0
SOLID
  5
E1
  8
SCALE
  6
CONTINUOUS
 10
-1086922.0
 20
699875.88453503605
 30
0.0
 11
-1086923.0
 21
699875.88453503605
 31
0.0
 12
-1086923.0
 22
699875.75953503605
 32
0.0
 13
-1086923.0
 23
699875.75953503605
 33
0.0
210
0.0
220
0.0
230
-1.0
  0
LINE
  5
E2
  8
SCALE
  6
CONTINUOUS
 10
1086922.0
 20
699875.88453503605
 30
0.0
 11
1086923.0
 21
699875.75953503605
 31
0.0
  0
LINE
  5
E3
  8
SCALE
  6
CONTINUOUS
 10
1086923.0
 20
699875.88453503605
 30
0.0
 11
1086923.0
 21
699875.75953503605
 31
0.0
  0
ENDBLK
  5
E5
  8
0
  0
BLOCK
  8
0
  2
*U2
 70
     1
 10
0.0
 20
0.0
 30
0.0
  3
*U2
  1

  0
SOLID
  5
E7
  8
SCALE
  6
CONTINUOUS
 10
-1086921.0
 20
699876.00953503605
 30
0.0
 11
-1086922.0
 21
699875.88453503605
 31
0.0
 12
-1086921.0
 22
699875.88453503605
 32
0.0
 13
-1086921.0
 23
699875.88453503605
 33
0.0
210
0.0
220
0.0
230
-1.0
  0
SOLID
  5
E8
  8
SCALE
  6
CONTINUOUS
 10
-1086921.0
 20
699876.00953503605
 30
0.0
 11
-1086922.0
 21
699876.00953503605
 31
0.0
 12
-1086922.0
 22
699875.88453503605
 32
0.0
 13
-1086922.0
 23
699875.88453503605
 33
0.0
210
0.0
220
0.0
230
-1.0
  0
LINE
  5
E9
  8
SCALE
  6
CONTINUOUS
 10
1086921.0
 20
699876.00953503605
 30
0.0
 11
1086922.0
 21
699875.88453503605
 31
0.0
  0
LINE
  5
EA
  8
SCALE
  6
CONTINUOUS
 10
1086922.0
 20
699876.00953503605
 30
0.0
 11
1086922.0
 21
699875.88453503605
 31
0.0
  0
ENDBLK
  5
EC
  8
0
  0
BLOCK
  8
0
  2
*X3
 70
     1
 10
0.0
 20
0.0
 30
0.0
  3
*X3
  1

  0
LINE
  5
137
  8
0
 62
     0
 10
1086928.540764001
 20
699883.21076722373
 30
0.0
 11
1086928.3645782601
 21
699883.38695296436
 31
0.0
  0
LINE
  5
138
  8
0
 62
     0
 10
1086928.5414524931
 20
699883.09782552975
 30
0.0
 11
1086928.2422920209
 21
699883.39698600117
 31
0.0
  0
LINE
  5
139
  8
0
 62
     0
 10
1086928.515996949
 20
699883.01102787163
 30
0.0
 11
1086928.16226144
 21
699883.36476338084
 31
0.0
  0
LINE
  5
13A
  8
0
 62
     0
 10
1086928.4709609649
 20
699882.94381065504
 30
0.0
 11
1086928.107323797
 21
699883.30744782311
 31
0.0
  0
LINE
  5
13B
  8
0
 62
     0
 10
1086928.4163923559
 20
699882.88612606213
 30
0.0
 11
1086928.075516504
 21
699883.22700191429
 31
0.0
  0
LINE
  5
13C
  8
0
 62
     0
 10
1086928.329778525
 20
699882.86048669147
 30
0.0
 11
1086928.0614597381
 21
699883.12880547869
 31
0.0
  0
LINE
  5
13D
  8
0
 62
     0
 10
1086928.176583101
 20
699882.90142891393
 30
0.0
 11
1086928.068291741
 21
699883.0097202746
 31
0.0
  0
LINE
  5
13E
  8
0
 62
     0
 10
1086928.3800821931
 20
699882.86827268254
 30
0.0
 11
1086928.502453472
 21
699882.99064396205
 31
0.0
  0
LINE
  5
13F
  8
0
 62
     0
 10
1086928.2682144721
 20
699882.86865816335
 30
0.0
 11
1086928.546607069
 21
699883.14705076034
 31
0.0
  0
LINE
  5
140
  8
0
 62
     0
 10
1086928.1856118969
 20
699882.89830878959
 30
0.0
 11
1086928.5358815221
 21
699883.2485784149
 31
0.0
  0
LINE
  5
141
  8
0
 62
     0
 10
1086928.117391906
 20
699882.94234200008
 30
0.0
 11
1086928.503647154
 21
699883.32859724842
 31
0.0
  0
LINE
  5
142
  8
0
 62
     0
 10
1086928.0698595271
 20
699883.00706282258
 30
0.0
 11
1086928.4314526529
 21
699883.36865594855
 31
0.0
  0
LINE
  5
143
  8
0
 62
     0
 10
1086928.0603584261
 20
699883.10981492349
 30
0.0
 11
1086928.3416435651
 21
699883.39110006276
 31
0.0
  0
LINE
  5
144
  8
0
 62
     0
 10
1086928.0815381401
 20
699883.24324783916
 30
0.0
 11
1086928.233672552
 21
699883.39538225136
 31
0.0
  0
ENDBLK
  5
146
  8
0
  0
BLOCK
  8
0
  2
*X4
 70
     1
 10
0.0
 20
0.0
 30
0.0
  3
*X4
  1

  0
LINE
  5
17A
  8
0
 62
     0
 10
1086926.8904800131
 20
699880.59953027952
 30
0.0
 11
1086926.7884924849
 21
699880.70151780697
 31
0.0
  0
LINE
  5
17B
  8
0
 62
     0
 10
1086926.9131756041
 20
699880.46458148677
 30
0.0
 11
1086926.640060907
 21
699880.73769618408
 31
0.0
  0
LINE
  5
17C
  8
0
 62
     0
 10
1086926.887720061
 20
699880.37778382865
 30
0.0
 11
1086926.5340464469
 21
699880.73145744251
 31
0.0
  0
LINE
  5
17D
  8
0
 62
     0
 10
1086926.8426840759
 20
699880.31056661194
 30
0.0
 11
1086926.479046908
 21
699880.6742037799
 31
0.0
  0
LINE
  5
17E
  8
0
 62
     0
 10
1086926.7876732
 20
699880.25332428678
 30
0.0
 11
1086926.447239615
 21
699880.59375787119
 31
0.0
  0
LINE
  5
17F
  8
0
 62
     0
 10
1086926.692654025
 20
699880.23609026032
 30
0.0
 11
1086926.4331828491
 21
699880.49556143547
 31
0.0
  0
LINE
  5
180
  8
0
 62
     0
 10
1086926.5116225949
 20
699880.30486848846
 30
0.0
 11
1086926.4595461581
 21
699880.35694492538
 31
0.0
  0
LINE
  5
181
  8
0
 62
     0
 10
1086926.75938259
 20
699880.242605926
 30
0.0
 11
1086926.874176584
 21
699880.35739991895
 31
0.0
  0
LINE
  5
182
  8
0
 62
     0
 10
1086926.6512614321
 20
699880.24673796864
 30
0.0
 11
1086926.9130473479
 21
699880.50852388528
 31
0.0
  0
LINE
  5
183
  8
0
 62
     0
 10
1086926.570713327
 20
699880.2784430657
 30
0.0
 11
1086926.89076491
 21
699880.59849464847
 31
0.0
  0
LINE
  5
184
  8
0
 62
     0
 10
1086926.4967291071
 20
699880.31671204616
 30
0.0
 11
1086926.851052806
 21
699880.67103574565
 31
0.0
  0
LINE
  5
185
  8
0
 62
     0
 10
1086926.448163301
 20
699880.38039944263
 30
0.0
 11
1086926.774631287
 21
699880.70686742873
 31
0.0
  0
LINE
  5
186
  8
0
 62
     0
 10
1086926.432081538
 20
699880.47657088062
 30
0.0
 11
1086926.684318403
 21
699880.72880774655
 31
0.0
  0
LINE
  5
187
  8
0
 62
     0
 10
1086926.453261252
 20
699880.61000379606
 30
0.0
 11
1086926.587827672
 21
699880.74457021675
 31
0.0
  0
ENDBLK
  5
189
  8
0
  0
BLOCK
  8
0
  2
*U5
 70
     1
 10
0.0
 20
0.0
 30
0.0
  3
*U5
  1

  0
SOLID
  5
1AD
  8
RASGOS
  6
CONTINUOUS
 10
-1086928.9003844759
 20
699876.37984978664
 30
0.0
 11
-1086928.930763544
 21
699876.37694893731
 31
0.0
 12
-1086928.88533344
 22
699876.37694893731
 32
0.0
 13
-1086928.88533344
 23
699876.37694893731
 33
0.0
210
0.0
220
0.0
230
-1.0
  0
SOLID
  5
1AE
  8
RASGOS
  6
CONTINUOUS
 10
-1086928.9003844759
 20
699876.37984978664
 30
0.0
 11
-1086928.9157125091
 21
699876.37984978664
 31
0.0
 12
-1086928.930763544
 22
699876.37694893731
 32
0.0
 13
-1086928.930763544
 23
699876.37694893731
 33
0.0
210
0.0
220
0.0
230
-1.0
  0
SOLID
  5
1AF
  8
RASGOS
  6
CONTINUOUS
 10
-1086928.88533344
 20
699876.37694893731
 30
0.0
 11
-1086928.9449935979
 21
699876.3712520831
 31
0.0
 12
-1086928.8711033871
 22
699876.3712520831
 32
0.0
 13
-1086928.8711033871
 23
699876.3712520831
 33
0.0
210
0.0
220
0.0
230
-1.0
  0
SOLID
  5
1B0
  8
RASGOS
  6
CONTINUOUS
 10
-1086928.88533344
 20
699876.37694893731
 30
0.0
 11
-1086928.930763544
 21
699876.37694893731
 31
0.0
 12
-1086928.9449935979
 22
699876.3712520831
 32
0.0
 13
-1086928.9449935979
 23
699876.3712520831
 33
0.0
210
0.0
220
0.0
230
-1.0
  0
SOLID
  5
1B1
  8
RASGOS
  6
CONTINUOUS
 10
-1086928.8711033871
 20
699876.3712520831
 30
0.0
 11
-1086928.9578883599
 21
699876.3629651228
 31
0.0
 12
-1086928.8582086251
 22
699876.3629651228
 32
0.0
 13
-1086928.8582086251
 23
699876.3629651228
 33
0.0
210
0.0
220
0.0
230
-1.0
  0
SOLID
  5
1B2
  8
RASGOS
  6
CONTINUOUS
 10
-1086928.8711033871
 20
699876.3712520831
 30
0.0
 11
-1086928.9449935979
 21
699876.3712520831
 31
0.0
 12
-1086928.9578883599
 22
699876.3629651228
 32
0.0
 13
-1086928.9578883599
 23
699876.3629651228
 33
0.0
210
0.0
220
0.0
230
-1.0
  0
SOLID
  5
1B3
  8
RASGOS
  6
CONTINUOUS
 10
-1086928.8582086251
 20
699876.3629651228
 30
0.0
 11
-1086928.9689817789
 21
699876.35238756915
 31
0.0
 12
-1086928.8471152049
 22
699876.35238756915
 32
0.0
 13
-1086928.8471152049
 23
699876.35238756915
 33
0.0
210
0.0
220
0.0
230
-1.0
  0
SOLID
  5
1B4
  8
RASGOS
  6
CONTINUOUS
 10
-1086928.8582086251
 20
699876.3629651228
 30
0.0
 11
-1086928.9578883599
 21
699876.3629651228
 31
0.0
 12
-1086928.9689817789
 22
699876.35238756915
 32
0.0
 13
-1086928.9689817789
 23
699876.35238756915
 33
0.0
210
0.0
220
0.0
230
-1.0
  0
SOLID
  5
1B5
  8
RASGOS
  6
CONTINUOUS
 10
-1086928.8471152049
 20
699876.35238756915
 30
0.0
 11
-1086928.97787291
 21
699876.33990172215
 31
0.0
 12
-1086928.8382240741
 22
699876.33990172215
 32
0.0
 13
-1086928.8382240741
 23
699876.33990172215
 33
0.0
210
0.0
220
0.0
230
-1.0
  0
SOLID
  5
1B6
  8
RASGOS
  6
CONTINUOUS
 10
-1086928.8471152049
 20
699876.35238756915
 30
0.0
 11
-1086928.9689817789
 21
699876.35238756915
 31
0.0
 12
-1086928.97787291
 22
699876.33990172215
 32
0.0
 13
-1086928.97787291
 23
699876.33990172215
 33
0.0
210
0.0
220
0.0
230
-1.0
  0
SOLID
  5
1B7
  8
RASGOS
  6
CONTINUOUS
 10
-1086928.8382240741
 20
699876.33990172215
 30
0.0
 11
-1086928.984240405
 21
699876.32595885301
 31
0.0
 12
-1086928.8318565791
 22
699876.32595885301
 32
0.0
 13
-1086928.8318565791
 23
699876.32595885301
 33
0.0
210
0.0
220
0.0
230
-1.0
  0
SOLID
  5
1B8
  8
RASGOS
  6
CONTINUOUS
 10
-1086928.8382240741
 20
699876.33990172215
 30
0.0
 11
-1086928.97787291
 21
699876.33990172215
 31
0.0
 12
-1086928.984240405
 22
699876.32595885301
 32
0.0
 13
-1086928.984240405
 23
699876.32595885301
 33
0.0
210
0.0
220
0.0
230
-1.0
  0
SOLID
  5
1B9
  8
RASGOS
  6
CONTINUOUS
 10
-1086928.8318565791
 20
699876.32595885301
 30
0.0
 11
-1086928.9878541259
 21
699876.31106289325
 31
0.0
 12
-1086928.8282428591
 22
699876.31106289325
 32
0.0
 13
-1086928.8282428591
 23
699876.31106289325
 33
0.0
210
0.0
220
0.0
230
-1.0
  0
SOLID
  5
1BA
  8
RASGOS
  6
CONTINUOUS
 10
-1086928.8318565791
 20
699876.32595885301
 30
0.0
 11
-1086928.984240405
 21
699876.32595885301
 31
0.0
 12
-1086928.9878541259
 22
699876.31106289325
 32
0.0
 13
-1086928.9878541259
 23
699876.31106289325
 33
0.0
210
0.0
220
0.0
230
-1.0
  0
SOLID
  5
1BB
  8
RASGOS
  6
CONTINUOUS
 10
-1086928.8282428591
 20
699876.31106289325
 30
0.0
 11
-1086928.988583463
 21
699876.29575222195
 31
0.0
 12
-1086928.8275135211
 22
699876.29575222195
 32
0.0
 13
-1086928.8275135211
 23
699876.29575222195
 33
0.0
210
0.0
220
0.0
230
-1.0
  0
SOLID
  5
1BC
  8
RASGOS
  6
CONTINUOUS
 10
-1086928.8282428591
 20
699876.31106289325
 30
0.0
 11
-1086928.9878541259
 21
699876.31106289325
 31
0.0
 12
-1086928.988583463
 22
699876.29575222195
 32
0.0
 13
-1086928.988583463
 23
699876.29575222195
 33
0.0
210
0.0
220
0.0
230
-1.0
  0
SOLID
  5
1BD
  8
RASGOS
  6
CONTINUOUS
 10
-1086928.8275135211
 20
699876.29575222195
 30
0.0
 11
-1086928.9864020571
 21
699876.28058020631
 31
0.0
 12
-1086928.830582164
 22
699876.28058020631
 32
0.0
 13
-1086928.830582164
 23
699876.28058020631
 33
0.0
210
0.0
220
0.0
230
-1.0
  0
SOLID
  5
1BE
  8
RASGOS
  6
CONTINUOUS
 10
-1086928.8275135211
 20
699876.29575222195
 30
0.0
 11
-1086928.988583463
 21
699876.29575222195
 31
0.0
 12
-1086928.9864020571
 22
699876.28058020631
 32
0.0
 13
-1086928.9864020571
 23
699876.28058020631
 33
0.0
210
0.0
220
0.0
230
-1.0
  0
SOLID
  5
1BF
  8
RASGOS
  6
CONTINUOUS
 10
-1086928.830582164
 20
699876.28058020631
 30
0.0
 11
-1086928.985658962
 21
699876.27843317343
 31
0.0
 12
-1086928.831016416
 22
699876.27843317343
 32
0.0
 13
-1086928.831016416
 23
699876.27843317343
 33
0.0
210
0.0
220
0.0
230
-1.0
  0
SOLID
  5
1C0
  8
RASGOS
  6
CONTINUOUS
 10
-1086928.830582164
 20
699876.28058020631
 30
0.0
 11
-1086928.9864020571
 21
699876.28058020631
 31
0.0
 12
-1086928.985658962
 22
699876.27843317343
 32
0.0
 13
-1086928.985658962
 23
699876.27843317343
 33
0.0
210
0.0
220
0.0
230
-1.0
  0
SOLID
  5
1C1
  8
RASGOS
  6
CONTINUOUS
 10
-1086928.831016416
 20
699876.27843317343
 30
0.0
 11
-1086928.9813887479
 21
699876.26609520277
 31
0.0
 12
-1086928.8350835459
 22
699876.26609520277
 32
0.0
 13
-1086928.8350835459
 23
699876.26609520277
 33
0.0
210
0.0
220
0.0
230
-1.0
  0
SOLID
  5
1C2
  8
RASGOS
  6
CONTINUOUS
 10
-1086928.831016416
 20
699876.27843317343
 30
0.0
 11
-1086928.985658962
 21
699876.27843317343
 31
0.0
 12
-1086928.9813887479
 22
699876.26609520277
 32
0.0
 13
-1086928.9813887479
 23
699876.26609520277
 33
0.0
210
0.0
220
0.0
230
-1.0
  0
SOLID
  5
1C3
  8
RASGOS
  6
CONTINUOUS
 10
-1086928.8350835459
 20
699876.26609520277
 30
0.0
 11
-1086928.978214578
 21
699876.26059737767
 31
0.0
 12
-1086928.836895867
 22
699876.26059737767
 32
0.0
 13
-1086928.836895867
 23
699876.26059737767
 33
0.0
210
0.0
220
0.0
230
-1.0
  0
SOLID
  5
1C4
  8
RASGOS
  6
CONTINUOUS
 10
-1086928.8350835459
 20
699876.26609520277
 30
0.0
 11
-1086928.9813887479
 21
699876.26609520277
 31
0.0
 12
-1086928.978214578
 22
699876.26059737767
 32
0.0
 13
-1086928.978214578
 23
699876.26059737767
 33
0.0
210
0.0
220
0.0
230
-1.0
  0
SOLID
  5
1C5
  8
RASGOS
  6
CONTINUOUS
 10
-1086928.836895867
 20
699876.26059737767
 30
0.0
 11
-1086928.9737247319
 21
699876.25282073685
 31
0.0
 12
-1086928.8423573871
 22
699876.25282073685
 32
0.0
 13
-1086928.8423573871
 23
699876.25282073685
 33
0.0
210
0.0
220
0.0
230
-1.0
  0
SOLID
  5
1C6
  8
RASGOS
  6
CONTINUOUS
 10
-1086928.836895867
 20
699876.26059737767
 30
0.0
 11
-1086928.978214578
 21
699876.26059737767
 31
0.0
 12
-1086928.9737247319
 22
699876.25282073685
 32
0.0
 13
-1086928.9737247319
 23
699876.25282073685
 33
0.0
210
0.0
220
0.0
230
-1.0
  0
SOLID
  5
1C7
  8
RASGOS
  6
CONTINUOUS
 10
-1086928.8423573871
 20
699876.25282073685
 30
0.0
 11
-1086928.967835516
 21
699876.24602421932
 31
0.0
 12
-1086928.8471305671
 22
699876.24602421932
 32
0.0
 13
-1086928.8471305671
 23
699876.24602421932
 33
0.0
210
0.0
220
0.0
230
-1.0
  0
SOLID
  5
1C8
  8
RASGOS
  6
CONTINUOUS
 10
-1086928.8423573871
 20
699876.25282073685
 30
0.0
 11
-1086928.9737247319
 21
699876.25282073685
 31
0.0
 12
-1086928.967835516
 22
699876.24602421932
 32
0.0
 13
-1086928.967835516
 23
699876.24602421932
 33
0.0
210
0.0
220
0.0
230
-1.0
  0
SOLID
  5
1C9
  8
RASGOS
  6
CONTINUOUS
 10
-1086928.8471305671
 20
699876.24602421932
 30
0.0
 11
-1086928.963687005
 21
699876.24123658263
 31
0.0
 12
-1086928.8535865601
 22
699876.24123658263
 32
0.0
 13
-1086928.8535865601
 23
699876.24123658263
 33
0.0
210
0.0
220
0.0
230
-1.0
  0
SOLID
  5
1CA
  8
RASGOS
  6
CONTINUOUS
 10
-1086928.8471305671
 20
699876.24602421932
 30
0.0
 11
-1086928.967835516
 21
699876.24602421932
 31
0.0
 12
-1086928.963687005
 22
699876.24123658263
 32
0.0
 13
-1086928.963687005
 23
699876.24123658263
 33
0.0
210
0.0
220
0.0
230
-1.0
  0
SOLID
  5
1CB
  8
RASGOS
  6
CONTINUOUS
 10
-1086928.8535865601
 20
699876.24123658263
 30
0.0
 11
-1086928.9562222289
 21
699876.23536621768
 31
0.0
 12
-1086928.861502582
 22
699876.23536621768
 32
0.0
 13
-1086928.861502582
 23
699876.23536621768
 33
0.0
210
0.0
220
0.0
230
-1.0
  0
SOLID
  5
1CC
  8
RASGOS
  6
CONTINUOUS
 10
-1086928.8535865601
 20
699876.24123658263
 30
0.0
 11
-1086928.963687005
 21
699876.24123658263
 31
0.0
 12
-1086928.9562222289
 22
699876.23536621768
 32
0.0
 13
-1086928.9562222289
 23
699876.23536621768
 33
0.0
210
0.0
220
0.0
230
-1.0
  0
SOLID
  5
1CD
  8
RASGOS
  6
CONTINUOUS
 10
-1086928.861502582
 20
699876.23536621768
 30
0.0
 11
-1086928.951638357
 21
699876.23176142143
 31
0.0
 12
-1086928.865666758
 22
699876.23176142143
 32
0.0
 13
-1086928.865666758
 23
699876.23176142143
 33
0.0
210
0.0
220
0.0
230
-1.0
  0
SOLID
  5
1CE
  8
RASGOS
  6
CONTINUOUS
 10
-1086928.861502582
 20
699876.23536621768
 30
0.0
 11
-1086928.9562222289
 21
699876.23536621768
 31
0.0
 12
-1086928.951638357
 22
699876.23176142143
 32
0.0
 13
-1086928.951638357
 23
699876.23176142143
 33
0.0
210
0.0
220
0.0
230
-1.0
  0
SOLID
  5
1CF
  8
RASGOS
  6
CONTINUOUS
 10
-1086928.865666758
 20
699876.23176142143
 30
0.0
 11
-1086928.9421762109
 21
699876.22688334587
 31
0.0
 12
-1086928.8713017949
 22
699876.22688334587
 32
0.0
 13
-1086928.8713017949
 23
699876.22688334587
 33
0.0
210
0.0
220
0.0
230
-1.0
  0
SOLID
  5
1D0
  8
RASGOS
  6
CONTINUOUS
 10
-1086928.865666758
 20
699876.23176142143
 30
0.0
 11
-1086928.951638357
 21
699876.23176142143
 31
0.0
 12
-1086928.9421762109
 22
699876.22688334587
 32
0.0
 13
-1086928.9421762109
 23
699876.22688334587
 33
0.0
210
0.0
220
0.0
230
-1.0
  0
SOLID
  5
1D1
  8
RASGOS
  6
CONTINUOUS
 10
-1086928.8713017949
 20
699876.22688334587
 30
0.0
 11
-1086928.9380142579
 21
699876.2247377102
 31
0.0
 12
-1086928.8765185671
 22
699876.2247377102
 32
0.0
 13
-1086928.8765185671
 23
699876.2247377102
 33
0.0
210
0.0
220
0.0
230
-1.0
  0
SOLID
  5
1D2
  8
RASGOS
  6
CONTINUOUS
 10
-1086928.8713017949
 20
699876.22688334587
 30
0.0
 11
-1086928.9421762109
 21
699876.22688334587
 31
0.0
 12
-1086928.9380142579
 22
699876.2247377102
 32
0.0
 13
-1086928.9380142579
 23
699876.2247377102
 33
0.0
210
0.0
220
0.0
230
-1.0
  0
SOLID
  5
1D3
  8
RASGOS
  6
CONTINUOUS
 10
-1086928.8765185671
 20
699876.2247377102
 30
0.0
 11
-1086928.929765414
 21
699876.22231563088
 31
0.0
 12
-1086928.882407468
 22
699876.22231563088
 32
0.0
 13
-1086928.882407468
 23
699876.22231563088
 33
0.0
210
0.0
220
0.0
230
-1.0
  0
SOLID
  5
1D4
  8
RASGOS
  6
CONTINUOUS
 10
-1086928.8765185671
 20
699876.2247377102
 30
0.0
 11
-1086928.9380142579
 21
699876.2247377102
 31
0.0
 12
-1086928.929765414
 22
699876.22231563088
 32
0.0
 13
-1086928.929765414
 23
699876.22231563088
 33
0.0
210
0.0
220
0.0
230
-1.0
  0
SOLID
  5
1D5
  8
RASGOS
  6
CONTINUOUS
 10
-1086928.8927898661
 20
699876.22041930433
 30
0.0
 11
-1086928.923307118
 21
699876.22041930433
 31
0.0
 12
-1086928.9080484919
 22
699876.21896228218
 32
0.0
 13
-1086928.9080484919
 23
699876.21896228218
 33
0.0
210
0.0
220
0.0
230
-1.0
  0
SOLID
  5
1D6
  8
RASGOS
  6
CONTINUOUS
 10
-1086928.882407468
 20
699876.22231563088
 30
0.0
 11
-1086928.923307118
 21
699876.22041930433
 31
0.0
 12
-1086928.8927898661
 22
699876.22041930433
 32
0.0
 13
-1086928.8927898661
 23
699876.22041930433
 33
0.0
210
0.0
220
0.0
230
-1.0
  0
SOLID
  5
1D7
  8
RASGOS
  6
CONTINUOUS
 10
-1086928.882407468
 20
699876.22231563088
 30
0.0
 11
-1086928.929765414
 21
699876.22231563088
 31
0.0
 12
-1086928.923307118
 22
699876.22041930433
 32
0.0
 13
-1086928.923307118
 23
699876.22041930433
 33
0.0
210
0.0
220
0.0
230
-1.0
  0
LINE
  5
1D8
  8
RASGOS
  6
CONTINUOUS
 10
1086928.9003844759
 20
699876.37984978664
 30
0.0
 11
1086928.930763544
 21
699876.37694893731
 31
0.0
  0
LINE
  5
1D9
  8
RASGOS
  6
CONTINUOUS
 10
1086928.9157125091
 20
699876.37984978664
 30
0.0
 11
1086928.930763544
 21
699876.37694893731
 31
0.0
  0
LINE
  5
1DA
  8
RASGOS
  6
CONTINUOUS
 10
1086928.88533344
 20
699876.37694893731
 30
0.0
 11
1086928.9449935979
 21
699876.3712520831
 31
0.0
  0
LINE
  5
1DB
  8
RASGOS
  6
CONTINUOUS
 10
1086928.930763544
 20
699876.37694893731
 30
0.0
 11
1086928.9449935979
 21
699876.3712520831
 31
0.0
  0
LINE
  5
1DC
  8
RASGOS
  6
CONTINUOUS
 10
1086928.8711033871
 20
699876.3712520831
 30
0.0
 11
1086928.9578883599
 21
699876.3629651228
 31
0.0
  0
LINE
  5
1DD
  8
RASGOS
  6
CONTINUOUS
 10
1086928.9449935979
 20
699876.3712520831
 30
0.0
 11
1086928.9578883599
 21
699876.3629651228
 31
0.0
  0
LINE
  5
1DE
  8
RASGOS
  6
CONTINUOUS
 10
1086928.8582086251
 20
699876.3629651228
 30
0.0
 11
1086928.9689817789
 21
699876.35238756915
 31
0.0
  0
LINE
  5
1DF
  8
RASGOS
  6
CONTINUOUS
 10
1086928.9578883599
 20
699876.3629651228
 30
0.0
 11
1086928.9689817789
 21
699876.35238756915
 31
0.0
  0
LINE
  5
1E0
  8
RASGOS
  6
CONTINUOUS
 10
1086928.8471152049
 20
699876.35238756915
 30
0.0
 11
1086928.97787291
 21
699876.33990172215
 31
0.0
  0
LINE
  5
1E1
  8
RASGOS
  6
CONTINUOUS
 10
1086928.9689817789
 20
699876.35238756915
 30
0.0
 11
1086928.97787291
 21
699876.33990172215
 31
0.0
  0
LINE
  5
1E2
  8
RASGOS
  6
CONTINUOUS
 10
1086928.8382240741
 20
699876.33990172215
 30
0.0
 11
1086928.984240405
 21
699876.32595885301
 31
0.0
  0
LINE
  5
1E3
  8
RASGOS
  6
CONTINUOUS
 10
1086928.97787291
 20
699876.33990172215
 30
0.0
 11
1086928.984240405
 21
699876.32595885301
 31
0.0
  0
LINE
  5
1E4
  8
RASGOS
  6
CONTINUOUS
 10
1086928.8318565791
 20
699876.32595885301
 30
0.0
 11
1086928.9878541259
 21
699876.31106289325
 31
0.0
  0
LINE
  5
1E5
  8
RASGOS
  6
CONTINUOUS
 10
1086928.984240405
 20
699876.32595885301
 30
0.0
 11
1086928.9878541259
 21
699876.31106289325
 31
0.0
  0
LINE
  5
1E6
  8
RASGOS
  6
CONTINUOUS
 10
1086928.8282428591
 20
699876.31106289325
 30
0.0
 11
1086928.988583463
 21
699876.29575222195
 31
0.0
  0
LINE
  5
1E7
  8
RASGOS
  6
CONTINUOUS
 10
1086928.9878541259
 20
699876.31106289325
 30
0.0
 11
1086928.988583463
 21
699876.29575222195
 31
0.0
  0
LINE
  5
1E8
  8
RASGOS
  6
CONTINUOUS
 10
1086928.8275135211
 20
699876.29575222195
 30
0.0
 11
1086928.9864020571
 21
699876.28058020631
 31
0.0
  0
LINE
  5
1E9
  8
RASGOS
  6
CONTINUOUS
 10
1086928.988583463
 20
699876.29575222195
 30
0.0
 11
1086928.9864020571
 21
699876.28058020631
 31
0.0
  0
LINE
  5
1EA
  8
RASGOS
  6
CONTINUOUS
 10
1086928.830582164
 20
699876.28058020631
 30
0.0
 11
1086928.985658962
 21
699876.27843317343
 31
0.0
  0
LINE
  5
1EB
  8
RASGOS
  6
CONTINUOUS
 10
1086928.9864020571
 20
699876.28058020631
 30
0.0
 11
1086928.985658962
 21
699876.27843317343
 31
0.0
  0
LINE
  5
1EC
  8
RASGOS
  6
CONTINUOUS
 10
1086928.831016416
 20
699876.27843317343
 30
0.0
 11
1086928.9813887479
 21
699876.26609520277
 31
0.0
  0
LINE
  5
1ED
  8
RASGOS
  6
CONTINUOUS
 10
1086928.985658962
 20
699876.27843317343
 30
0.0
 11
1086928.9813887479
 21
699876.26609520277
 31
0.0
  0
LINE
  5
1EE
  8
RASGOS
  6
CONTINUOUS
 10
1086928.8350835459
 20
699876.26609520277
 30
0.0
 11
1086928.978214578
 21
699876.26059737767
 31
0.0
  0
LINE
  5
1EF
  8
RASGOS
  6
CONTINUOUS
 10
1086928.9813887479
 20
699876.26609520277
 30
0.0
 11
1086928.978214578
 21
699876.26059737767
 31
0.0
  0
LINE
  5
1F0
  8
RASGOS
  6
CONTINUOUS
 10
1086928.836895867
 20
699876.26059737767
 30
0.0
 11
1086928.9737247319
 21
699876.25282073685
 31
0.0
  0
LINE
  5
1F1
  8
RASGOS
  6
CONTINUOUS
 10
1086928.978214578
 20
699876.26059737767
 30
0.0
 11
1086928.9737247319
 21
699876.25282073685
 31
0.0
  0
LINE
  5
1F2
  8
RASGOS
  6
CONTINUOUS
 10
1086928.8423573871
 20
699876.25282073685
 30
0.0
 11
1086928.967835516
 21
699876.24602421932
 31
0.0
  0
LINE
  5
1F3
  8
RASGOS
  6
CONTINUOUS
 10
1086928.9737247319
 20
699876.25282073685
 30
0.0
 11
1086928.967835516
 21
699876.24602421932
 31
0.0
  0
LINE
  5
1F4
  8
RASGOS
  6
CONTINUOUS
 10
1086928.8471305671
 20
699876.24602421932
 30
0.0
 11
1086928.963687005
 21
699876.24123658263
 31
0.0
  0
LINE
  5
1F5
  8
RASGOS
  6
CONTINUOUS
 10
1086928.967835516
 20
699876.24602421932
 30
0.0
 11
1086928.963687005
 21
699876.24123658263
 31
0.0
  0
LINE
  5
1F6
  8
RASGOS
  6
CONTINUOUS
 10
1086928.8535865601
 20
699876.24123658263
 30
0.0
 11
1086928.9562222289
 21
699876.23536621768
 31
0.0
  0
LINE
  5
1F7
  8
RASGOS
  6
CONTINUOUS
 10
1086928.963687005
 20
699876.24123658263
 30
0.0
 11
1086928.9562222289
 21
699876.23536621768
 31
0.0
  0
LINE
  5
1F8
  8
RASGOS
  6
CONTINUOUS
 10
1086928.861502582
 20
699876.23536621768
 30
0.0
 11
1086928.951638357
 21
699876.23176142143
 31
0.0
  0
LINE
  5
1F9
  8
RASGOS
  6
CONTINUOUS
 10
1086928.9562222289
 20
699876.23536621768
 30
0.0
 11
1086928.951638357
 21
699876.23176142143
 31
0.0
  0
LINE
  5
1FA
  8
RASGOS
  6
CONTINUOUS
 10
1086928.865666758
 20
699876.23176142143
 30
0.0
 11
1086928.9421762109
 21
699876.22688334587
 31
0.0
  0
LINE
  5
1FB
  8
RASGOS
  6
CONTINUOUS
 10
1086928.951638357
 20
699876.23176142143
 30
0.0
 11
1086928.9421762109
 21
699876.22688334587
 31
0.0
  0
LINE
  5
1FC
  8
RASGOS
  6
CONTINUOUS
 10
1086928.8713017949
 20
699876.22688334587
 30
0.0
 11
1086928.9380142579
 21
699876.2247377102
 31
0.0
  0
LINE
  5
1FD
  8
RASGOS
  6
CONTINUOUS
 10
1086928.9421762109
 20
699876.22688334587
 30
0.0
 11
1086928.9380142579
 21
699876.2247377102
 31
0.0
  0
LINE
  5
1FE
  8
RASGOS
  6
CONTINUOUS
 10
1086928.8765185671
 20
699876.2247377102
 30
0.0
 11
1086928.929765414
 21
699876.22231563088
 31
0.0
  0
LINE
  5
1FF
  8
RASGOS
  6
CONTINUOUS
 10
1086928.9380142579
 20
699876.2247377102
 30
0.0
 11
1086928.929765414
 21
699876.22231563088
 31
0.0
  0
LINE
  5
200
  8
RASGOS
  6
CONTINUOUS
 10
1086928.923307118
 20
699876.22041930433
 30
0.0
 11
1086928.9080484919
 21
699876.21896228218
 31
0.0
  0
LINE
  5
201
  8
RASGOS
  6
CONTINUOUS
 10
1086928.9080484919
 20
699876.21896228218
 30
0.0
 11
1086928.8927898661
 21
699876.22041930433
 31
0.0
  0
LINE
  5
202
  8
RASGOS
  6
CONTINUOUS
 10
1086928.882407468
 20
699876.22231563088
 30
0.0
 11
1086928.923307118
 21
699876.22041930433
 31
0.0
  0
LINE
  5
203
  8
RASGOS
  6
CONTINUOUS
 10
1086928.929765414
 20
699876.22231563088
 30
0.0
 11
1086928.923307118
 21
699876.22041930433
 31
0.0
  0
ENDBLK
  5
205
  8
0
  0
BLOCK
  8
0
  2
*U6
 70
     1
 10
0.0
 20
0.0
 30
0.0
  3
*U6
  1

  0
SOLID
  5
229
  8
RASGOS
  6
CONTINUOUS
 10
-1086928.1555015091
 20
699876.88825339393
 30
0.0
 11
-1086928.1620949821
 21
699876.88699208386
 31
0.0
 12
-1086928.1388749969
 22
699876.88699208386
 32
0.0
 13
-1086928.1388749969
 23
699876.88699208386
 33
0.0
210
0.0
220
0.0
230
-1.0
  0
SOLID
  5
22A
  8
RASGOS
  6
CONTINUOUS
 10
-1086928.1388749969
 20
699876.88699208386
 30
0.0
 11
-1086928.172519776
 21
699876.88499785482
 31
0.0
 12
-1086928.130888995
 22
699876.88499785482
 32
0.0
 13
-1086928.130888995
 23
699876.88499785482
 33
0.0
210
0.0
220
0.0
230
-1.0
  0
SOLID
  5
22B
  8
RASGOS
  6
CONTINUOUS
 10
-1086928.1388749969
 20
699876.88699208386
 30
0.0
 11
-1086928.1620949821
 21
699876.88699208386
 31
0.0
 12
-1086928.172519776
 22
699876.88499785482
 32
0.0
 13
-1086928.172519776
 23
699876.88499785482
 33
0.0
210
0.0
220
0.0
230
-1.0
  0
SOLID
  5
22C
  8
RASGOS
  6
CONTINUOUS
 10
-1086928.130888995
 20
699876.88499785482
 30
0.0
 11
-1086928.177108651
 21
699876.88299785252
 31
0.0
 12
-1086928.1228798749
 22
699876.88299785252
 32
0.0
 13
-1086928.1228798749
 23
699876.88299785252
 33
0.0
210
0.0
220
0.0
230
-1.0
  0
SOLID
  5
22D
  8
RASGOS
  6
CONTINUOUS
 10
-1086928.130888995
 20
699876.88499785482
 30
0.0
 11
-1086928.172519776
 21
699876.88499785482
 31
0.0
 12
-1086928.177108651
 22
699876.88299785252
 32
0.0
 13
-1086928.177108651
 23
699876.88299785252
 33
0.0
210
0.0
220
0.0
230
-1.0
  0
SOLID
  5
22E
  8
RASGOS
  6
CONTINUOUS
 10
-1086928.1228798749
 20
699876.88299785252
 30
0.0
 11
-1086928.184474359
 21
699876.87978760328
 31
0.0
 12
-1086928.1172784269
 22
699876.87978760328
 32
0.0
 13
-1086928.1172784269
 23
699876.87978760328
 33
0.0
210
0.0
220
0.0
230
-1.0
  0
SOLID
  5
22F
  8
RASGOS
  6
CONTINUOUS
 10
-1086928.1228798749
 20
699876.88299785252
 30
0.0
 11
-1086928.177108651
 21
699876.88299785252
 31
0.0
 12
-1086928.184474359
 22
699876.87978760328
 32
0.0
 13
-1086928.184474359
 23
699876.87978760328
 33
0.0
210
0.0
220
0.0
230
-1.0
  0
SOLID
  5
230
  8
RASGOS
  6
CONTINUOUS
 10
-1086928.1172784269
 20
699876.87978760328
 30
0.0
 11
-1086928.1910570799
 21
699876.87564010208
 31
0.0
 12
-1086928.1100416009
 22
699876.87564010208
 32
0.0
 13
-1086928.1100416009
 23
699876.87564010208
 33
0.0
210
0.0
220
0.0
230
-1.0
  0
SOLID
  5
231
  8
RASGOS
  6
CONTINUOUS
 10
-1086928.1172784269
 20
699876.87978760328
 30
0.0
 11
-1086928.184474359
 21
699876.87978760328
 31
0.0
 12
-1086928.1910570799
 22
699876.87564010208
 32
0.0
 13
-1086928.1910570799
 23
699876.87564010208
 33
0.0
210
0.0
220
0.0
230
-1.0
  0
SOLID
  5
232
  8
RASGOS
  6
CONTINUOUS
 10
-1086928.1100416009
 20
699876.87564010208
 30
0.0
 11
-1086928.198601573
 21
699876.87088662805
 31
0.0
 12
-1086928.10366036
 22
699876.87088662805
 32
0.0
 13
-1086928.10366036
 23
699876.87088662805
 33
0.0
210
0.0
220
0.0
230
-1.0
  0
SOLID
  5
233
  8
RASGOS
  6
CONTINUOUS
 10
-1086928.1100416009
 20
699876.87564010208
 30
0.0
 11
-1086928.1910570799
 21
699876.87564010208
 31
0.0
 12
-1086928.198601573
 22
699876.87088662805
 32
0.0
 13
-1086928.198601573
 23
699876.87088662805
 33
0.0
210
0.0
220
0.0
230
-1.0
  0
SOLID
  5
234
  8
RASGOS
  6
CONTINUOUS
 10
-1086928.10366036
 20
699876.87088662805
 30
0.0
 11
-1086928.2054094831
 21
699876.86639036785
 31
0.0
 12
-1086928.097624413
 22
699876.86639036785
 32
0.0
 13
-1086928.097624413
 23
699876.86639036785
 33
0.0
210
0.0
220
0.0
230
-1.0
  0
SOLID
  5
235
  8
RASGOS
  6
CONTINUOUS
 10
-1086928.10366036
 20
699876.87088662805
 30
0.0
 11
-1086928.198601573
 21
699876.87088662805
 31
0.0
 12
-1086928.2054094831
 22
699876.86639036785
 32
0.0
 13
-1086928.2054094831
 23
699876.86639036785
 33
0.0
210
0.0
220
0.0
230
-1.0
  0
SOLID
  5
236
  8
RASGOS
  6
CONTINUOUS
 10
-1086928.097624413
 20
699876.86639036785
 30
0.0
 11
-1086928.2097281029
 21
699876.86353815056
 31
0.0
 12
-1086928.095067898
 22
699876.86353815056
 32
0.0
 13
-1086928.095067898
 23
699876.86353815056
 33
0.0
210
0.0
220
0.0
230
-1.0
  0
SOLID
  5
237
  8
RASGOS
  6
CONTINUOUS
 10
-1086928.097624413
 20
699876.86639036785
 30
0.0
 11
-1086928.2054094831
 21
699876.86639036785
 31
0.0
 12
-1086928.2097281029
 22
699876.86353815056
 32
0.0
 13
-1086928.2097281029
 23
699876.86353815056
 33
0.0
210
0.0
220
0.0
230
-1.0
  0
SOLID
  5
238
  8
RASGOS
  6
CONTINUOUS
 10
-1086928.095067898
 20
699876.86353815056
 30
0.0
 11
-1086928.2143122661
 21
699876.85726824496
 31
0.0
 12
-1086928.089448021
 22
699876.85726824496
 32
0.0
 13
-1086928.089448021
 23
699876.85726824496
 33
0.0
210
0.0
220
0.0
230
-1.0
  0
SOLID
  5
239
  8
RASGOS
  6
CONTINUOUS
 10
-1086928.095067898
 20
699876.86353815056
 30
0.0
 11
-1086928.2097281029
 21
699876.86353815056
 31
0.0
 12
-1086928.2143122661
 22
699876.85726824496
 32
0.0
 13
-1086928.2143122661
 23
699876.85726824496
 33
0.0
210
0.0
220
0.0
230
-1.0
  0
SOLID
  5
23A
  8
RASGOS
  6
CONTINUOUS
 10
-1086928.089448021
 20
699876.85726824496
 30
0.0
 11
-1086928.2187180819
 21
699876.85124227044
 31
0.0
 12
-1086928.085939914
 22
699876.85124227044
 32
0.0
 13
-1086928.085939914
 23
699876.85124227044
 33
0.0
210
0.0
220
0.0
230
-1.0
  0
SOLID
  5
23B
  8
RASGOS
  6
CONTINUOUS
 10
-1086928.089448021
 20
699876.85726824496
 30
0.0
 11
-1086928.2143122661
 21
699876.85726824496
 31
0.0
 12
-1086928.2187180819
 22
699876.85124227044
 32
0.0
 13
-1086928.2187180819
 23
699876.85124227044
 33
0.0
210
0.0
220
0.0
230
-1.0
  0
SOLID
  5
23C
  8
RASGOS
  6
CONTINUOUS
 10
-1086928.085939914
 20
699876.85124227044
 30
0.0
 11
-1086928.2223829189
 21
699876.84347621806
 31
0.0
 12
-1086928.081418796
 22
699876.84347621806
 32
0.0
 13
-1086928.081418796
 23
699876.84347621806
 33
0.0
210
0.0
220
0.0
230
-1.0
  0
SOLID
  5
23D
  8
RASGOS
  6
CONTINUOUS
 10
-1086928.085939914
 20
699876.85124227044
 30
0.0
 11
-1086928.2187180819
 21
699876.85124227044
 31
0.0
 12
-1086928.2223829189
 22
699876.84347621806
 32
0.0
 13
-1086928.2223829189
 23
699876.84347621806
 33
0.0
210
0.0
220
0.0
230
-1.0
  0
SOLID
  5
23E
  8
RASGOS
  6
CONTINUOUS
 10
-1086928.081418796
 20
699876.84347621806
 30
0.0
 11
-1086928.225218589
 21
699876.83746722795
 31
0.0
 12
-1086928.0795813219
 22
699876.83746722795
 32
0.0
 13
-1086928.0795813219
 23
699876.83746722795
 33
0.0
210
0.0
220
0.0
230
-1.0
  0
SOLID
  5
23F
  8
RASGOS
  6
CONTINUOUS
 10
-1086928.081418796
 20
699876.84347621806
 30
0.0
 11
-1086928.2223829189
 21
699876.84347621806
 31
0.0
 12
-1086928.225218589
 22
699876.83746722795
 32
0.0
 13
-1086928.225218589
 23
699876.83746722795
 33
0.0
210
0.0
220
0.0
230
-1.0
  0
SOLID
  5
240
  8
RASGOS
  6
CONTINUOUS
 10
-1086928.0795813219
 20
699876.83746722795
 30
0.0
 11
-1086928.2269818799
 21
699876.83057657711
 31
0.0
 12
-1086928.077474246
 22
699876.83057657711
 32
0.0
 13
-1086928.077474246
 23
699876.83057657711
 33
0.0
210
0.0
220
0.0
230
-1.0
  0
SOLID
  5
241
  8
RASGOS
  6
CONTINUOUS
 10
-1086928.0795813219
 20
699876.83746722795
 30
0.0
 11
-1086928.225218589
 21
699876.83746722795
 31
0.0
 12
-1086928.2269818799
 22
699876.83057657711
 32
0.0
 13
-1086928.2269818799
 23
699876.83057657711
 33
0.0
210
0.0
220
0.0
230
-1.0
  0
SOLID
  5
242
  8
RASGOS
  6
CONTINUOUS
 10
-1086928.077474246
 20
699876.83057657711
 30
0.0
 11
-1086928.2289946801
 21
699876.82271088974
 31
0.0
 12
-1086928.0752694351
 22
699876.82271088974
 32
0.0
 13
-1086928.0752694351
 23
699876.82271088974
 33
0.0
210
0.0
220
0.0
230
-1.0
  0
SOLID
  5
243
  8
RASGOS
  6
CONTINUOUS
 10
-1086928.077474246
 20
699876.83057657711
 30
0.0
 11
-1086928.2269818799
 21
699876.83057657711
 31
0.0
 12
-1086928.2289946801
 22
699876.82271088974
 32
0.0
 13
-1086928.2289946801
 23
699876.82271088974
 33
0.0
210
0.0
220
0.0
230
-1.0
  0
SOLID
  5
244
  8
RASGOS
  6
CONTINUOUS
 10
-1086928.0752694351
 20
699876.82271088974
 30
0.0
 11
-1086928.22930118
 21
699876.8176189604
 31
0.0
 12
-1086928.073842128
 22
699876.8176189604
 32
0.0
 13
-1086928.073842128
 23
699876.8176189604
 33
0.0
210
0.0
220
0.0
230
-1.0
  0
SOLID
  5
245
  8
RASGOS
  6
CONTINUOUS
 10
-1086928.0752694351
 20
699876.82271088974
 30
0.0
 11
-1086928.2289946801
 21
699876.82271088974
 31
0.0
 12
-1086928.22930118
 22
699876.8176189604
 32
0.0
 13
-1086928.22930118
 23
699876.8176189604
 33
0.0
210
0.0
220
0.0
230
-1.0
  0
SOLID
  5
246
  8
RASGOS
  6
CONTINUOUS
 10
-1086928.073842128
 20
699876.8176189604
 30
0.0
 11
-1086928.2299098771
 21
699876.80750658747
 31
0.0
 12
-1086928.073395788
 22
699876.80750658747
 32
0.0
 13
-1086928.073395788
 23
699876.80750658747
 33
0.0
210
0.0
220
0.0
230
-1.0
  0
SOLID
  5
247
  8
RASGOS
  6
CONTINUOUS
 10
-1086928.073842128
 20
699876.8176189604
 30
0.0
 11
-1086928.22930118
 21
699876.8176189604
 31
0.0
 12
-1086928.2299098771
 22
699876.80750658747
 32
0.0
 13
-1086928.2299098771
 23
699876.80750658747
 33
0.0
210
0.0
220
0.0
230
-1.0
  0
SOLID
  5
248
  8
RASGOS
  6
CONTINUOUS
 10
-1086928.073395788
 20
699876.80750658747
 30
0.0
 11
-1086928.2295774741
 21
699876.80496956909
 31
0.0
 12
-1086928.0732838081
 22
699876.80496956909
 32
0.0
 13
-1086928.0732838081
 23
699876.80496956909
 33
0.0
210
0.0
220
0.0
230
-1.0
  0
SOLID
  5
249
  8
RASGOS
  6
CONTINUOUS
 10
-1086928.073395788
 20
699876.80750658747
 30
0.0
 11
-1086928.2299098771
 21
699876.80750658747
 31
0.0
 12
-1086928.2295774741
 22
699876.80496956909
 32
0.0
 13
-1086928.2295774741
 23
699876.80496956909
 33
0.0
210
0.0
220
0.0
230
-1.0
  0
SOLID
  5
24A
  8
RASGOS
  6
CONTINUOUS
 10
-1086928.0732838081
 20
699876.80496956909
 30
0.0
 11
-1086928.2279311011
 21
699876.79240384477
 31
0.0
 12
-1086928.073702815
 22
699876.79240384477
 32
0.0
 13
-1086928.073702815
 23
699876.79240384477
 33
0.0
210
0.0
220
0.0
230
-1.0
  0
SOLID
  5
24B
  8
RASGOS
  6
CONTINUOUS
 10
-1086928.0732838081
 20
699876.80496956909
 30
0.0
 11
-1086928.2295774741
 21
699876.80496956909
 31
0.0
 12
-1086928.2279311011
 22
699876.79240384477
 32
0.0
 13
-1086928.2279311011
 23
699876.79240384477
 33
0.0
210
0.0
220
0.0
230
-1.0
  0
SOLID
  5
24C
  8
RASGOS
  6
CONTINUOUS
 10
-1086928.073702815
 20
699876.79240384477
 30
0.0
 11
-1086928.2271978999
 21
699876.79019635485
 31
0.0
 12
-1086928.0737764251
 22
699876.79019635485
 32
0.0
 13
-1086928.0737764251
 23
699876.79019635485
 33
0.0
210
0.0
220
0.0
230
-1.0
  0
SOLID
  5
24D
  8
RASGOS
  6
CONTINUOUS
 10
-1086928.073702815
 20
699876.79240384477
 30
0.0
 11
-1086928.2279311011
 21
699876.79240384477
 31
0.0
 12
-1086928.2271978999
 22
699876.79019635485
 32
0.0
 13
-1086928.2271978999
 23
699876.79019635485
 33
0.0
210
0.0
220
0.0
230
-1.0
  0
SOLID
  5
24E
  8
RASGOS
  6
CONTINUOUS
 10
-1086928.0737764251
 20
699876.79019635485
 30
0.0
 11
-1086928.223129872
 21
699876.77794851409
 31
0.0
 12
-1086928.076913964
 22
699876.77794851409
 32
0.0
 13
-1086928.076913964
 23
699876.77794851409
 33
0.0
210
0.0
220
0.0
230
-1.0
  0
SOLID
  5
24F
  8
RASGOS
  6
CONTINUOUS
 10
-1086928.0737764251
 20
699876.79019635485
 30
0.0
 11
-1086928.2271978999
 21
699876.79019635485
 31
0.0
 12
-1086928.223129872
 22
699876.77794851409
 32
0.0
 13
-1086928.223129872
 23
699876.77794851409
 33
0.0
210
0.0
220
0.0
230
-1.0
  0
SOLID
  5
250
  8
RASGOS
  6
CONTINUOUS
 10
-1086928.076913964
 20
699876.77794851409
 30
0.0
 11
-1086928.2221064649
 21
699876.77612352651
 31
0.0
 12
-1086928.077381473
 22
699876.77612352651
 32
0.0
 13
-1086928.077381473
 23
699876.77612352651
 33
0.0
210
0.0
220
0.0
230
-1.0
  0
SOLID
  5
251
  8
RASGOS
  6
CONTINUOUS
 10
-1086928.076913964
 20
699876.77794851409
 30
0.0
 11
-1086928.223129872
 21
699876.77794851409
 31
0.0
 12
-1086928.2221064649
 22
699876.77612352651
 32
0.0
 13
-1086928.2221064649
 23
699876.77612352651
 33
0.0
210
0.0
220
0.0
230
-1.0
  0
SOLID
  5
252
  8
RASGOS
  6
CONTINUOUS
 10
-1086928.077381473
 20
699876.77612352651
 30
0.0
 11
-1086928.2156797191
 21
699876.76466304855
 31
0.0
 12
-1086928.0841909121
 22
699876.76466304855
 32
0.0
 13
-1086928.0841909121
 23
699876.76466304855
 33
0.0
210
0.0
220
0.0
230
-1.0
  0
SOLID
  5
253
  8
RASGOS
  6
CONTINUOUS
 10
-1086928.077381473
 20
699876.77612352651
 30
0.0
 11
-1086928.2221064649
 21
699876.77612352651
 31
0.0
 12
-1086928.2156797191
 22
699876.76466304855
 32
0.0
 13
-1086928.2156797191
 23
699876.76466304855
 33
0.0
210
0.0
220
0.0
230
-1.0
  0
SOLID
  5
254
  8
RASGOS
  6
CONTINUOUS
 10
-1086928.0841909121
 20
699876.76466304855
 30
0.0
 11
-1086928.214299053
 21
699876.76302877127
 31
0.0
 12
-1086928.085161946
 22
699876.76302877127
 32
0.0
 13
-1086928.085161946
 23
699876.76302877127
 33
0.0
210
0.0
220
0.0
230
-1.0
  0
SOLID
  5
255
  8
RASGOS
  6
CONTINUOUS
 10
-1086928.0841909121
 20
699876.76466304855
 30
0.0
 11
-1086928.2156797191
 21
699876.76466304855
 31
0.0
 12
-1086928.214299053
 22
699876.76302877127
 32
0.0
 13
-1086928.214299053
 23
699876.76302877127
 33
0.0
210
0.0
220
0.0
230
-1.0
  0
SOLID
  5
256
  8
RASGOS
  6
CONTINUOUS
 10
-1086928.085161946
 20
699876.76302877127
 30
0.0
 11
-1086928.2058499081
 21
699876.75302761956
 31
0.0
 12
-1086928.094049654
 22
699876.75302761956
 32
0.0
 13
-1086928.094049654
 23
699876.75302761956
 33
0.0
210
0.0
220
0.0
230
-1.0
  0
SOLID
  5
257
  8
RASGOS
  6
CONTINUOUS
 10
-1086928.085161946
 20
699876.76302877127
 30
0.0
 11
-1086928.214299053
 21
699876.76302877127
 31
0.0
 12
-1086928.2058499081
 22
699876.75302761956
 32
0.0
 13
-1086928.2058499081
 23
699876.75302761956
 33
0.0
210
0.0
220
0.0
230
-1.0
  0
SOLID
  5
258
  8
RASGOS
  6
CONTINUOUS
 10
-1086928.094049654
 20
699876.75302761956
 30
0.0
 11
-1086928.2041340291
 21
699876.7516431195
 31
0.0
 12
-1086928.0952800149
 22
699876.7516431195
 32
0.0
 13
-1086928.0952800149
 23
699876.7516431195
 33
0.0
210
0.0
220
0.0
230
-1.0
  0
SOLID
  5
259
  8
RASGOS
  6
CONTINUOUS
 10
-1086928.094049654
 20
699876.75302761956
 30
0.0
 11
-1086928.2058499081
 21
699876.75302761956
 31
0.0
 12
-1086928.2041340291
 22
699876.7516431195
 32
0.0
 13
-1086928.2041340291
 23
699876.7516431195
 33
0.0
210
0.0
220
0.0
230
-1.0
  0
SOLID
  5
25A
  8
RASGOS
  6
CONTINUOUS
 10
-1086928.0952800149
 20
699876.7516431195
 30
0.0
 11
-1086928.1939957149
 21
699876.74346276198
 31
0.0
 12
-1086928.1059545809
 22
699876.74346276198
 32
0.0
 13
-1086928.1059545809
 23
699876.74346276198
 33
0.0
210
0.0
220
0.0
230
-1.0
  0
SOLID
  5
25B
  8
RASGOS
  6
CONTINUOUS
 10
-1086928.0952800149
 20
699876.7516431195
 30
0.0
 11
-1086928.2041340291
 21
699876.7516431195
 31
0.0
 12
-1086928.1939957149
 22
699876.74346276198
 32
0.0
 13
-1086928.1939957149
 23
699876.74346276198
 33
0.0
210
0.0
220
0.0
230
-1.0
  0
SOLID
  5
25C
  8
RASGOS
  6
CONTINUOUS
 10
-1086928.1059545809
 20
699876.74346276198
 30
0.0
 11
-1086928.191954873
 21
699876.74237807852
 31
0.0
 12
-1086928.1073699871
 22
699876.74237807852
 32
0.0
 13
-1086928.1073699871
 23
699876.74237807852
 33
0.0
210
0.0
220
0.0
230
-1.0
  0
SOLID
  5
25D
  8
RASGOS
  6
CONTINUOUS
 10
-1086928.1059545809
 20
699876.74346276198
 30
0.0
 11
-1086928.1939957149
 21
699876.74346276198
 31
0.0
 12
-1086928.191954873
 22
699876.74237807852
 32
0.0
 13
-1086928.191954873
 23
699876.74237807852
 33
0.0
210
0.0
220
0.0
230
-1.0
  0
SOLID
  5
25E
  8
RASGOS
  6
CONTINUOUS
 10
-1086928.1073699871
 20
699876.74237807852
 30
0.0
 11
-1086928.180545581
 21
699876.73631417437
 31
0.0
 12
-1086928.1195029379
 22
699876.73631417437
 32
0.0
 13
-1086928.1195029379
 23
699876.73631417437
 33
0.0
210
0.0
220
0.0
230
-1.0
  0
SOLID
  5
25F
  8
RASGOS
  6
CONTINUOUS
 10
-1086928.1073699871
 20
699876.74237807852
 30
0.0
 11
-1086928.191954873
 21
699876.74237807852
 31
0.0
 12
-1086928.180545581
 22
699876.73631417437
 32
0.0
 13
-1086928.180545581
 23
699876.73631417437
 33
0.0
210
0.0
220
0.0
230
-1.0
  0
SOLID
  5
260
  8
RASGOS
  6
CONTINUOUS
 10
-1086928.1195029379
 20
699876.73631417437
 30
0.0
 11
-1086928.178118906
 21
699876.73556851095
 31
0.0
 12
-1086928.1209948971
 22
699876.73556851095
 32
0.0
 13
-1086928.1209948971
 23
699876.73556851095
 33
0.0
210
0.0
220
0.0
230
-1.0
  0
SOLID
  5
261
  8
RASGOS
  6
CONTINUOUS
 10
-1086928.1195029379
 20
699876.73631417437
 30
0.0
 11
-1086928.180545581
 21
699876.73631417437
 31
0.0
 12
-1086928.178118906
 22
699876.73556851095
 32
0.0
 13
-1086928.178118906
 23
699876.73556851095
 33
0.0
210
0.0
220
0.0
230
-1.0
  0
SOLID
  5
262
  8
RASGOS
  6
CONTINUOUS
 10
-1086928.1209948971
 20
699876.73556851095
 30
0.0
 11
-1086928.1659856311
 21
699876.73184022575
 31
0.0
 12
-1086928.1343066229
 22
699876.73184022575
 32
0.0
 13
-1086928.1343066229
 23
699876.73184022575
 33
0.0
210
0.0
220
0.0
230
-1.0
  0
SOLID
  5
263
  8
RASGOS
  6
CONTINUOUS
 10
-1086928.1209948971
 20
699876.73556851095
 30
0.0
 11
-1086928.178118906
 21
699876.73556851095
 31
0.0
 12
-1086928.1659856311
 22
699876.73184022575
 32
0.0
 13
-1086928.1659856311
 23
699876.73184022575
 33
0.0
210
0.0
220
0.0
230
-1.0
  0
SOLID
  5
264
  8
RASGOS
  6
CONTINUOUS
 10
-1086928.1356623061
 20
699876.73146053229
 30
0.0
 11
-1086928.1624744779
 21
699876.73146053229
 31
0.0
 12
-1086928.1508420969
 22
699876.73020261584
 32
0.0
 13
-1086928.1508420969
 23
699876.73020261584
 33
0.0
210
0.0
220
0.0
230
-1.0
  0
SOLID
  5
265
  8
RASGOS
  6
CONTINUOUS
 10
-1086928.1343066229
 20
699876.73184022575
 30
0.0
 11
-1086928.1624744779
 21
699876.73146053229
 31
0.0
 12
-1086928.1356623061
 22
699876.73146053229
 32
0.0
 13
-1086928.1356623061
 23
699876.73146053229
 33
0.0
210
0.0
220
0.0
230
-1.0
  0
SOLID
  5
266
  8
RASGOS
  6
CONTINUOUS
 10
-1086928.1343066229
 20
699876.73184022575
 30
0.0
 11
-1086928.1659856311
 21
699876.73184022575
 31
0.0
 12
-1086928.1624744779
 22
699876.73146053229
 32
0.0
 13
-1086928.1624744779
 23
699876.73146053229
 33
0.0
210
0.0
220
0.0
230
-1.0
  0
LINE
  5
267
  8
RASGOS
  6
CONTINUOUS
 10
1086928.1555015091
 20
699876.88825339393
 30
0.0
 11
1086928.1620949821
 21
699876.88699208386
 31
0.0
  0
LINE
  5
268
  8
RASGOS
  6
CONTINUOUS
 10
1086928.1388749969
 20
699876.88699208386
 30
0.0
 11
1086928.1555015091
 21
699876.88825339393
 31
0.0
  0
LINE
  5
269
  8
RASGOS
  6
CONTINUOUS
 10
1086928.1388749969
 20
699876.88699208386
 30
0.0
 11
1086928.172519776
 21
699876.88499785482
 31
0.0
  0
LINE
  5
26A
  8
RASGOS
  6
CONTINUOUS
 10
1086928.1620949821
 20
699876.88699208386
 30
0.0
 11
1086928.172519776
 21
699876.88499785482
 31
0.0
  0
LINE
  5
26B
  8
RASGOS
  6
CONTINUOUS
 10
1086928.130888995
 20
699876.88499785482
 30
0.0
 11
1086928.177108651
 21
699876.88299785252
 31
0.0
  0
LINE
  5
26C
  8
RASGOS
  6
CONTINUOUS
 10
1086928.172519776
 20
699876.88499785482
 30
0.0
 11
1086928.177108651
 21
699876.88299785252
 31
0.0
  0
LINE
  5
26D
  8
RASGOS
  6
CONTINUOUS
 10
1086928.1228798749
 20
699876.88299785252
 30
0.0
 11
1086928.184474359
 21
699876.87978760328
 31
0.0
  0
LINE
  5
26E
  8
RASGOS
  6
CONTINUOUS
 10
1086928.177108651
 20
699876.88299785252
 30
0.0
 11
1086928.184474359
 21
699876.87978760328
 31
0.0
  0
LINE
  5
26F
  8
RASGOS
  6
CONTINUOUS
 10
1086928.1172784269
 20
699876.87978760328
 30
0.0
 11
1086928.1910570799
 21
699876.87564010208
 31
0.0
  0
LINE
  5
270
  8
RASGOS
  6
CONTINUOUS
 10
1086928.184474359
 20
699876.87978760328
 30
0.0
 11
1086928.1910570799
 21
699876.87564010208
 31
0.0
  0
LINE
  5
271
  8
RASGOS
  6
CONTINUOUS
 10
1086928.1100416009
 20
699876.87564010208
 30
0.0
 11
1086928.198601573
 21
699876.87088662805
 31
0.0
  0
LINE
  5
272
  8
RASGOS
  6
CONTINUOUS
 10
1086928.1910570799
 20
699876.87564010208
 30
0.0
 11
1086928.198601573
 21
699876.87088662805
 31
0.0
  0
LINE
  5
273
  8
RASGOS
  6
CONTINUOUS
 10
1086928.10366036
 20
699876.87088662805
 30
0.0
 11
1086928.2054094831
 21
699876.86639036785
 31
0.0
  0
LINE
  5
274
  8
RASGOS
  6
CONTINUOUS
 10
1086928.198601573
 20
699876.87088662805
 30
0.0
 11
1086928.2054094831
 21
699876.86639036785
 31
0.0
  0
LINE
  5
275
  8
RASGOS
  6
CONTINUOUS
 10
1086928.097624413
 20
699876.86639036785
 30
0.0
 11
1086928.2097281029
 21
699876.86353815056
 31
0.0
  0
LINE
  5
276
  8
RASGOS
  6
CONTINUOUS
 10
1086928.2054094831
 20
699876.86639036785
 30
0.0
 11
1086928.2097281029
 21
699876.86353815056
 31
0.0
  0
LINE
  5
277
  8
RASGOS
  6
CONTINUOUS
 10
1086928.095067898
 20
699876.86353815056
 30
0.0
 11
1086928.2143122661
 21
699876.85726824496
 31
0.0
  0
LINE
  5
278
  8
RASGOS
  6
CONTINUOUS
 10
1086928.2097281029
 20
699876.86353815056
 30
0.0
 11
1086928.2143122661
 21
699876.85726824496
 31
0.0
  0
LINE
  5
279
  8
RASGOS
  6
CONTINUOUS
 10
1086928.089448021
 20
699876.85726824496
 30
0.0
 11
1086928.2187180819
 21
699876.85124227044
 31
0.0
  0
LINE
  5
27A
  8
RASGOS
  6
CONTINUOUS
 10
1086928.2143122661
 20
699876.85726824496
 30
0.0
 11
1086928.2187180819
 21
699876.85124227044
 31
0.0
  0
LINE
  5
27B
  8
RASGOS
  6
CONTINUOUS
 10
1086928.085939914
 20
699876.85124227044
 30
0.0
 11
1086928.2223829189
 21
699876.84347621806
 31
0.0
  0
LINE
  5
27C
  8
RASGOS
  6
CONTINUOUS
 10
1086928.2187180819
 20
699876.85124227044
 30
0.0
 11
1086928.2223829189
 21
699876.84347621806
 31
0.0
  0
LINE
  5
27D
  8
RASGOS
  6
CONTINUOUS
 10
1086928.081418796
 20
699876.84347621806
 30
0.0
 11
1086928.225218589
 21
699876.83746722795
 31
0.0
  0
LINE
  5
27E
  8
RASGOS
  6
CONTINUOUS
 10
1086928.2223829189
 20
699876.84347621806
 30
0.0
 11
1086928.225218589
 21
699876.83746722795
 31
0.0
  0
LINE
  5
27F
  8
RASGOS
  6
CONTINUOUS
 10
1086928.0795813219
 20
699876.83746722795
 30
0.0
 11
1086928.2269818799
 21
699876.83057657711
 31
0.0
  0
LINE
  5
280
  8
RASGOS
  6
CONTINUOUS
 10
1086928.225218589
 20
699876.83746722795
 30
0.0
 11
1086928.2269818799
 21
699876.83057657711
 31
0.0
  0
LINE
  5
281
  8
RASGOS
  6
CONTINUOUS
 10
1086928.077474246
 20
699876.83057657711
 30
0.0
 11
1086928.2289946801
 21
699876.82271088974
 31
0.0
  0
LINE
  5
282
  8
RASGOS
  6
CONTINUOUS
 10
1086928.2269818799
 20
699876.83057657711
 30
0.0
 11
1086928.2289946801
 21
699876.82271088974
 31
0.0
  0
LINE
  5
283
  8
RASGOS
  6
CONTINUOUS
 10
1086928.0752694351
 20
699876.82271088974
 30
0.0
 11
1086928.22930118
 21
699876.8176189604
 31
0.0
  0
LINE
  5
284
  8
RASGOS
  6
CONTINUOUS
 10
1086928.2289946801
 20
699876.82271088974
 30
0.0
 11
1086928.22930118
 21
699876.8176189604
 31
0.0
  0
LINE
  5
285
  8
RASGOS
  6
CONTINUOUS
 10
1086928.073842128
 20
699876.8176189604
 30
0.0
 11
1086928.2299098771
 21
699876.80750658747
 31
0.0
  0
LINE
  5
286
  8
RASGOS
  6
CONTINUOUS
 10
1086928.22930118
 20
699876.8176189604
 30
0.0
 11
1086928.2299098771
 21
699876.80750658747
 31
0.0
  0
LINE
  5
287
  8
RASGOS
  6
CONTINUOUS
 10
1086928.073395788
 20
699876.80750658747
 30
0.0
 11
1086928.2295774741
 21
699876.80496956909
 31
0.0
  0
LINE
  5
288
  8
RASGOS
  6
CONTINUOUS
 10
1086928.2299098771
 20
699876.80750658747
 30
0.0
 11
1086928.2295774741
 21
699876.80496956909
 31
0.0
  0
LINE
  5
289
  8
RASGOS
  6
CONTINUOUS
 10
1086928.0732838081
 20
699876.80496956909
 30
0.0
 11
1086928.2279311011
 21
699876.79240384477
 31
0.0
  0
LINE
  5
28A
  8
RASGOS
  6
CONTINUOUS
 10
1086928.2295774741
 20
699876.80496956909
 30
0.0
 11
1086928.2279311011
 21
699876.79240384477
 31
0.0
  0
LINE
  5
28B
  8
RASGOS
  6
CONTINUOUS
 10
1086928.073702815
 20
699876.79240384477
 30
0.0
 11
1086928.2271978999
 21
699876.79019635485
 31
0.0
  0
LINE
  5
28C
  8
RASGOS
  6
CONTINUOUS
 10
1086928.2279311011
 20
699876.79240384477
 30
0.0
 11
1086928.2271978999
 21
699876.79019635485
 31
0.0
  0
LINE
  5
28D
  8
RASGOS
  6
CONTINUOUS
 10
1086928.0737764251
 20
699876.79019635485
 30
0.0
 11
1086928.223129872
 21
699876.77794851409
 31
0.0
  0
LINE
  5
28E
  8
RASGOS
  6
CONTINUOUS
 10
1086928.2271978999
 20
699876.79019635485
 30
0.0
 11
1086928.223129872
 21
699876.77794851409
 31
0.0
  0
LINE
  5
28F
  8
RASGOS
  6
CONTINUOUS
 10
1086928.076913964
 20
699876.77794851409
 30
0.0
 11
1086928.2221064649
 21
699876.77612352651
 31
0.0
  0
LINE
  5
290
  8
RASGOS
  6
CONTINUOUS
 10
1086928.223129872
 20
699876.77794851409
 30
0.0
 11
1086928.2221064649
 21
699876.77612352651
 31
0.0
  0
LINE
  5
291
  8
RASGOS
  6
CONTINUOUS
 10
1086928.077381473
 20
699876.77612352651
 30
0.0
 11
1086928.2156797191
 21
699876.76466304855
 31
0.0
  0
LINE
  5
292
  8
RASGOS
  6
CONTINUOUS
 10
1086928.2221064649
 20
699876.77612352651
 30
0.0
 11
1086928.2156797191
 21
699876.76466304855
 31
0.0
  0
LINE
  5
293
  8
RASGOS
  6
CONTINUOUS
 10
1086928.0841909121
 20
699876.76466304855
 30
0.0
 11
1086928.214299053
 21
699876.76302877127
 31
0.0
  0
LINE
  5
294
  8
RASGOS
  6
CONTINUOUS
 10
1086928.2156797191
 20
699876.76466304855
 30
0.0
 11
1086928.214299053
 21
699876.76302877127
 31
0.0
  0
LINE
  5
295
  8
RASGOS
  6
CONTINUOUS
 10
1086928.085161946
 20
699876.76302877127
 30
0.0
 11
1086928.2058499081
 21
699876.75302761956
 31
0.0
  0
LINE
  5
296
  8
RASGOS
  6
CONTINUOUS
 10
1086928.214299053
 20
699876.76302877127
 30
0.0
 11
1086928.2058499081
 21
699876.75302761956
 31
0.0
  0
LINE
  5
297
  8
RASGOS
  6
CONTINUOUS
 10
1086928.094049654
 20
699876.75302761956
 30
0.0
 11
1086928.2041340291
 21
699876.7516431195
 31
0.0
  0
LINE
  5
298
  8
RASGOS
  6
CONTINUOUS
 10
1086928.2058499081
 20
699876.75302761956
 30
0.0
 11
1086928.2041340291
 21
699876.7516431195
 31
0.0
  0
LINE
  5
299
  8
RASGOS
  6
CONTINUOUS
 10
1086928.0952800149
 20
699876.7516431195
 30
0.0
 11
1086928.1939957149
 21
699876.74346276198
 31
0.0
  0
LINE
  5
29A
  8
RASGOS
  6
CONTINUOUS
 10
1086928.2041340291
 20
699876.7516431195
 30
0.0
 11
1086928.1939957149
 21
699876.74346276198
 31
0.0
  0
LINE
  5
29B
  8
RASGOS
  6
CONTINUOUS
 10
1086928.1059545809
 20
699876.74346276198
 30
0.0
 11
1086928.191954873
 21
699876.74237807852
 31
0.0
  0
LINE
  5
29C
  8
RASGOS
  6
CONTINUOUS
 10
1086928.1939957149
 20
699876.74346276198
 30
0.0
 11
1086928.191954873
 21
699876.74237807852
 31
0.0
  0
LINE
  5
29D
  8
RASGOS
  6
CONTINUOUS
 10
1086928.1073699871
 20
699876.74237807852
 30
0.0
 11
1086928.180545581
 21
699876.73631417437
 31
0.0
  0
LINE
  5
29E
  8
RASGOS
  6
CONTINUOUS
 10
1086928.191954873
 20
699876.74237807852
 30
0.0
 11
1086928.180545581
 21
699876.73631417437
 31
0.0
  0
LINE
  5
29F
  8
RASGOS
  6
CONTINUOUS
 10
1086928.1195029379
 20
699876.73631417437
 30
0.0
 11
1086928.178118906
 21
699876.73556851095
 31
0.0
  0
LINE
  5
2A0
  8
RASGOS
  6
CONTINUOUS
 10
1086928.180545581
 20
699876.73631417437
 30
0.0
 11
1086928.178118906
 21
699876.73556851095
 31
0.0
  0
LINE
  5
2A1
  8
RASGOS
  6
CONTINUOUS
 10
1086928.1209948971
 20
699876.73556851095
 30
0.0
 11
1086928.1659856311
 21
699876.73184022575
 31
0.0
  0
LINE
  5
2A2
  8
RASGOS
  6
CONTINUOUS
 10
1086928.178118906
 20
699876.73556851095
 30
0.0
 11
1086928.1659856311
 21
699876.73184022575
 31
0.0
  0
LINE
  5
2A3
  8
RASGOS
  6
CONTINUOUS
 10
1086928.1624744779
 20
699876.73146053229
 30
0.0
 11
1086928.1508420969
 21
699876.73020261584
 31
0.0
  0
LINE
  5
2A4
  8
RASGOS
  6
CONTINUOUS
 10
1086928.1508420969
 20
699876.73020261584
 30
0.0
 11
1086928.1356623061
 21
699876.73146053229
 31
0.0
  0
LINE
  5
2A5
  8
RASGOS
  6
CONTINUOUS
 10
1086928.1343066229
 20
699876.73184022575
 30
0.0
 11
1086928.1624744779
 21
699876.73146053229
 31
0.0
  0
LINE
  5
2A6
  8
RASGOS
  6
CONTINUOUS
 10
1086928.1659856311
 20
699876.73184022575
 30
0.0
 11
1086928.1624744779
 21
699876.73146053229
 31
0.0
  0
ENDBLK
  5
2A8
  8
0
  0
BLOCK
  8
0
  2
*U7
 70
     1
 10
0.0
 20
0.0
 30
0.0
  3
*U7
  1

  0
SOLID
  5
2D8
  8
NORTH
  6
CONTINUOUS
 10
-1086921.2527633579
 20
699884.14620951959
 30
0.0
 11
-1086921.281544084
 21
699884.11939294566
 31
0.0
 12
-1086921.2527633579
 22
699884.11939294566
 32
0.0
 13
-1086921.2527633579
 23
699884.11939294566
 33
0.0
210
0.0
220
0.0
230
-1.0
  0
SOLID
  5
2D9
  8
NORTH
  6
CONTINUOUS
 10
-1086921.2527633579
 20
699883.36718806694
 30
0.0
 11
-1086921.3300996439
 21
699883.36718806694
 31
0.0
 12
-1086921.337671679
 22
699883.24988487968
 32
0.0
 13
-1086921.337671679
 23
699883.24988487968
 33
0.0
210
0.0
220
0.0
230
-1.0
  0
SOLID
  5
2DA
  8
NORTH
  6
CONTINUOUS
 10
-1086921.2527633579
 20
699884.11939294566
 30
0.0
 11
-1086921.3300996439
 21
699883.36718806694
 31
0.0
 12
-1086921.2527633579
 22
699883.36718806694
 32
0.0
 13
-1086921.2527633579
 23
699883.36718806694
 33
0.0
210
0.0
220
0.0
230
-1.0
  0
SOLID
  5
2DB
  8
NORTH
  6
CONTINUOUS
 10
-1086921.2527633579
 20
699884.11939294566
 30
0.0
 11
-1086921.281544084
 21
699884.11939294566
 31
0.0
 12
-1086921.3300996439
 22
699883.36718806694
 32
0.0
 13
-1086921.3300996439
 23
699883.36718806694
 33
0.0
210
0.0
220
0.0
230
-1.0
  0
LINE
  5
2DC
  8
NORTH
  6
CONTINUOUS
 10
1086921.2527633579
 20
699884.14620951959
 30
0.0
 11
1086921.281544084
 21
699884.11939294566
 31
0.0
  0
LINE
  5
2DD
  8
NORTH
  6
CONTINUOUS
 10
1086921.2527633579
 20
699884.11939294566
 30
0.0
 11
1086921.2527633579
 21
699884.14620951959
 31
0.0
  0
LINE
  5
2DE
  8
NORTH
  6
CONTINUOUS
 10
1086921.3300996439
 20
699883.36718806694
 30
0.0
 11
1086921.337671679
 21
699883.24988487968
 31
0.0
  0
LINE
  5
2DF
  8
NORTH
  6
CONTINUOUS
 10
1086921.337671679
 20
699883.24988487968
 30
0.0
 11
1086921.2527633579
 21
699883.36718806694
 31
0.0
  0
LINE
  5
2E0
  8
NORTH
  6
CONTINUOUS
 10
1086921.2527633579
 20
699884.11939294566
 30
0.0
 11
1086921.3300996439
 21
699883.36718806694
 31
0.0
  0
LINE
  5
2E1
  8
NORTH
  6
CONTINUOUS
 10
1086921.281544084
 20
699884.11939294566
 30
0.0
 11
1086921.3300996439
 21
699883.36718806694
 31
0.0
  0
ENDBLK
  5
2E3
  8
0
  0
BLOCK
  8
0
  2
*U8
 70
     1
 10
0.0
 20
0.0
 30
0.0
  3
*U8
  1

  0
SOLID
  5
2E9
  8
NORTH
  6
CONTINUOUS
 10
-1086921.2595208019
 20
699885.90006147325
 30
0.0
 11
-1086921.2595208019
 21
699884.95843791997
 31
0.0
 12
-1086921.184514839
 22
699884.95843791997
 32
0.0
 13
-1086921.184514839
 23
699884.95843791997
 33
0.0
210
0.0
220
0.0
230
-1.0
  0
SOLID
  5
2EA
  8
NORTH
  6
CONTINUOUS
 10
-1086921.184514839
 20
699884.95843791997
 30
0.0
 11
-1086921.2595208019
 21
699884.95843791997
 31
0.0
 12
-1086921.1746124809
 22
699884.83412388538
 32
0.0
 13
-1086921.1746124809
 23
699884.83412388538
 33
0.0
210
0.0
220
0.0
230
-1.0
  0
LINE
  5
2EB
  8
NORTH
  6
CONTINUOUS
 10
1086921.2595208019
 20
699885.90006147325
 30
0.0
 11
1086921.2595208019
 21
699884.95843791997
 31
0.0
  0
LINE
  5
2EC
  8
NORTH
  6
CONTINUOUS
 10
1086921.184514839
 20
699884.95843791997
 30
0.0
 11
1086921.2595208019
 21
699885.90006147325
 31
0.0
  0
LINE
  5
2ED
  8
NORTH
  6
CONTINUOUS
 10
1086921.2595208019
 20
699884.95843791997
 30
0.0
 11
1086921.1746124809
 21
699884.83412388538
 31
0.0
  0
LINE
  5
2EE
  8
NORTH
  6
CONTINUOUS
 10
1086921.1746124809
 20
699884.83412388538
 30
0.0
 11
1086921.184514839
 21
699884.95843791997
 31
0.0
  0
ENDBLK
  5
2F0
  8
0
  0
ENDSEC
  0
SECTION
  2
ENTITIES
  0
TEXT
  5
64
  8
TEXT
 10
1086928.24363661
 20
699885.48579419777
 30
0.0
 40
0.25
  1
mixed soil filling
  7
CALIBRI
  0
POLYLINE
  5
6A
  8
LINES
 66
     1
 10
0.0
 20
0.0
 30
0.0
  0
VERTEX
  5
BF
  8
LINES
 10
1086927.5820616661
 20
699875.44664656254
 30
0.0
  0
VERTEX
  5
C0
  8
LINES
 10
1086927.5820616661
 20
699875.44664656254
 30
0.0
  0
VERTEX
  5
C1
  8
LINES
 10
1086928.379483456
 20
699876.19214838196
 30
0.0
  0
SEQEND
  5
C2
  8
LINES
  0
TEXT
  5
6C
  8
TEXT
 10
1086926.6279474499
 20
699875.1289527854
 30
0.0
 40
0.25
  1
house area
  7
CALIBRI
  0
POLYLINE
  5
6D
  8
LINES
 66
     1
 10
0.0
 20
0.0
 30
0.0
  0
VERTEX
  5
C3
  8
LINES
 10
1086928.225218589
 20
699876.83746722795
 30
0.0
  0
VERTEX
  5
C4
  8
LINES
 10
1086930.1536749201
 20
699878.04098709754
 30
0.0
  0
VERTEX
  5
C5
  8
LINES
 10
1086928.973427345
 20
699876.34614464547
 30
0.0
  0
SEQEND
  5
C6
  8
LINES
  0
TEXT
  5
6E
  8
TEXT
 10
1086929.4382104869
 20
699878.19285136985
 30
0.0
 40
0.25
  1
post molds
  7
CALIBRI
  0
POLYLINE
  5
6F
  8
LINES
 66
     1
 10
0.0
 20
0.0
 30
0.0
  0
VERTEX
  5
C7
  8
LINES
 10
1086928.4315446529
 20
699883.36862531712
 30
0.0
  0
VERTEX
  5
C8
  8
LINES
 10
1086929.2305672569
 20
699885.3096682562
 30
0.0
  0
SEQEND
  5
C9
  8
LINES
  0
TEXT
  5
70
  8
TEXT
 10
1086922.1839393119
 20
699876.13145151839
 30
0.0
 40
0.25
  1
3 m
  7
CALIBRI
  0
POLYLINE
  5
71
  8
SCALE
 66
     1
 10
0.0
 20
0.0
 30
0.0
  0
VERTEX
  5
CA
  8
SCALE
 10
1086921.0
 20
699875.88453503605
 30
0.0
  0
VERTEX
  5
CB
  8
SCALE
 10
1086924.0
 20
699875.88453503605
 30
0.0
  0
SEQEND
  5
CC
  8
SCALE
  0
POLYLINE
  5
75
  8
SCALE
 66
     1
 10
0.0
 20
0.0
 30
0.0
  0
VERTEX
  5
CD
  8
SCALE
 10
1086922.0
 20
699876.00953503605
 30
0.0
  0
VERTEX
  5
CE
  8
SCALE
 10
1086922.0
 20
699875.75953503605
 30
0.0
  0
SEQEND
  5
CF
  8
SCALE
  0
POLYLINE
  5
76
  8
SCALE
 66
     1
 10
0.0
 20
0.0
 30
0.0
  0
VERTEX
  5
D0
  8
SCALE
 10
1086923.0
 20
699876.00953503605
 30
0.0
  0
VERTEX
  5
D1
  8
SCALE
 10
1086923.0
 20
699875.75953503605
 30
0.0
  0
SEQEND
  5
D2
  8
SCALE
  0
POLYLINE
  5
77
  8
SCALE
 66
     1
 10
0.0
 20
0.0
 30
0.0
 70
     1
  0
VERTEX
  5
D3
  8
SCALE
 10
1086921.0
 20
699876.00953503605
 30
0.0
  0
VERTEX
  5
D4
  8
SCALE
 10
1086924.0
 20
699876.00953503605
 30
0.0
  0
VERTEX
  5
D5
  8
SCALE
 10
1086924.0
 20
699875.75953503605
 30
0.0
  0
VERTEX
  5
D6
  8
SCALE
 10
1086921.0
 20
699875.75953503605
 30
0.0
  0
SEQEND
  5
D7
  8
SCALE
  0
INSERT
  5
78
  8
SCALE
  6
CONTINUOUS
  2
*U0
 10
0.0
 20
0.0
 30
0.0
1001
ACAD
1002
{
1000
R14_HATCH_DATA
1000
78
1011
1.0
1021
0.0
1031
0.0
1021
0.0
1031
0.0
1011
0.0
1021
0.0
1031
0.0
1021
1.0
1031
0.0
1011
0.0
1021
0.0
1031
0.0
1021
0.0
1031
1.0
1040
0.0
1010
0.0
1020
0.0
1030
1.0
1000
SOLID
1070
     1
1070
     1
1071
        1
1071
        7
1070
     0
1070
     1
1071
        4
1040
1086923.0
1040
699876.00953503605
1040
1086923.0
1040
699875.88453503605
1040
1086924.0
1040
699875.88453503605
1040
1086924.0
1040
699876.00953503605
1071
        3
1005
77
1005
76
1005
71
1070
     0
1070
     1
1040
0.0029048861566838
1071
        1
1040
1086923.1062951291
1040
699875.95372051385
1040
0.0
1002
}
  0
INSERT
  5
79
  8
SCALE
  6
CONTINUOUS
  2
*U1
 10
0.0
 20
0.0
 30
0.0
1001
ACAD
1002
{
1000
R14_HATCH_DATA
1000
79
1011
1.0
1021
0.0
1031
0.0
1021
0.0
1031
0.0
1011
0.0
1021
0.0
1031
0.0
1021
1.0
1031
0.0
1011
0.0
1021
0.0
1031
0.0
1021
0.0
1031
1.0
1040
0.0
1010
0.0
1020
0.0
1030
1.0
1000
SOLID
1070
     1
1070
     1
1071
        1
1071
        7
1070
     0
1070
     1
1071
        4
1040
1086922.0
1040
699875.88453503605
1040
1086922.0
1040
699875.75953503605
1040
1086923.0
1040
699875.75953503605
1040
1086923.0
1040
699875.88453503605
1071
        4
1005
71
1005
75
1005
77
1005
76
1070
     0
1070
     1
1040
0.0029048861566838
1071
        1
1040
1086922.3651539451
1040
699875.84914485714
1040
0.0
1002
}
  0
INSERT
  5
7A
  8
SCALE
  6
CONTINUOUS
  2
*U2
 10
0.0
 20
0.0
 30
0.0
1001
ACAD
1002
{
1000
R14_HATCH_DATA
1000
7A
1011
1.0
1021
0.0
1031
0.0
1021
0.0
1031
0.0
1011
0.0
1021
0.0
1031
0.0
1021
1.0
1031
0.0
1011
0.0
1021
0.0
1031
0.0
1021
0.0
1031
1.0
1040
0.0
1010
0.0
1020
0.0
1030
1.0
1000
SOLID
1070
     1
1070
     1
1071
        1
1071
        7
1070
     0
1070
     1
1071
        4
1040
1086922.0
1040
699875.88453503605
1040
1086922.0
1040
699876.00953503605
1040
1086921.0
1040
699876.00953503605
1040
1086921.0
1040
699875.88453503605
1071
        3
1005
77
1005
71
1005
75
1070
     0
1070
     1
1040
0.0029048861566838
1071
        1
1040
1086921.6385458191
1040
699875.9362913142
1040
0.0
1002
}
  0
POLYLINE
  5
7B
  8
SCALE
 66
     1
 10
0.0
 20
0.0
 30
0.0
  0
VERTEX
  5
ED
  8
SCALE
 10
1086921.0
 20
699876.00953503605
 30
0.0
  0
VERTEX
  5
EE
  8
SCALE
 10
1086924.0
 20
699876.00953503605
 30
0.0
  0
VERTEX
  5
EF
  8
SCALE
 10
1086924.0
 20
699875.75953503605
 30
0.0
  0
SEQEND
  5
F0
  8
SCALE
  0
POLYLINE
  5
7C
  8
SCALE
 66
     1
 10
0.0
 20
0.0
 30
0.0
  0
VERTEX
  5
F1
  8
SCALE
 10
1086921.0
 20
699876.00953503605
 30
0.0
  0
VERTEX
  5
F2
  8
SCALE
 10
1086921.0
 20
699875.75953503605
 30
0.0
  0
VERTEX
  5
F3
  8
SCALE
 10
1086924.0
 20
699875.75953503605
 30
0.0
  0
SEQEND
  5
F4
  8
SCALE
  0
TEXT
  5
7D
  8
TEXT
 10
1086924.4231489331
 20
699888.04498851951
 30
0.0
 40
0.35
  1
HOUSEHOLD 5
  7
CALIBRI
  0
POLYLINE
  5
7E
  8
HOUSE
  6
ACAD_ISO03W100
 66
     1
 10
0.0
 20
0.0
 30
0.0
 70
   128
  0
VERTEX
  5
F5
  8
HOUSE
  6
ACAD_ISO03W100
 10
1086929.628694657
 20
699875.31446092762
 30
0.0
  0
VERTEX
  5
F6
  8
HOUSE
  6
ACAD_ISO03W100
 10
1086929.622860366
 20
699875.33241702861
 30
0.0
  0
VERTEX
  5
F7
  8
HOUSE
  6
ACAD_ISO03W100
 10
1086929.502284826
 20
699875.59644063422
 30
0.0
  0
VERTEX
  5
F8
  8
HOUSE
  6
ACAD_ISO03W100
 10
1086929.3523988051
 20
699875.84499868832
 30
0.0
  0
VERTEX
  5
F9
  8
HOUSE
  6
ACAD_ISO03W100
 10
1086929.175156299
 20
699876.07485085621
 30
0.0
  0
VERTEX
  5
FA
  8
HOUSE
  6
ACAD_ISO03W100
 10
1086928.9728679331
 20
699876.28300066374
 30
0.0
  0
VERTEX
  5
FB
  8
HOUSE
  6
ACAD_ISO03W100
 10
1086928.7481708459
 20
699876.46673455986
 30
0.0
  0
VERTEX
  5
FC
  8
HOUSE
  6
ACAD_ISO03W100
 10
1086928.5039943091
 20
699876.62365729187
 30
0.0
  0
VERTEX
  5
FD
  8
HOUSE
  6
ACAD_ISO03W100
 10
1086928.2435215351
 20
699876.75172313233
 30
0.0
  0
VERTEX
  5
FE
  8
HOUSE
  6
ACAD_ISO03W100
 10
1086927.9701481869
 20
699876.84926254721
 30
0.0
  0
VERTEX
  5
FF
  8
HOUSE
  6
ACAD_ISO03W100
 10
1086927.687438102
 20
699876.9150039606
 30
0.0
  0
VERTEX
  5
100
  8
HOUSE
  6
ACAD_ISO03W100
 10
1086927.3990768411
 20
699876.94809033314
 30
0.0
  0
VERTEX
  5
101
  8
HOUSE
  6
ACAD_ISO03W100
 10
1086927.1088236319
 20
699876.94809033314
 30
0.0
  0
VERTEX
  5
102
  8
HOUSE
  6
ACAD_ISO03W100
 10
1086927.0712282071
 20
699876.9437766599
 30
0.0
  0
SEQEND
  5
103
  8
HOUSE
  6
ACAD_ISO03W100
  0
POLYLINE
  5
83
  8
RASGOS
 66
     1
 10
0.0
 20
0.0
 30
0.0
 70
     1
1001
ACAD
1000
ASC_BOUNDS
1002
{
1070
    19
1005
87
1002
}
  0
VERTEX
  5
104
  8
RASGOS
 10
1086928.104043693
 20
699882.9530083664
 30
0.0
  0
VERTEX
  5
105
  8
RASGOS
 10
1086928.133003748
 20
699882.92986680008
 30
0.0
  0
VERTEX
  5
106
  8
RASGOS
 10
1086928.1703885531
 20
699882.90356959368
 30
0.0
  0
VERTEX
  5
107
  8
RASGOS
 10
1086928.210531441
 20
699882.88969722274
 30
0.0
  0
VERTEX
  5
108
  8
RASGOS
 10
1086928.248442817
 20
699882.87286697526
 30
0.0
  0
VERTEX
  5
109
  8
RASGOS
 10
1086928.2805621061
 20
699882.86602971004
 30
0.0
  0
VERTEX
  5
10A
  8
RASGOS
 10
1086928.3074159741
 20
699882.86234808515
 30
0.0
  0
VERTEX
  5
10B
  8
RASGOS
 10
1086928.3390087869
 20
699882.85971839132
 30
0.0
  0
VERTEX
  5
10C
  8
RASGOS
 10
1086928.3627033259
 20
699882.86339997803
 30
0.0
  0
VERTEX
  5
10D
  8
RASGOS
 10
1086928.3927164271
 20
699882.87181508238
 30
0.0
  0
VERTEX
  5
10E
  8
RASGOS
 10
1086928.419095658
 20
699882.88776008075
 30
0.0
  0
VERTEX
  5
10F
  8
RASGOS
 10
1086928.4576438491
 20
699882.92385776364
 30
0.0
  0
VERTEX
  5
110
  8
RASGOS
 10
1086928.48414533
 20
699882.96356464701
 30
0.0
  0
VERTEX
  5
111
  8
RASGOS
 10
1086928.515465494
 20
699883.00988986017
 30
0.0
  0
VERTEX
  5
112
  8
RASGOS
 10
1086928.5257016779
 20
699883.03180872474
 30
0.0
  0
VERTEX
  5
113
  8
RASGOS
 10
1086928.5353377659
 20
699883.06249183242
 30
0.0
  0
VERTEX
  5
114
  8
RASGOS
 10
1086928.543771103
 20
699883.11122352362
 30
0.0
  0
VERTEX
  5
115
  8
RASGOS
 10
1086928.5473648449
 20
699883.15662386594
 30
0.0
  0
VERTEX
  5
116
  8
RASGOS
 10
1086928.54310688
 20
699883.19405163755
 30
0.0
  0
VERTEX
  5
117
  8
RASGOS
 10
1086928.5371455951
 20
699883.23658322403
 30
0.0
  0
VERTEX
  5
118
  8
RASGOS
 10
1086928.5337392429
 20
699883.26890718029
 30
0.0
  0
VERTEX
  5
119
  8
RASGOS
 10
1086928.525223122
 20
699883.29442613991
 30
0.0
  0
VERTEX
  5
11A
  8
RASGOS
 10
1086928.525223122
 20
699883.29442613991
 30
0.0
  0
VERTEX
  5
11B
  8
RASGOS
 10
1086928.525223122
 20
699883.29442613991
 30
0.0
  0
VERTEX
  5
11C
  8
RASGOS
 10
1086928.5030794919
 20
699883.32949628681
 30
0.0
  0
VERTEX
  5
11D
  8
RASGOS
 10
1086928.468163684
 20
699883.35161269025
 30
0.0
  0
VERTEX
  5
11E
  8
RASGOS
 10
1086928.4315446529
 20
699883.36862531712
 30
0.0
  0
VERTEX
  5
11F
  8
RASGOS
 10
1086928.390667656
 20
699883.38223542634
 30
0.0
  0
VERTEX
  5
120
  8
RASGOS
 10
1086928.3394292051
 20
699883.39150046802
 30
0.0
  0
VERTEX
  5
121
  8
RASGOS
 10
1086928.2917901471
 20
699883.39568019402
 30
0.0
  0
VERTEX
  5
122
  8
RASGOS
 10
1086928.2473700279
 20
699883.39793082175
 30
0.0
  0
VERTEX
  5
123
  8
RASGOS
 10
1086928.214537709
 20
699883.39182199712
 30
0.0
  0
VERTEX
  5
124
  8
RASGOS
 10
1086928.1858899139
 20
699883.38056889735
 30
0.0
  0
VERTEX
  5
125
  8
RASGOS
 10
1086928.1619778229
 20
699883.36457366415
 30
0.0
  0
VERTEX
  5
126
  8
RASGOS
 10
1086928.1619778229
 20
699883.36457366415
 30
0.0
  0
VERTEX
  5
127
  8
RASGOS
 10
1086928.138003452
 20
699883.3443108229
 30
0.0
  0
VERTEX
  5
128
  8
RASGOS
 10
1086928.1195615539
 20
699883.32773206825
 30
0.0
  0
VERTEX
  5
129
  8
RASGOS
 10
1086928.1070686141
 20
699883.30702485505
 30
0.0
  0
VERTEX
  5
12A
  8
RASGOS
 10
1086928.0902045011
 20
699883.26912231394
 30
0.0
  0
VERTEX
  5
12B
  8
RASGOS
 10
1086928.084783162
 20
699883.25167534989
 30
0.0
  0
VERTEX
  5
12C
  8
RASGOS
 10
1086928.0757484499
 20
699883.22821167554
 30
0.0
  0
VERTEX
  5
12D
  8
RASGOS
 10
1086928.0703271111
 20
699883.19993556163
 30
0.0
  0
VERTEX
  5
12E
  8
RASGOS
 10
1086928.064304396
 20
699883.16804921487
 30
0.0
  0
VERTEX
  5
12F
  8
RASGOS
 10
1086928.061265528
 20
699883.12612624594
 30
0.0
  0
VERTEX
  5
130
  8
RASGOS
 10
1086928.059458842
 20
699883.09363879589
 30
0.0
  0
VERTEX
  5
131
  8
RASGOS
 10
1086928.0600614969
 20
699883.06837026333
 30
0.0
  0
VERTEX
  5
132
  8
RASGOS
 10
1086928.0660842119
 20
699883.03588281316
 30
0.0
  0
VERTEX
  5
133
  8
RASGOS
 10
1086928.068238599
 20
699883.00981035084
 30
0.0
  0
VERTEX
  5
134
  8
RASGOS
 10
1086928.0856145751
 20
699882.98035746568
 30
0.0
  0
SEQEND
  5
135
  8
RASGOS
  0
INSERT
  5
87
  8
RASGOS
  6
CONTINUOUS
  2
*X3
 10
0.0
 20
0.0
 30
0.0
1001
ACAD
1000
HATCH
1002
{
1070
    19
1000
ANSI37
1040
0.025
1040
0.0
1000
ASC_BOUNDS
1070
     1
1070
     1
1070
     1
1005
83
1000
ASC_SEEDPOINT
1011
1086928.2705340791
1021
0.0
1031
0.0
1021
699883.23823436664
1031
0.0
1000
R14_HATCH_DATA
1000
87
1011
1.0
1021
0.0
1031
0.0
1021
0.0
1031
0.0
1011
0.0
1021
0.0
1031
0.0
1021
1.0
1031
0.0
1011
0.0
1021
0.0
1031
0.0
1021
0.0
1031
1.0
1040
0.0
1010
0.0
1020
0.0
1030
1.0
1000
ANSI37
1070
     0
1070
     1
1071
        1
1071
        7
1070
     0
1070
     1
1071
       46
1040
1086928.2473700279
1040
699883.39793082175
1040
1086928.214537709
1040
699883.39182199712
1040
1086928.1858899139
1040
699883.38056889735
1040
1086928.1619778229
1040
699883.36457366415
1040
1086928.138003452
1040
699883.3443108229
1040
1086928.1195615539
1040
699883.32773206825
1040
1086928.1070686141
1040
699883.30702485505
1040
1086928.0902045011
1040
699883.26912231394
1040
1086928.084783162
1040
699883.25167534989
1040
1086928.0757484499
1040
699883.22821167554
1040
1086928.0703271111
1040
699883.19993556163
1040
1086928.064304396
1040
699883.16804921487
1040
1086928.061265528
1040
699883.12612624594
1040
1086928.059458842
1040
699883.09363879589
1040
1086928.0600614969
1040
699883.06837026333
1040
1086928.0660842119
1040
699883.03588281316
1040
1086928.068238599
1040
699883.00981035084
1040
1086928.0856145751
1040
699882.98035746568
1040
1086928.104043693
1040
699882.9530083664
1040
1086928.133003748
1040
699882.92986680008
1040
1086928.1703885531
1040
699882.90356959368
1040
1086928.210531441
1040
699882.88969722274
1040
1086928.248442817
1040
699882.87286697526
1040
1086928.2805621061
1040
699882.86602971004
1040
1086928.3074159741
1040
699882.86234808515
1040
1086928.3390087869
1040
699882.85971839132
1040
1086928.3627033259
1040
699882.86339997803
1040
1086928.3927164271
1040
699882.87181508238
1040
1086928.419095658
1040
699882.88776008075
1040
1086928.4576438491
1040
699882.92385776364
1040
1086928.48414533
1040
699882.96356464701
1040
1086928.515465494
1040
699883.00988986017
1040
1086928.5257016779
1040
699883.03180872474
1040
1086928.5353377659
1040
699883.06249183242
1040
1086928.543771103
1040
699883.11122352362
1040
1086928.5473648449
1040
699883.15662386594
1040
1086928.54310688
1040
699883.19405163755
1040
1086928.5371455951
1040
699883.23658322403
1040
1086928.5337392429
1040
699883.26890718029
1040
1086928.525223122
1040
699883.29442613991
1040
1086928.5030794919
1040
699883.32949628681
1040
1086928.468163684
1040
699883.35161269025
1040
1086928.4315446529
1040
699883.36862531712
1040
1086928.390667656
1040
699883.38223542634
1040
1086928.3394292051
1040
699883.39150046802
1040
1086928.2917901471
1040
699883.39568019402
1071
        1
1005
83
1070
     0
1070
     1
1040
0.0
1040
0.025
1070
     0
1070
     2
1040
0.7853981633974483
1040
1086390.0969361069
1040
699685.3858463912
1040
-0.0561266007566822
1040
0.0561266007566822
1070
     0
1040
2.3561944901923439
1040
1086390.0969361069
1040
699685.3858463912
1040
-0.0561266007566822
1040
-0.0561266007566822
1070
     0
1040
0.001520985633359
1071
        1
1040
1086928.2705340791
1040
699883.23823436664
1040
0.0
1002
}
  0
POLYLINE
  5
88
  8
RASGOS
 66
     1
 10
0.0
 20
0.0
 30
0.0
 70
     1
1001
ACAD
1000
ASC_BOUNDS
1002
{
1070
    19
1005
89
1002
}
  0
VERTEX
  5
147
  8
RASGOS
 10
1086926.483638559
 20
699880.32911736495
 30
0.0
  0
VERTEX
  5
148
  8
RASGOS
 10
1086926.5071280431
 20
699880.30685744551
 30
0.0
  0
VERTEX
  5
149
  8
RASGOS
 10
1086926.5547109451
 20
699880.28580076492
 30
0.0
  0
VERTEX
  5
14A
  8
RASGOS
 10
1086926.5926577591
 20
699880.26835328504
 30
0.0
  0
VERTEX
  5
14B
  8
RASGOS
 10
1086926.622169958
 20
699880.25571927649
 30
0.0
  0
VERTEX
  5
14C
  8
RASGOS
 10
1086926.6552980889
 20
699880.24549174588
 30
0.0
  0
VERTEX
  5
14D
  8
RASGOS
 10
1086926.6811969141
 20
699880.23887393204
 30
0.0
  0
VERTEX
  5
14E
  8
RASGOS
 10
1086926.7034823671
 20
699880.23345935706
 30
0.0
  0
VERTEX
  5
14F
  8
RASGOS
 10
1086926.725166444
 20
699880.23345935706
 30
0.0
  0
VERTEX
  5
150
  8
RASGOS
 10
1086926.7558839531
 20
699880.24128040974
 30
0.0
  0
VERTEX
  5
151
  8
RASGOS
 10
1086926.79081877
 20
699880.25451603765
 30
0.0
  0
VERTEX
  5
152
  8
RASGOS
 10
1086926.8293669601
 20
699880.29061372031
 30
0.0
  0
VERTEX
  5
153
  8
RASGOS
 10
1086926.8558684411
 20
699880.3303206038
 30
0.0
  0
VERTEX
  5
154
  8
RASGOS
 10
1086926.887188605
 20
699880.3766458173
 30
0.0
  0
VERTEX
  5
155
  8
RASGOS
 10
1086926.8974247901
 20
699880.39856468153
 30
0.0
  0
VERTEX
  5
156
  8
RASGOS
 10
1086926.9070608779
 20
699880.4292477892
 30
0.0
  0
VERTEX
  5
157
  8
RASGOS
 10
1086926.915494214
 20
699880.47797948017
 30
0.0
  0
VERTEX
  5
158
  8
RASGOS
 10
1086926.9118795609
 20
699880.52310145495
 30
0.0
  0
VERTEX
  5
159
  8
RASGOS
 10
1086926.895616824
 20
699880.58085743757
 30
0.0
  0
VERTEX
  5
15A
  8
RASGOS
 10
1086926.8877631109
 20
699880.60940649919
 30
0.0
  0
VERTEX
  5
15B
  8
RASGOS
 10
1086926.8769217129
 20
699880.62986207625
 30
0.0
  0
VERTEX
  5
15C
  8
RASGOS
 10
1086926.866576903
 20
699880.65488331625
 30
0.0
  0
VERTEX
  5
15D
  8
RASGOS
 10
1086926.866576903
 20
699880.65488331625
 30
0.0
  0
VERTEX
  5
15E
  8
RASGOS
 10
1086926.866576903
 20
699880.65488331625
 30
0.0
  0
VERTEX
  5
15F
  8
RASGOS
 10
1086926.844446626
 20
699880.67790930881
 30
0.0
  0
VERTEX
  5
160
  8
RASGOS
 10
1086926.815861779
 20
699880.69448802504
 30
0.0
  0
VERTEX
  5
161
  8
RASGOS
 10
1086926.7835884581
 20
699880.70277740236
 30
0.0
  0
VERTEX
  5
162
  8
RASGOS
 10
1086926.7513151369
 20
699880.71751405613
 30
0.0
  0
VERTEX
  5
163
  8
RASGOS
 10
1086926.698755824
 20
699880.72580339503
 30
0.0
  0
VERTEX
  5
164
  8
RASGOS
 10
1086926.65449527
 20
699880.73501378449
 30
0.0
  0
VERTEX
  5
165
  8
RASGOS
 10
1086926.614845285
 20
699880.74238211138
 30
0.0
  0
VERTEX
  5
166
  8
RASGOS
 10
1086926.580727774
 20
699880.74514522415
 30
0.0
  0
VERTEX
  5
167
  8
RASGOS
 10
1086926.5585974969
 20
699880.74054004881
 30
0.0
  0
VERTEX
  5
168
  8
RASGOS
 10
1086926.5337009351
 20
699880.73132962105
 30
0.0
  0
VERTEX
  5
169
  8
RASGOS
 10
1086926.5337009351
 20
699880.73132962105
 30
0.0
  0
VERTEX
  5
16A
  8
RASGOS
 10
1086926.509726563
 20
699880.71106677968
 30
0.0
  0
VERTEX
  5
16B
  8
RASGOS
 10
1086926.491284665
 20
699880.69448802504
 30
0.0
  0
VERTEX
  5
16C
  8
RASGOS
 10
1086926.4787917261
 20
699880.6737808116
 30
0.0
  0
VERTEX
  5
16D
  8
RASGOS
 10
1086926.4619276121
 20
699880.63587827072
 30
0.0
  0
VERTEX
  5
16E
  8
RASGOS
 10
1086926.456506273
 20
699880.61843130668
 30
0.0
  0
VERTEX
  5
16F
  8
RASGOS
 10
1086926.4474715609
 20
699880.59496763244
 30
0.0
  0
VERTEX
  5
170
  8
RASGOS
 10
1086926.4420502221
 20
699880.5666915183
 30
0.0
  0
VERTEX
  5
171
  8
RASGOS
 10
1086926.4360275071
 20
699880.53480517166
 30
0.0
  0
VERTEX
  5
172
  8
RASGOS
 10
1086926.4329886399
 20
699880.49288220285
 30
0.0
  0
VERTEX
  5
173
  8
RASGOS
 10
1086926.4311819531
 20
699880.46039475279
 30
0.0
  0
VERTEX
  5
174
  8
RASGOS
 10
1086926.4317846091
 20
699880.43512621999
 30
0.0
  0
VERTEX
  5
175
  8
RASGOS
 10
1086926.4378073241
 20
699880.40263876994
 30
0.0
  0
VERTEX
  5
176
  8
RASGOS
 10
1086926.4498540331
 20
699880.37676861777
 30
0.0
  0
VERTEX
  5
177
  8
RASGOS
 10
1086926.462502118
 20
699880.35089898156
 30
0.0
  0
SEQEND
  5
178
  8
RASGOS
  0
INSERT
  5
89
  8
RASGOS
  6
CONTINUOUS
  2
*X4
 10
0.0
 20
0.0
 30
0.0
1001
ACAD
1000
HATCH
1002
{
1070
    19
1000
ANSI37
1040
0.025
1040
0.0
1000
ASC_BOUNDS
1070
     1
1070
     1
1070
     1
1005
88
1000
ASC_SEEDPOINT
1011
1086926.6422571901
1021
0.0
1031
0.0
1021
699880.60499032331
1031
0.0
1000
R14_HATCH_DATA
1000
89
1011
1.0
1021
0.0
1031
0.0
1021
0.0
1031
0.0
1011
0.0
1021
0.0
1031
0.0
1021
1.0
1031
0.0
1011
0.0
1021
0.0
1031
0.0
1021
0.0
1031
1.0
1040
0.0
1010
0.0
1020
0.0
1030
1.0
1000
ANSI37
1070
     0
1070
     1
1071
        1
1071
        7
1070
     0
1070
     1
1071
       46
1040
1086926.65449527
1040
699880.73501378449
1040
1086926.614845285
1040
699880.74238211138
1040
1086926.580727774
1040
699880.74514522415
1040
1086926.5585974969
1040
699880.74054004881
1040
1086926.5337009351
1040
699880.73132962105
1040
1086926.509726563
1040
699880.71106677968
1040
1086926.491284665
1040
699880.69448802504
1040
1086926.4787917261
1040
699880.6737808116
1040
1086926.4619276121
1040
699880.63587827072
1040
1086926.456506273
1040
699880.61843130668
1040
1086926.4474715609
1040
699880.59496763244
1040
1086926.4420502221
1040
699880.5666915183
1040
1086926.4360275071
1040
699880.53480517166
1040
1086926.4329886399
1040
699880.49288220285
1040
1086926.4311819531
1040
699880.46039475279
1040
1086926.4317846091
1040
699880.43512621999
1040
1086926.4378073241
1040
699880.40263876994
1040
1086926.4498540331
1040
699880.37676861777
1040
1086926.462502118
1040
699880.35089898156
1040
1086926.483638559
1040
699880.32911736495
1040
1086926.5071280431
1040
699880.30685744551
1040
1086926.5547109451
1040
699880.28580076492
1040
1086926.5926577591
1040
699880.26835328504
1040
1086926.622169958
1040
699880.25571927649
1040
1086926.6552980889
1040
699880.24549174588
1040
1086926.6811969141
1040
699880.23887393204
1040
1086926.7034823671
1040
699880.23345935706
1040
1086926.725166444
1040
699880.23345935706
1040
1086926.7558839531
1040
699880.24128040974
1040
1086926.79081877
1040
699880.25451603765
1040
1086926.8293669601
1040
699880.29061372031
1040
1086926.8558684411
1040
699880.3303206038
1040
1086926.887188605
1040
699880.3766458173
1040
1086926.8974247901
1040
699880.39856468153
1040
1086926.9070608779
1040
699880.4292477892
1040
1086926.915494214
1040
699880.47797948017
1040
1086926.9118795609
1040
699880.52310145495
1040
1086926.895616824
1040
699880.58085743757
1040
1086926.8877631109
1040
699880.60940649919
1040
1086926.8769217129
1040
699880.62986207625
1040
1086926.866576903
1040
699880.65488331625
1040
1086926.844446626
1040
699880.67790930881
1040
1086926.815861779
1040
699880.69448802504
1040
1086926.7835884581
1040
699880.70277740236
1040
1086926.7513151369
1040
699880.71751405613
1040
1086926.698755824
1040
699880.72580339503
1071
        1
1005
88
1070
     0
1070
     1
1040
0.0
1040
0.025
1070
     0
1070
     2
1040
0.7853981633974483
1040
1086388.4686592179
1040
699682.75260234822
1040
-0.0561266007566822
1040
0.0561266007566822
1070
     0
1040
2.3561944901923439
1040
1086388.4686592179
1040
699682.75260234822
1040
-0.0561266007566822
1040
-0.0561266007566822
1070
     0
1040
0.001520985633359
1071
        1
1040
1086926.6422571901
1040
699880.60499032331
1040
0.0
1002
}
  0
POLYLINE
  5
8A
  8
RASGOS
 66
     1
 10
0.0
 20
0.0
 30
0.0
 70
     1
  0
VERTEX
  5
18A
  8
RASGOS
 10
1086928.9080484919
 20
699876.21896228218
 30
0.0
  0
VERTEX
  5
18B
  8
RASGOS
 10
1086928.923307118
 20
699876.22041930433
 30
0.0
  0
VERTEX
  5
18C
  8
RASGOS
 10
1086928.9380142579
 20
699876.2247377102
 30
0.0
  0
VERTEX
  5
18D
  8
RASGOS
 10
1086928.951638357
 20
699876.23176142143
 30
0.0
  0
VERTEX
  5
18E
  8
RASGOS
 10
1086928.963687005
 20
699876.24123658263
 30
0.0
  0
VERTEX
  5
18F
  8
RASGOS
 10
1086928.9737247319
 20
699876.25282073685
 30
0.0
  0
VERTEX
  5
190
  8
RASGOS
 10
1086928.9813887479
 20
699876.26609520277
 30
0.0
  0
VERTEX
  5
191
  8
RASGOS
 10
1086928.9864020571
 20
699876.28058020631
 30
0.0
  0
VERTEX
  5
192
  8
RASGOS
 10
1086928.988583463
 20
699876.29575222195
 30
0.0
  0
VERTEX
  5
193
  8
RASGOS
 10
1086928.9878541259
 20
699876.31106289325
 30
0.0
  0
VERTEX
  5
194
  8
RASGOS
 10
1086928.984240405
 20
699876.32595885301
 30
0.0
  0
VERTEX
  5
195
  8
RASGOS
 10
1086928.97787291
 20
699876.33990172215
 30
0.0
  0
VERTEX
  5
196
  8
RASGOS
 10
1086928.9689817789
 20
699876.35238756915
 30
0.0
  0
VERTEX
  5
197
  8
RASGOS
 10
1086928.9578883599
 20
699876.3629651228
 30
0.0
  0
VERTEX
  5
198
  8
RASGOS
 10
1086928.9449935979
 20
699876.3712520831
 30
0.0
  0
VERTEX
  5
199
  8
RASGOS
 10
1086928.930763544
 20
699876.37694893731
 30
0.0
  0
VERTEX
  5
19A
  8
RASGOS
 10
1086928.9157125091
 20
699876.37984978664
 30
0.0
  0
VERTEX
  5
19B
  8
RASGOS
 10
1086928.9003844759
 20
699876.37984978664
 30
0.0
  0
VERTEX
  5
19C
  8
RASGOS
 10
1086928.88533344
 20
699876.37694893731
 30
0.0
  0
VERTEX
  5
19D
  8
RASGOS
 10
1086928.8711033871
 20
699876.3712520831
 30
0.0
  0
VERTEX
  5
19E
  8
RASGOS
 10
1086928.8582086251
 20
699876.3629651228
 30
0.0
  0
VERTEX
  5
19F
  8
RASGOS
 10
1086928.8471152049
 20
699876.35238756915
 30
0.0
  0
VERTEX
  5
1A0
  8
RASGOS
 10
1086928.8382240741
 20
699876.33990172215
 30
0.0
  0
VERTEX
  5
1A1
  8
RASGOS
 10
1086928.8318565791
 20
699876.32595885301
 30
0.0
  0
VERTEX
  5
1A2
  8
RASGOS
 10
1086928.8282428591
 20
699876.31106289325
 30
0.0
  0
VERTEX
  5
1A3
  8
RASGOS
 10
1086928.8275135211
 20
699876.29575222195
 30
0.0
  0
VERTEX
  5
1A4
  8
RASGOS
 10
1086928.831016416
 20
699876.27843317343
 30
0.0
  0
VERTEX
  5
1A5
  8
RASGOS
 10
1086928.836895867
 20
699876.26059737767
 30
0.0
  0
VERTEX
  5
1A6
  8
RASGOS
 10
1086928.8471305671
 20
699876.24602421932
 30
0.0
  0
VERTEX
  5
1A7
  8
RASGOS
 10
1086928.861502582
 20
699876.23536621768
 30
0.0
  0
VERTEX
  5
1A8
  8
RASGOS
 10
1086928.8713017949
 20
699876.22688334587
 30
0.0
  0
VERTEX
  5
1A9
  8
RASGOS
 10
1086928.882407468
 20
699876.22231563088
 30
0.0
  0
VERTEX
  5
1AA
  8
RASGOS
 10
1086928.8927898661
 20
699876.22041930433
 30
0.0
  0
SEQEND
  5
1AB
  8
RASGOS
  0
INSERT
  5
8B
  8
RASGOS
  6
CONTINUOUS
  2
*U5
 10
0.0
 20
0.0
 30
0.0
1001
ACAD
1002
{
1000
R14_HATCH_DATA
1000
8B
1011
1.0
1021
0.0
1031
0.0
1021
0.0
1031
0.0
1011
0.0
1021
0.0
1031
0.0
1021
1.0
1031
0.0
1011
0.0
1021
0.0
1031
0.0
1021
0.0
1031
1.0
1040
0.0
1010
0.0
1020
0.0
1030
1.0
1000
SOLID
1070
     1
1070
     0
1071
        1
1071
        7
1070
     0
1070
     1
1071
       33
1040
1086928.861502582
1040
699876.23536621768
1040
1086928.8713017949
1040
699876.22688334587
1040
1086928.882407468
1040
699876.22231563088
1040
1086928.8927898661
1040
699876.22041930433
1040
1086928.9080484919
1040
699876.21896228218
1040
1086928.923307118
1040
699876.22041930433
1040
1086928.9380142579
1040
699876.2247377102
1040
1086928.951638357
1040
699876.23176142143
1040
1086928.963687005
1040
699876.24123658263
1040
1086928.9737247319
1040
699876.25282073685
1040
1086928.9813887479
1040
699876.26609520277
1040
1086928.9864020571
1040
699876.28058020631
1040
1086928.988583463
1040
699876.29575222195
1040
1086928.9878541259
1040
699876.31106289325
1040
1086928.984240405
1040
699876.32595885301
1040
1086928.97787291
1040
699876.33990172215
1040
1086928.9689817789
1040
699876.35238756915
1040
1086928.9578883599
1040
699876.3629651228
1040
1086928.9449935979
1040
699876.3712520831
1040
1086928.930763544
1040
699876.37694893731
1040
1086928.9157125091
1040
699876.37984978664
1040
1086928.9003844759
1040
699876.37984978664
1040
1086928.88533344
1040
699876.37694893731
1040
1086928.8711033871
1040
699876.3712520831
1040
1086928.8582086251
1040
699876.3629651228
1040
1086928.8471152049
1040
699876.35238756915
1040
1086928.8382240741
1040
699876.33990172215
1040
1086928.8318565791
1040
699876.32595885301
1040
1086928.8282428591
1040
699876.31106289325
1040
1086928.8275135211
1040
699876.29575222195
1040
1086928.831016416
1040
699876.27843317343
1040
1086928.836895867
1040
699876.26059737767
1040
1086928.8471305671
1040
699876.24602421932
1071
        0
1070
     0
1070
     1
1040
0.001253956404867
1071
        1
1040
1086928.8982974871
1040
699876.29305009975
1040
0.0
1002
}
  0
POLYLINE
  5
8C
  8
RASGOS
 66
     1
 10
0.0
 20
0.0
 30
0.0
 70
     1
  0
VERTEX
  5
206
  8
RASGOS
 10
1086928.1508420969
 20
699876.73020261584
 30
0.0
  0
VERTEX
  5
207
  8
RASGOS
 10
1086928.1659856311
 20
699876.73184022575
 30
0.0
  0
VERTEX
  5
208
  8
RASGOS
 10
1086928.180545581
 20
699876.73631417437
 30
0.0
  0
VERTEX
  5
209
  8
RASGOS
 10
1086928.1939957149
 20
699876.74346276198
 30
0.0
  0
VERTEX
  5
20A
  8
RASGOS
 10
1086928.2058499081
 20
699876.75302761956
 30
0.0
  0
VERTEX
  5
20B
  8
RASGOS
 10
1086928.2156797191
 20
699876.76466304855
 30
0.0
  0
VERTEX
  5
20C
  8
RASGOS
 10
1086928.223129872
 20
699876.77794851409
 30
0.0
  0
VERTEX
  5
20D
  8
RASGOS
 10
1086928.2279311011
 20
699876.79240384477
 30
0.0
  0
VERTEX
  5
20E
  8
RASGOS
 10
1086928.2299098771
 20
699876.80750658747
 30
0.0
  0
VERTEX
  5
20F
  8
RASGOS
 10
1086928.2289946801
 20
699876.82271088974
 30
0.0
  0
VERTEX
  5
210
  8
RASGOS
 10
1086928.225218589
 20
699876.83746722795
 30
0.0
  0
VERTEX
  5
211
  8
RASGOS
 10
1086928.2187180819
 20
699876.85124227044
 30
0.0
  0
VERTEX
  5
212
  8
RASGOS
 10
1086928.2097281029
 20
699876.86353815056
 30
0.0
  0
VERTEX
  5
213
  8
RASGOS
 10
1086928.198601573
 20
699876.87088662805
 30
0.0
  0
VERTEX
  5
214
  8
RASGOS
 10
1086928.184474359
 20
699876.87978760328
 30
0.0
  0
VERTEX
  5
215
  8
RASGOS
 10
1086928.172519776
 20
699876.88499785482
 30
0.0
  0
VERTEX
  5
216
  8
RASGOS
 10
1086928.1555015091
 20
699876.88825339393
 30
0.0
  0
VERTEX
  5
217
  8
RASGOS
 10
1086928.1388749969
 20
699876.88699208386
 30
0.0
  0
VERTEX
  5
218
  8
RASGOS
 10
1086928.1228798749
 20
699876.88299785252
 30
0.0
  0
VERTEX
  5
219
  8
RASGOS
 10
1086928.1100416009
 20
699876.87564010208
 30
0.0
  0
VERTEX
  5
21A
  8
RASGOS
 10
1086928.097624413
 20
699876.86639036785
 30
0.0
  0
VERTEX
  5
21B
  8
RASGOS
 10
1086928.089448021
 20
699876.85726824496
 30
0.0
  0
VERTEX
  5
21C
  8
RASGOS
 10
1086928.081418796
 20
699876.84347621806
 30
0.0
  0
VERTEX
  5
21D
  8
RASGOS
 10
1086928.077474246
 20
699876.83057657711
 30
0.0
  0
VERTEX
  5
21E
  8
RASGOS
 10
1086928.073842128
 20
699876.8176189604
 30
0.0
  0
VERTEX
  5
21F
  8
RASGOS
 10
1086928.0732838081
 20
699876.80496956909
 30
0.0
  0
VERTEX
  5
220
  8
RASGOS
 10
1086928.0737764251
 20
699876.79019635485
 30
0.0
  0
VERTEX
  5
221
  8
RASGOS
 10
1086928.077381473
 20
699876.77612352651
 30
0.0
  0
VERTEX
  5
222
  8
RASGOS
 10
1086928.085161946
 20
699876.76302877127
 30
0.0
  0
VERTEX
  5
223
  8
RASGOS
 10
1086928.0952800149
 20
699876.7516431195
 30
0.0
  0
VERTEX
  5
224
  8
RASGOS
 10
1086928.1073699871
 20
699876.74237807852
 30
0.0
  0
VERTEX
  5
225
  8
RASGOS
 10
1086928.1209948971
 20
699876.73556851095
 30
0.0
  0
VERTEX
  5
226
  8
RASGOS
 10
1086928.1356623061
 20
699876.73146053229
 30
0.0
  0
SEQEND
  5
227
  8
RASGOS
  0
INSERT
  5
8D
  8
RASGOS
  6
CONTINUOUS
  2
*U6
 10
0.0
 20
0.0
 30
0.0
1001
ACAD
1002
{
1000
R14_HATCH_DATA
1000
8D
1011
1.0
1021
0.0
1031
0.0
1021
0.0
1031
0.0
1011
0.0
1021
0.0
1031
0.0
1021
1.0
1031
0.0
1011
0.0
1021
0.0
1031
0.0
1021
0.0
1031
1.0
1040
0.0
1010
0.0
1020
0.0
1030
1.0
1000
SOLID
1070
     1
1070
     1
1071
        1
1071
        7
1070
     0
1070
     1
1071
       33
1040
1086928.1939957149
1040
699876.74346276198
1040
1086928.2058499081
1040
699876.75302761956
1040
1086928.2156797191
1040
699876.76466304855
1040
1086928.223129872
1040
699876.77794851409
1040
1086928.2279311011
1040
699876.79240384477
1040
1086928.2299098771
1040
699876.80750658747
1040
1086928.2289946801
1040
699876.82271088974
1040
1086928.225218589
1040
699876.83746722795
1040
1086928.2187180819
1040
699876.85124227044
1040
1086928.2097281029
1040
699876.86353815056
1040
1086928.198601573
1040
699876.87088662805
1040
1086928.184474359
1040
699876.87978760328
1040
1086928.172519776
1040
699876.88499785482
1040
1086928.1555015091
1040
699876.88825339393
1040
1086928.1388749969
1040
699876.88699208386
1040
1086928.1228798749
1040
699876.88299785252
1040
1086928.1100416009
1040
699876.87564010208
1040
1086928.097624413
1040
699876.86639036785
1040
1086928.089448021
1040
699876.85726824496
1040
1086928.081418796
1040
699876.84347621806
1040
1086928.077474246
1040
699876.83057657711
1040
1086928.073842128
1040
699876.8176189604
1040
1086928.0732838081
1040
699876.80496956909
1040
1086928.0737764251
1040
699876.79019635485
1040
1086928.077381473
1040
699876.77612352651
1040
1086928.085161946
1040
699876.76302877127
1040
1086928.0952800149
1040
699876.7516431195
1040
1086928.1073699871
1040
699876.74237807852
1040
1086928.1209948971
1040
699876.73556851095
1040
1086928.1356623061
1040
699876.73146053229
1040
1086928.1508420969
1040
699876.73020261584
1040
1086928.1659856311
1040
699876.73184022575
1040
1086928.180545581
1040
699876.73631417437
1071
        1
1005
8C
1070
     0
1070
     1
1040
0.0021979409410046
1071
        1
1040
1086928.1580958299
1040
699876.79872619535
1040
0.0
1002
}
  0
POLYLINE
  5
8E
  8
EXCAVACION
 66
     1
 10
0.0
 20
0.0
 30
0.0
 70
     1
  0
VERTEX
  5
2A9
  8
EXCAVACION
 10
1086922.0
 20
699883.0
 30
0.0
  0
VERTEX
  5
2AA
  8
EXCAVACION
 10
1086924.0
 20
699883.0
 30
0.0
  0
VERTEX
  5
2AB
  8
EXCAVACION
 10
1086924.0
 20
699884.0
 30
0.0
  0
VERTEX
  5
2AC
  8
EXCAVACION
 10
1086925.0
 20
699884.0
 30
0.0
  0
VERTEX
  5
2AD
  8
EXCAVACION
 10
1086925.0
 20
699886.0
 30
0.0
  0
VERTEX
  5
2AE
  8
EXCAVACION
 10
1086926.0
 20
699886.0
 30
0.0
  0
VERTEX
  5
2AF
  8
EXCAVACION
 10
1086926.0
 20
699884.0
 30
0.0
  0
VERTEX
  5
2B0
  8
EXCAVACION
 10
1086929.0
 20
699884.0
 30
0.0
  0
VERTEX
  5
2B1
  8
EXCAVACION
 10
1086929.0
 20
699883.0
 30
0.0
  0
VERTEX
  5
2B2
  8
EXCAVACION
 10
1086930.0
 20
699883.0
 30
0.0
  0
VERTEX
  5
2B3
  8
EXCAVACION
 10
1086930.0
 20
699881.0
 30
0.0
  0
VERTEX
  5
2B4
  8
EXCAVACION
 10
1086929.0
 20
699881.0
 30
0.0
  0
VERTEX
  5
2B5
  8
EXCAVACION
 10
1086929.0
 20
699876.0
 30
0.0
  0
VERTEX
  5
2B6
  8
EXCAVACION
 10
1086928.0
 20
699876.0
 30
0.0
  0
VERTEX
  5
2B7
  8
EXCAVACION
 10
1086928.0
 20
699880.0
 30
0.0
  0
VERTEX
  5
2B8
  8
EXCAVACION
 10
1086927.0
 20
699880.0
 30
0.0
  0
VERTEX
  5
2B9
  8
EXCAVACION
 10
1086927.0
 20
699877.0
 30
0.0
  0
VERTEX
  5
2BA
  8
EXCAVACION
 10
1086926.0
 20
699877.0
 30
0.0
  0
VERTEX
  5
2BB
  8
EXCAVACION
 10
1086926.0
 20
699878.0
 30
0.0
  0
VERTEX
  5
2BC
  8
EXCAVACION
 10
1086922.0
 20
699878.0
 30
0.0
  0
SEQEND
  5
2BD
  8
EXCAVACION
  0
POLYLINE
  5
92
  8
NORTH
 66
     1
 10
0.0
 20
0.0
 30
0.0
 40
0.025
 41
0.025
  0
VERTEX
  5
2BE
  8
NORTH
 10
1086921.460186498
 20
699884.58278368542
 30
0.0
  0
VERTEX
  5
2BF
  8
NORTH
 10
1086921.585186498
 20
699884.58278368542
 30
0.0
  0
SEQEND
  5
2C0
  8
NORTH
  0
POLYLINE
  5
96
  8
NORTH
 66
     1
 10
0.0
 20
0.0
 30
0.0
 40
0.025
 41
0.025
  0
VERTEX
  5
2C1
  8
NORTH
 10
1086921.2239826319
 20
699884.11939294566
 30
0.0
  0
VERTEX
  5
2C2
  8
NORTH
 10
1086921.1678550369
 20
699883.24988487968
 30
0.0
  0
VERTEX
  5
2C3
  8
NORTH
 10
1086921.2527633579
 20
699883.36718806694
 30
0.0
  0
VERTEX
  5
2C4
  8
NORTH
 10
1086921.337671679
 20
699883.24988487968
 30
0.0
  0
VERTEX
  5
2C5
  8
NORTH
 10
1086921.281544084
 20
699884.11939294566
 30
0.0
  0
VERTEX
  5
2C6
  8
NORTH
 10
1086921.2527633579
 20
699884.14620951959
 30
0.0
  0
VERTEX
  5
2C7
  8
NORTH
 10
1086921.2239826319
 20
699884.11939294566
 30
0.0
  0
SEQEND
  5
2C8
  8
NORTH
  0
POLYLINE
  5
97
  8
NORTH
 66
     1
 10
0.0
 20
0.0
 30
0.0
 40
0.025
 41
0.025
  0
VERTEX
  5
2C9
  8
NORTH
 10
1086920.920367447
 20
699884.58278368542
 30
0.0
  0
VERTEX
  5
2CA
  8
NORTH
 10
1086921.045367447
 20
699884.58278368542
 30
0.0
  0
SEQEND
  5
2CB
  8
NORTH
  0
POLYLINE
  5
98
  8
NORTH
 66
     1
 10
0.0
 20
0.0
 30
0.0
 40
0.025
 41
0.025
  0
VERTEX
  5
2CC
  8
NORTH
 10
1086921.1746124809
 20
699884.49342466868
 30
0.0
  0
VERTEX
  5
2CD
  8
NORTH
 10
1086921.1746124809
 20
699884.67926372448
 30
0.0
  0
VERTEX
  5
2CE
  8
NORTH
 10
1086921.344429123
 20
699884.49342466868
 30
0.0
  0
VERTEX
  5
2CF
  8
NORTH
 10
1086921.344429123
 20
699884.67926372448
 30
0.0
  0
SEQEND
  5
2D0
  8
NORTH
  0
POLYLINE
  5
99
  8
NORTH
 66
     1
 10
0.0
 20
0.0
 30
0.0
 40
0.025
 41
0.025
  0
VERTEX
  5
2D1
  8
NORTH
 10
1086921.2595208019
 20
699884.71745027113
 30
0.0
  0
VERTEX
  5
2D2
  8
NORTH
 10
1086921.2595208019
 20
699885.90006147395
 30
0.0
  0
SEQEND
  5
2D3
  8
NORTH
  0
POLYLINE
  5
9A
  8
NORTH
 66
     1
 10
0.0
 20
0.0
 30
0.0
 40
0.025
 41
0.025
  0
VERTEX
  5
2D4
  8
NORTH
 10
1086921.2527633579
 20
699884.40775357536
 30
0.0
  0
VERTEX
  5
2D5
  8
NORTH
 10
1086921.2527633579
 20
699883.36718806694
 30
0.0
  0
SEQEND
  5
2D6
  8
NORTH
  0
INSERT
  5
9B
  8
NORTH
  6
CONTINUOUS
  2
*U7
 10
0.0
 20
0.0
 30
0.0
1001
ACAD
1002
{
1000
R14_HATCH_DATA
1000
9B
1011
1.0
1021
0.0
1031
0.0
1021
0.0
1031
0.0
1011
0.0
1021
0.0
1031
0.0
1021
1.0
1031
0.0
1011
0.0
1021
0.0
1031
0.0
1021
0.0
1031
1.0
1040
0.0
1010
0.0
1020
0.0
1030
1.0
1000
SOLID
1070
     1
1070
     0
1071
        1
1071
        7
1070
     0
1070
     1
1071
        4
1040
1086921.2527633579
1040
699883.36718806694
1040
1086921.337671679
1040
699883.24988487968
1040
1086921.281544084
1040
699884.11939294566
1040
1086921.2527633579
1040
699884.14620951959
1071
        0
1070
     0
1070
     1
1040
0.0025504356378807
1071
        1
1040
1086921.281443536
1040
699883.64163000905
1040
0.0
1002
}
  0
POLYLINE
  5
9C
  8
NORTH
 66
     1
 10
0.0
 20
0.0
 30
0.0
 40
0.025
 41
0.025
  0
VERTEX
  5
2E4
  8
NORTH
 10
1086921.2595208019
 20
699884.95843791997
 30
0.0
  0
VERTEX
  5
2E5
  8
NORTH
 10
1086921.1746124809
 20
699884.83412388538
 30
0.0
  0
VERTEX
  5
2E6
  8
NORTH
 10
1086921.2595208019
 20
699885.90006147395
 30
0.0
  0
SEQEND
  5
2E7
  8
NORTH
  0
INSERT
  5
9D
  8
NORTH
  6
CONTINUOUS
  2
*U8
 10
0.0
 20
0.0
 30
0.0
1001
ACAD
1002
{
1000
R14_HATCH_DATA
1000
9D
1011
1.0
1021
0.0
1031
0.0
1021
0.0
1031
0.0
1011
0.0
1021
0.0
1031
0.0
1021
1.0
1031
0.0
1011
0.0
1021
0.0
1031
0.0
1021
0.0
1031
1.0
1040
0.0
1010
0.0
1020
0.0
1030
1.0
1000
SOLID
1070
     1
1070
     0
1071
        1
1071
        7
1070
     0
1070
     1
1071
        3
1040
1086921.2595208019
1040
699885.90006147395
1040
1086921.1746124809
1040
699884.83412388538
1040
1086921.2595208019
1040
699884.95843791997
1071
        0
1070
     0
1070
     1
1040
0.0016136046574427
1071
        1
1040
1086921.2324250031
1040
699885.13196872151
1040
0.0
1002
}
  0
POLYLINE
  5
9E
  8
NORTH
 66
     1
 10
0.0
 20
0.0
 30
0.0
 40
0.025
 41
0.025
  0
VERTEX
  5
2F1
  8
NORTH
 10
1086921.2595208019
 20
699885.90006147395
 30
0.0
  0
VERTEX
  5
2F2
  8
NORTH
 10
1086921.344429123
 20
699884.83412388538
 30
0.0
  0
VERTEX
  5
2F3
  8
NORTH
 10
1086921.2595208019
 20
699884.95843791997
 30
0.0
  0
SEQEND
  5
2F4
  8
NORTH
  0
ENDSEC
  0
EOF
