  0
SECTION
  2
HEADER
  9
$ACADVER
  1
AC1009
  9
$INSBASE
 10
0.0
 20
0.0
 30
0.0
  9
$EXTMIN
 10
572856.28822826524
 20
1289819.9594483969
 30
-0.0000000349181977
  9
$EXTMAX
 10
633138.64489527873
 20
1350182.4111090121
 30
0.0000000814935717
  9
$LIMMIN
 10
0.0
 20
0.0
  9
$LIMMAX
 10
12.0
 20
9.0
  9
$ORTHOMODE
 70
     0
  9
$REGENMODE
 70
     1
  9
$FILLMODE
 70
     1
  9
$QTEXTMODE
 70
     0
  9
$MIRRTEXT
 70
     1
  9
$DRAGMODE
 70
     2
  9
$LTSCALE
 40
1.0
  9
$OSMODE
 70
    37
  9
$ATTMODE
 70
     2
  9
$TEXTSIZE
 40
25.0
  9
$TRACEWID
 40
0.05
  9
$TEXTSTYLE
  7
STANDARD
  9
$CLAYER
  8
AREA_SURVEYED
  9
$CELTYPE
  6
BYLAYER
  9
$CECOLOR
 62
   256
  9
$DIMSCALE
 40
1.0
  9
$DIMASZ
 40
0.18
  9
$DIMEXO
 40
0.0625
  9
$DIMDLI
 40
0.38
  9
$DIMRND
 40
0.0
  9
$DIMDLE
 40
0.0
  9
$DIMEXE
 40
0.18
  9
$DIMTP
 40
0.0
  9
$DIMTM
 40
0.0
  9
$DIMTXT
 40
0.18
  9
$DIMCEN
 40
0.09
  9
$DIMTSZ
 40
0.0
  9
$DIMTOL
 70
     0
  9
$DIMLIM
 70
     0
  9
$DIMTIH
 70
     1
  9
$DIMTOH
 70
     1
  9
$DIMSE1
 70
     0
  9
$DIMSE2
 70
     0
  9
$DIMTAD
 70
     0
  9
$DIMZIN
 70
     0
  9
$DIMBLK
  1

  9
$DIMASO
 70
     1
  9
$DIMSHO
 70
     1
  9
$DIMPOST
  1

  9
$DIMAPOST
  1

  9
$DIMALT
 70
     0
  9
$DIMALTD
 70
     2
  9
$DIMALTF
 40
25.399999999999999
  9
$DIMLFAC
 40
1.0
  9
$DIMTOFL
 70
     0
  9
$DIMTVP
 40
0.0
  9
$DIMTIX
 70
     0
  9
$DIMSOXD
 70
     0
  9
$DIMSAH
 70
     0
  9
$DIMBLK1
  1

  9
$DIMBLK2
  1

  9
$DIMSTYLE
  2
STANDARD
  9
$DIMCLRD
 70
     0
  9
$DIMCLRE
 70
     0
  9
$DIMCLRT
 70
     0
  9
$DIMTFAC
 40
1.0
  9
$DIMGAP
 40
0.09
  9
$LUNITS
 70
     2
  9
$LUPREC
 70
     4
  9
$SKETCHINC
 40
0.1
  9
$FILLETRAD
 40
0.5
  9
$AUNITS
 70
     0
  9
$AUPREC
 70
     0
  9
$MENU
  1
.
  9
$ELEVATION
 40
0.0
  9
$PELEVATION
 40
0.0
  9
$THICKNESS
 40
0.0
  9
$LIMCHECK
 70
     0
  9
$BLIPMODE
 70
     0
  9
$CHAMFERA
 40
0.5
  9
$CHAMFERB
 40
0.5
  9
$SKPOLY
 70
     0
  9
$TDCREATE
 40
2452895.38229691
  9
$TDUPDATE
 40
2453132.5170044559
  9
$TDINDWG
 40
5.7318478008999998
  9
$TDUSRTIMER
 40
5.7318461689999998
  9
$USRTIMER
 70
     1
  9
$ANGBASE
 50
0.0
  9
$ANGDIR
 70
     0
  9
$PDMODE
 70
     0
  9
$PDSIZE
 40
0.0
  9
$PLINEWID
 40
0.0
  9
$COORDS
 70
     1
  9
$SPLFRAME
 70
     0
  9
$SPLINETYPE
 70
     6
  9
$SPLINESEGS
 70
     8
  9
$ATTDIA
 70
     0
  9
$ATTREQ
 70
     1
  9
$HANDLING
 70
     1
  9
$HANDSEED
  5
50D
  9
$SURFTAB1
 70
     6
  9
$SURFTAB2
 70
     6
  9
$SURFTYPE
 70
     6
  9
$SURFU
 70
     6
  9
$SURFV
 70
     6
  9
$UCSNAME
  2

  9
$UCSORG
 10
0.0
 20
0.0
 30
0.0
  9
$UCSXDIR
 10
1.0
 20
0.0
 30
0.0
  9
$UCSYDIR
 10
0.0
 20
1.0
 30
0.0
  9
$PUCSNAME
  2

  9
$PUCSORG
 10
0.0
 20
0.0
 30
0.0
  9
$PUCSXDIR
 10
1.0
 20
0.0
 30
0.0
  9
$PUCSYDIR
 10
0.0
 20
1.0
 30
0.0
  9
$USERI1
 70
     0
  9
$USERI2
 70
     0
  9
$USERI3
 70
     0
  9
$USERI4
 70
     0
  9
$USERI5
 70
     0
  9
$USERR1
 40
0.0
  9
$USERR2
 40
0.0
  9
$USERR3
 40
0.0
  9
$USERR4
 40
0.0
  9
$USERR5
 40
0.0
  9
$WORLDVIEW
 70
     1
  9
$SHADEDGE
 70
     3
  9
$SHADEDIF
 70
    70
  9
$TILEMODE
 70
     1
  9
$MAXACTVP
 70
    48
  9
$PLIMCHECK
 70
     0
  9
$PEXTMIN
 10
1.049999952316284
 20
0.7999999523162842
 30
0.0
  9
$PEXTMAX
 10
9.4499995708465558
 20
7.1999995708465558
 30
0.0
  9
$PLIMMIN
 10
0.0
 20
0.0
  9
$PLIMMAX
 10
12.0
 20
9.0
  9
$UNITMODE
 70
     0
  9
$VISRETAIN
 70
     1
  9
$PLINEGEN
 70
     0
  9
$PSLTSCALE
 70
     1
  0
ENDSEC
  0
SECTION
  2
TABLES
  0
TABLE
  2
VPORT
 70
     1
  0
VPORT
  2
*ACTIVE
 70
     0
 10
0.0
 20
0.0
 11
1.0
 21
1.0
 12
601877.59430989053
 22
1331781.325204978
 13
0.0
 23
0.0
 14
0.5
 24
0.5
 15
0.5
 25
0.5
 16
0.0
 26
0.0
 36
1.0
 17
0.0
 27
0.0
 37
0.0
 40
41607.653074260161
 41
2.0461922596754052
 42
50.0
 43
0.0
 44
0.0
 50
0.0
 51
0.0
 71
     0
 72
   100
 73
     1
 74
     2
 75
     0
 76
     0
 77
     0
 78
     0
  0
ENDTAB
  0
TABLE
  2
LTYPE
 70
     1
  0
LTYPE
  2
CONTINUOUS
 70
     0
  3
Solid line
 72
    65
 73
     0
 40
0.0
  0
ENDTAB
  0
TABLE
  2
LAYER
 70
     2
  0
LAYER
  2
0
 70
     0
 62
    -7
  6
CONTINUOUS
  0
LAYER
  2
AREA_SURVEYED
 70
     0
 62
    13
  6
CONTINUOUS
  0
ENDTAB
  0
TABLE
  2
STYLE
 70
     1
  0
STYLE
  2
STANDARD
 70
     0
 40
0.0
 41
1.0
 50
0.0
 71
     0
 42
25.0
  3
txt
  4

  0
ENDTAB
  0
TABLE
  2
VIEW
 70
     0
  0
ENDTAB
  0
TABLE
  2
UCS
 70
     0
  0
ENDTAB
  0
TABLE
  2
APPID
 70
     2
  0
APPID
  2
ACAD
 70
     0
  0
APPID
  2
ADE
 70
     0
  0
ENDTAB
  0
TABLE
  2
DIMSTYLE
 70
     1
  0
DIMSTYLE
  2
STANDARD
 70
     0
  3

  4

  5

  6

  7

 40
1.0
 41
0.18
 42
0.0625
 43
0.38
 44
0.18
 45
0.0
 46
0.0
 47
0.0
 48
0.0
140
0.18
141
0.09
142
0.0
143
25.399999999999999
144
1.0
145
0.0
146
1.0
147
0.09
 71
     0
 72
     0
 73
     1
 74
     1
 75
     0
 76
     0
 77
     0
 78
     0
170
     0
171
     2
172
     0
173
     0
174
     0
175
     0
176
     0
177
     0
178
     0
  0
ENDTAB
  0
ENDSEC
  0
SECTION
  2
BLOCKS
  0
BLOCK
  8
0
  2
$MODEL_SPACE
 70
     0
 10
0.0
 20
0.0
 30
0.0
  3
$MODEL_SPACE
  1

  0
ENDBLK
  5
16
  8
0
  0
BLOCK
 67
     1
  8
0
  2
$PAPER_SPACE
 70
     0
 10
0.0
 20
0.0
 30
0.0
  3
$PAPER_SPACE
  1

  0
ENDBLK
  5
1D
 67
     1
  8
0
  0
ENDSEC
  0
SECTION
  2
ENTITIES
  0
POLYLINE
  5
6E
  8
AREA_SURVEYED
 66
     1
 10
0.0
 20
0.0
 30
0.0
 70
     1
  0
VERTEX
  5
95
  8
AREA_SURVEYED
 10
611188.0
 20
1334494.0
 30
0.0
  0
VERTEX
  5
96
  8
AREA_SURVEYED
 10
610582.0
 20
1334494.0
 30
0.0
  0
VERTEX
  5
97
  8
AREA_SURVEYED
 10
610567.0
 20
1329295.0
 30
0.0
  0
VERTEX
  5
98
  8
AREA_SURVEYED
 10
609409.0
 20
1329295.0
 30
0.0
  0
VERTEX
  5
99
  8
AREA_SURVEYED
 10
609410.0
 20
1328572.0
 30
0.0
  0
VERTEX
  5
9A
  8
AREA_SURVEYED
 10
607174.69902240671
 20
1328586.0392309229
 30
0.0
  0
VERTEX
  5
9B
  8
AREA_SURVEYED
 10
607170.66976812109
 20
1328811.6590480891
 30
0.0
  0
VERTEX
  5
9C
  8
AREA_SURVEYED
 10
605543.17425118759
 20
1328786.24566081
 30
0.0
  0
VERTEX
  5
9D
  8
AREA_SURVEYED
 10
605544.0
 20
1329078.0
 30
0.0
  0
VERTEX
  5
9E
  8
AREA_SURVEYED
 10
604728.0
 20
1329078.0
 30
0.0
  0
VERTEX
  5
9F
  8
AREA_SURVEYED
 10
604728.0
 20
1329292.0
 30
0.0
  0
VERTEX
  5
A0
  8
AREA_SURVEYED
 10
602796.77526742918
 20
1329345.3407803851
 30
0.0
  0
VERTEX
  5
A1
  8
AREA_SURVEYED
 10
602822.204857348
 20
1329650.3017274509
 30
0.0
  0
VERTEX
  5
A2
  8
AREA_SURVEYED
 10
602389.90132526262
 20
1329675.7151147299
 30
0.0
  0
VERTEX
  5
A3
  8
AREA_SURVEYED
 10
602364.47173534369
 20
1330793.9053538791
 30
0.0
  0
VERTEX
  5
A4
  8
AREA_SURVEYED
 10
601957.59779317712
 20
1330743.078579321
 30
0.0
  0
VERTEX
  5
A5
  8
AREA_SURVEYED
 10
601932.0
 20
1332140.0
 30
0.0
  0
VERTEX
  5
A6
  8
AREA_SURVEYED
 10
601187.0
 20
1332140.0
 30
0.0
  0
VERTEX
  5
A7
  8
AREA_SURVEYED
 10
601194.18850431079
 20
1342239.0826629461
 30
0.0
  0
VERTEX
  5
A8
  8
AREA_SURVEYED
 10
601194.18850431079
 20
1342326.6089385031
 30
0.0
  0
VERTEX
  5
A9
  8
AREA_SURVEYED
 10
601190.94466959126
 20
1342430.343717003
 30
0.0
  0
VERTEX
  5
AA
  8
AREA_SURVEYED
 10
601187.70108660497
 20
1342498.4196091969
 30
0.0
  0
VERTEX
  5
AB
  8
AREA_SURVEYED
 10
601694.0
 20
1342498.0
 30
0.0
  0
VERTEX
  5
AC
  8
AREA_SURVEYED
 10
601694.0
 20
1343224.0
 30
0.0
  0
VERTEX
  5
AD
  8
AREA_SURVEYED
 10
601763.51513700187
 20
1343225.605597385
 30
0.0
  0
VERTEX
  5
AE
  8
AREA_SURVEYED
 10
601826.92863009591
 20
1343225.605597385
 30
0.0
  0
VERTEX
  5
AF
  8
AREA_SURVEYED
 10
601885.11346809845
 20
1343224.2356187359
 30
0.0
  0
VERTEX
  5
B0
  8
AREA_SURVEYED
 10
601988.91416525608
 20
1343220.9940380331
 30
0.0
  0
VERTEX
  5
B1
  8
AREA_SURVEYED
 10
602047.30218327383
 20
1343217.752307473
 30
0.0
  0
VERTEX
  5
B2
  8
AREA_SURVEYED
 10
602105.69020129158
 20
1343211.2688463519
 30
0.0
  0
VERTEX
  5
B3
  8
AREA_SURVEYED
 10
602170.56588874827
 20
1343208.027115792
 30
0.0
  0
VERTEX
  5
B4
  8
AREA_SURVEYED
 10
602215.97881962114
 20
1343208.027115792
 30
0.0
  0
VERTEX
  5
B5
  8
AREA_SURVEYED
 10
602251.6602463359
 20
1343204.785385231
 30
0.0
  0
VERTEX
  5
B6
  8
AREA_SURVEYED
 10
602293.82934248948
 20
1343208.027115792
 30
0.0
  0
VERTEX
  5
B7
  8
AREA_SURVEYED
 10
602335.99869037629
 20
1343204.785385231
 30
0.0
  0
VERTEX
  5
B8
  8
AREA_SURVEYED
 10
602374.20932171983
 20
1343210.389481249
 30
0.0
  0
VERTEX
  5
B9
  8
AREA_SURVEYED
 10
602420.33688268345
 20
1343263.136235602
 30
0.0
  0
VERTEX
  5
BA
  8
AREA_SURVEYED
 10
602472.23723126226
 20
1343295.5533913481
 30
0.0
  0
VERTEX
  5
BB
  8
AREA_SURVEYED
 10
602511.16274442954
 20
1343340.937319478
 30
0.0
  0
VERTEX
  5
BC
  8
AREA_SURVEYED
 10
602582.93952807505
 20
1343376.2190244161
 30
0.0
  0
VERTEX
  5
BD
  8
AREA_SURVEYED
 10
602569.55076244718
 20
1343545.165145918
 30
0.0
  0
VERTEX
  5
BE
  8
AREA_SURVEYED
 10
602650.64512003504
 20
1343545.165145918
 30
0.0
  0
VERTEX
  5
BF
  8
AREA_SURVEYED
 10
602699.30188562744
 20
1343551.6484571809
 30
0.0
  0
VERTEX
  5
C0
  8
AREA_SURVEYED
 10
602760.93348663161
 20
1343548.4068764781
 30
0.0
  0
VERTEX
  5
C1
  8
AREA_SURVEYED
 10
602819.32150464924
 20
1343551.6484571809
 30
0.0
  0
VERTEX
  5
C2
  8
AREA_SURVEYED
 10
602897.17227925058
 20
1343548.4068764781
 30
0.0
  0
VERTEX
  5
C3
  8
AREA_SURVEYED
 10
602965.29154969344
 20
1343561.373648861
 30
0.0
  0
VERTEX
  5
C4
  8
AREA_SURVEYED
 10
603113.93459289474
 20
1343560.2355536199
 30
0.0
  0
VERTEX
  5
C5
  8
AREA_SURVEYED
 10
603166.15831236355
 20
1343564.1143240959
 30
0.0
  0
VERTEX
  5
C6
  8
AREA_SURVEYED
 10
603294.80892726756
 20
1343571.8983799531
 30
0.0
  0
VERTEX
  5
C7
  8
AREA_SURVEYED
 10
603349.57337186288
 20
1343582.1491983039
 30
0.0
  0
VERTEX
  5
C8
  8
AREA_SURVEYED
 10
603445.11780644744
 20
1343577.15845694
 30
0.0
  0
VERTEX
  5
C9
  8
AREA_SURVEYED
 10
603555.9428753464
 20
1343577.279867298
 30
0.0
  0
VERTEX
  5
CA
  8
AREA_SURVEYED
 10
603623.44862465095
 20
1343584.996938129
 30
0.0
  0
VERTEX
  5
CB
  8
AREA_SURVEYED
 10
603720.25993299554
 20
1343586.3768491191
 30
0.0
  0
VERTEX
  5
CC
  8
AREA_SURVEYED
 10
603791.58444535732
 20
1343596.6458092481
 30
0.0
  0
VERTEX
  5
CD
  8
AREA_SURVEYED
 10
603860.40172510513
 20
1343569.9702887021
 30
0.0
  0
VERTEX
  5
CE
  8
AREA_SURVEYED
 10
603936.85653096763
 20
1343548.39854675
 30
0.0
  0
VERTEX
  5
CF
  8
AREA_SURVEYED
 10
604014.56285985478
 20
1343547.209822186
 30
0.0
  0
VERTEX
  5
D0
  8
AREA_SURVEYED
 10
604089.70055318845
 20
1343565.1260770799
 30
0.0
  0
VERTEX
  5
D1
  8
AREA_SURVEYED
 10
604162.31426765188
 20
1343561.384067697
 30
0.0
  0
VERTEX
  5
D2
  8
AREA_SURVEYED
 10
604245.12437513401
 20
1343552.5578170179
 30
0.0
  0
VERTEX
  5
D3
  8
AREA_SURVEYED
 10
604312.34061347914
 20
1343545.3451255029
 30
0.0
  0
VERTEX
  5
D4
  8
AREA_SURVEYED
 10
604399.24170205207
 20
1343539.742230617
 30
0.0
  0
VERTEX
  5
D5
  8
AREA_SURVEYED
 10
604460.91358037689
 20
1343539.742230617
 30
0.0
  0
VERTEX
  5
D6
  8
AREA_SURVEYED
 10
604511.3722526062
 20
1343531.337738429
 30
0.0
  0
VERTEX
  5
D7
  8
AREA_SURVEYED
 10
604539.40501611144
 20
1343693.8234884441
 30
0.0
  0
VERTEX
  5
D8
  8
AREA_SURVEYED
 10
604639.57131852582
 20
1343688.0682920341
 30
0.0
  0
VERTEX
  5
D9
  8
AREA_SURVEYED
 10
604825.78276371397
 20
1343679.4696997199
 30
0.0
  0
VERTEX
  5
DA
  8
AREA_SURVEYED
 10
604840.3812361561
 20
1343553.1855418331
 30
0.0
  0
VERTEX
  5
DB
  8
AREA_SURVEYED
 10
604873.76561491017
 20
1343483.365245698
 30
0.0
  0
VERTEX
  5
DC
  8
AREA_SURVEYED
 10
604909.58175741194
 20
1343438.9985645229
 30
0.0
  0
VERTEX
  5
DD
  8
AREA_SURVEYED
 10
604950.53136265255
 20
1343384.477430888
 30
0.0
  0
VERTEX
  5
DE
  8
AREA_SURVEYED
 10
605023.21644365403
 20
1343345.3623091199
 30
0.0
  0
VERTEX
  5
DF
  8
AREA_SURVEYED
 10
605064.00858666922
 20
1343326.460490206
 30
0.0
  0
VERTEX
  5
E0
  8
AREA_SURVEYED
 10
605130.11375337117
 20
1343336.929867116
 30
0.0
  0
VERTEX
  5
E1
  8
AREA_SURVEYED
 10
605194.92430708674
 20
1343352.482093906
 30
0.0
  0
VERTEX
  5
E2
  8
AREA_SURVEYED
 10
605255.94100025715
 20
1343362.9289762119
 30
0.0
  0
VERTEX
  5
E3
  8
AREA_SURVEYED
 10
605313.19757478812
 20
1343360.6378037371
 30
0.0
  0
VERTEX
  5
E4
  8
AREA_SURVEYED
 10
605341.32477048365
 20
1343328.958564485
 30
0.0
  0
VERTEX
  5
E5
  8
AREA_SURVEYED
 10
605377.19714949455
 20
1343271.8706994811
 30
0.0
  0
VERTEX
  5
E6
  8
AREA_SURVEYED
 10
605458.96139235375
 20
1343193.3592734011
 30
0.0
  0
VERTEX
  5
E7
  8
AREA_SURVEYED
 10
605555.97418485489
 20
1343118.7316862801
 30
0.0
  0
VERTEX
  5
E8
  8
AREA_SURVEYED
 10
605652.96448275237
 20
1343049.192572691
 30
0.0
  0
VERTEX
  5
E9
  8
AREA_SURVEYED
 10
605763.93683555967
 20
1342982.2595560269
 30
0.0
  0
VERTEX
  5
EA
  8
AREA_SURVEYED
 10
605840.57323933125
 20
1342912.630464023
 30
0.0
  0
VERTEX
  5
EB
  8
AREA_SURVEYED
 10
605936.25205328956
 20
1342851.9905554629
 30
0.0
  0
VERTEX
  5
EC
  8
AREA_SURVEYED
 10
606025.51966247545
 20
1342802.7715940941
 30
0.0
  0
VERTEX
  5
ED
  8
AREA_SURVEYED
 10
606105.87119567953
 20
1342756.0575039349
 30
0.0
  0
VERTEX
  5
EE
  8
AREA_SURVEYED
 10
606238.26710956311
 20
1342735.0163511201
 30
0.0
  0
VERTEX
  5
EF
  8
AREA_SURVEYED
 10
606361.76944206853
 20
1342711.391595982
 30
0.0
  0
VERTEX
  5
F0
  8
AREA_SURVEYED
 10
606452.03923439397
 20
1342723.2399406419
 30
0.0
  0
VERTEX
  5
F1
  8
AREA_SURVEYED
 10
606551.1632425416
 20
1342746.5767163041
 30
0.0
  0
VERTEX
  5
F2
  8
AREA_SURVEYED
 10
606615.98504355887
 20
1342759.5847063281
 30
0.0
  0
VERTEX
  5
F3
  8
AREA_SURVEYED
 10
606665.50205842545
 20
1342781.4300412219
 30
0.0
  0
VERTEX
  5
F4
  8
AREA_SURVEYED
 10
606716.20683691138
 20
1342822.3627755099
 30
0.0
  0
VERTEX
  5
F5
  8
AREA_SURVEYED
 10
606724.99919257336
 20
1342847.8445087241
 30
0.0
  0
VERTEX
  5
F6
  8
AREA_SURVEYED
 10
606794.66202648275
 20
1342916.848202198
 30
0.0
  0
VERTEX
  5
F7
  8
AREA_SURVEYED
 10
606827.35469617601
 20
1343003.4984671569
 30
0.0
  0
VERTEX
  5
F8
  8
AREA_SURVEYED
 10
606852.7183327208
 20
1343021.4205975351
 30
0.0
  0
VERTEX
  5
F9
  8
AREA_SURVEYED
 10
606900.99697110988
 20
1343035.627598481
 30
0.0
  0
VERTEX
  5
FA
  8
AREA_SURVEYED
 10
606950.57022248546
 20
1343044.751749546
 30
0.0
  0
VERTEX
  5
FB
  8
AREA_SURVEYED
 10
607001.40434494219
 20
1343056.425761028
 30
0.0
  0
VERTEX
  5
FC
  8
AREA_SURVEYED
 10
607028.09633637895
 20
1343061.6323312279
 30
0.0
  0
VERTEX
  5
FD
  8
AREA_SURVEYED
 10
607068.78725367785
 20
1343065.6286432049
 30
0.0
  0
VERTEX
  5
FE
  8
AREA_SURVEYED
 10
607152.80330345617
 20
1343053.278620336
 30
0.0
  0
VERTEX
  5
FF
  8
AREA_SURVEYED
 10
607168.07997135248
 20
1343050.801867381
 30
0.0
  0
VERTEX
  5
100
  8
AREA_SURVEYED
 10
607208.93397452775
 20
1343017.906746255
 30
0.0
  0
VERTEX
  5
101
  8
AREA_SURVEYED
 10
607279.19853908324
 20
1342950.7937727631
 30
0.0
  0
VERTEX
  5
102
  8
AREA_SURVEYED
 10
607354.70903939521
 20
1342848.0839791531
 30
0.0
  0
VERTEX
  5
103
  8
AREA_SURVEYED
 10
607413.80572104978
 20
1342717.314473659
 30
0.0
  0
VERTEX
  5
104
  8
AREA_SURVEYED
 10
607500.70342664781
 20
1342628.6485951201
 30
0.0
  0
VERTEX
  5
105
  8
AREA_SURVEYED
 10
607600.23796131113
 20
1342559.120728832
 30
0.0
  0
VERTEX
  5
106
  8
AREA_SURVEYED
 10
607753.32518837461
 20
1342461.842451459
 30
0.0
  0
VERTEX
  5
107
  8
AREA_SURVEYED
 10
607829.95596849534
 20
1342393.485477838
 30
0.0
  0
VERTEX
  5
108
  8
AREA_SURVEYED
 10
607931.91664325539
 20
1342350.6833448929
 30
0.0
  0
VERTEX
  5
109
  8
AREA_SURVEYED
 10
608004.70857362391
 20
1342287.3979738511
 30
0.0
  0
VERTEX
  5
10A
  8
AREA_SURVEYED
 10
608020.43513359223
 20
1342183.1517502661
 30
0.0
  0
VERTEX
  5
10B
  8
AREA_SURVEYED
 10
608036.08296244766
 20
1342096.715184042
 30
0.0
  0
VERTEX
  5
10C
  8
AREA_SURVEYED
 10
608045.28584462544
 20
1342029.3322753061
 30
0.0
  0
VERTEX
  5
10D
  8
AREA_SURVEYED
 10
608032.69400476746
 20
1342000.017315991
 30
0.0
  0
VERTEX
  5
10E
  8
AREA_SURVEYED
 10
608045.55577986862
 20
1341968.2705929291
 30
0.0
  0
VERTEX
  5
10F
  8
AREA_SURVEYED
 10
608042.20618774486
 20
1341862.6678961981
 30
0.0
  0
VERTEX
  5
110
  8
AREA_SURVEYED
 10
608026.01731512323
 20
1341783.7234489981
 30
0.0
  0
VERTEX
  5
111
  8
AREA_SURVEYED
 10
608026.50657275144
 20
1341673.049149689
 30
0.0
  0
VERTEX
  5
112
  8
AREA_SURVEYED
 10
608042.16002525797
 20
1341585.3404650821
 30
0.0
  0
VERTEX
  5
113
  8
AREA_SURVEYED
 10
608075.67937163368
 20
1341484.9893277581
 30
0.0
  0
VERTEX
  5
114
  8
AREA_SURVEYED
 10
608138.37870970275
 20
1341402.5771917659
 30
0.0
  0
VERTEX
  5
115
  8
AREA_SURVEYED
 10
608211.1650164203
 20
1341340.5639391071
 30
0.0
  0
VERTEX
  5
116
  8
AREA_SURVEYED
 10
608333.3896068919
 20
1341318.2056787009
 30
0.0
  0
VERTEX
  5
117
  8
AREA_SURVEYED
 10
608428.84909846506
 20
1341307.1783870731
 30
0.0
  0
VERTEX
  5
118
  8
AREA_SURVEYED
 10
608493.7608778968
 20
1341299.8324829719
 30
0.0
  0
VERTEX
  5
119
  8
AREA_SURVEYED
 10
608576.53292754665
 20
1341281.1162445371
 30
0.0
  0
VERTEX
  5
11A
  8
AREA_SURVEYED
 10
608630.11936185241
 20
1341245.7331231551
 30
0.0
  0
VERTEX
  5
11B
  8
AREA_SURVEYED
 10
608672.18362325057
 20
1341226.836927891
 30
0.0
  0
VERTEX
  5
11C
  8
AREA_SURVEYED
 10
608728.32554162375
 20
1341188.920817045
 30
0.0
  0
VERTEX
  5
11D
  8
AREA_SURVEYED
 10
608775.43328734627
 20
1341180.2240634479
 30
0.0
  0
VERTEX
  5
11E
  8
AREA_SURVEYED
 10
608805.98662313865
 20
1341175.2705575379
 30
0.0
  0
VERTEX
  5
11F
  8
AREA_SURVEYED
 10
608966.58181267045
 20
1341142.2623164931
 30
0.0
  0
VERTEX
  5
120
  8
AREA_SURVEYED
 10
608996.85049432865
 20
1341122.68288814
 30
0.0
  0
VERTEX
  5
121
  8
AREA_SURVEYED
 10
609036.19281761011
 20
1341113.1533797521
 30
0.0
  0
VERTEX
  5
122
  8
AREA_SURVEYED
 10
609067.69544143276
 20
1341091.006965599
 30
0.0
  0
VERTEX
  5
123
  8
AREA_SURVEYED
 10
609107.91494158469
 20
1341055.9859818581
 30
0.0
  0
VERTEX
  5
124
  8
AREA_SURVEYED
 10
609143.25813396031
 20
1341035.053689576
 30
0.0
  0
VERTEX
  5
125
  8
AREA_SURVEYED
 10
609192.35307279439
 20
1340997.3467982709
 30
0.0
  0
VERTEX
  5
126
  8
AREA_SURVEYED
 10
609237.9047474874
 20
1340977.529526389
 30
0.0
  0
VERTEX
  5
127
  8
AREA_SURVEYED
 10
609259.23852958099
 20
1340956.8152573421
 30
0.0
  0
VERTEX
  5
128
  8
AREA_SURVEYED
 10
609336.55049192056
 20
1340931.408147095
 30
0.0
  0
VERTEX
  5
129
  8
AREA_SURVEYED
 10
609378.45980100206
 20
1340923.112580871
 30
0.0
  0
VERTEX
  5
12A
  8
AREA_SURVEYED
 10
609416.70692417759
 20
1340925.065137554
 30
0.0
  0
VERTEX
  5
12B
  8
AREA_SURVEYED
 10
609466.37665154133
 20
1340924.292146082
 30
0.0
  0
VERTEX
  5
12C
  8
AREA_SURVEYED
 10
609502.15589038772
 20
1340931.378674364
 30
0.0
  0
VERTEX
  5
12D
  8
AREA_SURVEYED
 10
609553.33704403392
 20
1340945.8688556349
 30
0.0
  0
VERTEX
  5
12E
  8
AREA_SURVEYED
 10
609591.82201073901
 20
1340963.1044053519
 30
0.0
  0
VERTEX
  5
12F
  8
AREA_SURVEYED
 10
609611.18341585645
 20
1340979.363676728
 30
0.0
  0
VERTEX
  5
130
  8
AREA_SURVEYED
 10
609645.94673577347
 20
1341003.026601091
 30
0.0
  0
VERTEX
  5
131
  8
AREA_SURVEYED
 10
609678.02414812578
 20
1341017.814086773
 30
0.0
  0
VERTEX
  5
132
  8
AREA_SURVEYED
 10
609692.11283958436
 20
1341022.6903945501
 30
0.0
  0
VERTEX
  5
133
  8
AREA_SURVEYED
 10
609731.81192816014
 20
1341036.0853757141
 30
0.0
  0
VERTEX
  5
134
  8
AREA_SURVEYED
 10
609748.13066041854
 20
1341020.5447188551
 30
0.0
  0
VERTEX
  5
135
  8
AREA_SURVEYED
 10
609793.48413217044
 20
1340987.991619444
 30
0.0
  0
VERTEX
  5
136
  8
AREA_SURVEYED
 10
609819.93206556968
 20
1340968.4716519739
 30
0.0
  0
VERTEX
  5
137
  8
AREA_SURVEYED
 10
609848.74878182774
 20
1340937.4497991391
 30
0.0
  0
VERTEX
  5
138
  8
AREA_SURVEYED
 10
609851.13738498057
 20
1340927.2214965271
 30
0.0
  0
VERTEX
  5
139
  8
AREA_SURVEYED
 10
609885.12771342683
 20
1340901.214693527
 30
0.0
  0
VERTEX
  5
13A
  8
AREA_SURVEYED
 10
609898.68125694396
 20
1340871.7042669749
 30
0.0
  0
VERTEX
  5
13B
  8
AREA_SURVEYED
 10
609913.62730497879
 20
1340849.815516646
 30
0.0
  0
VERTEX
  5
13C
  8
AREA_SURVEYED
 10
609948.1578652953
 20
1340776.666331494
 30
0.0
  0
VERTEX
  5
13D
  8
AREA_SURVEYED
 10
610014.19104943448
 20
1340681.3707321901
 30
0.0
  0
VERTEX
  5
13E
  8
AREA_SURVEYED
 10
610048.38466475089
 20
1340586.5706402389
 30
0.0
  0
VERTEX
  5
13F
  8
AREA_SURVEYED
 10
610075.5512126676
 20
1340531.3705353921
 30
0.0
  0
VERTEX
  5
140
  8
AREA_SURVEYED
 10
610106.18174354895
 20
1340453.1864801119
 30
0.0
  0
VERTEX
  5
141
  8
AREA_SURVEYED
 10
610141.92642573593
 20
1340376.1967264069
 30
0.0
  0
VERTEX
  5
142
  8
AREA_SURVEYED
 10
610154.74661837053
 20
1340299.5637379971
 30
0.0
  0
VERTEX
  5
143
  8
AREA_SURVEYED
 10
610138.45279033505
 20
1340234.8488611269
 30
0.0
  0
VERTEX
  5
144
  8
AREA_SURVEYED
 10
610130.53380969993
 20
1340217.137624352
 30
0.0
  0
VERTEX
  5
145
  8
AREA_SURVEYED
 10
610115.07243401755
 20
1340205.913223105
 30
0.0
  0
VERTEX
  5
146
  8
AREA_SURVEYED
 10
610066.93395323062
 20
1340223.2229700701
 30
0.0
  0
VERTEX
  5
147
  8
AREA_SURVEYED
 10
610000.88603272615
 20
1340235.7158701399
 30
0.0
  0
VERTEX
  5
148
  8
AREA_SURVEYED
 10
609952.70791135065
 20
1340250.4784515989
 30
0.0
  0
VERTEX
  5
149
  8
AREA_SURVEYED
 10
609915.95239416335
 20
1340262.5154849051
 30
0.0
  0
VERTEX
  5
14A
  8
AREA_SURVEYED
 10
609863.67604041134
 20
1340259.507368705
 30
0.0
  0
VERTEX
  5
14B
  8
AREA_SURVEYED
 10
609836.79206054134
 20
1340251.008515612
 30
0.0
  0
VERTEX
  5
14C
  8
AREA_SURVEYED
 10
609812.25704323594
 20
1340229.7341944
 30
0.0
  0
VERTEX
  5
14D
  8
AREA_SURVEYED
 10
609799.28337217716
 20
1340214.6494043069
 30
0.0
  0
VERTEX
  5
14E
  8
AREA_SURVEYED
 10
609778.41054077737
 20
1340183.12696019
 30
0.0
  0
VERTEX
  5
14F
  8
AREA_SURVEYED
 10
609763.94526373036
 20
1340154.0525801079
 30
0.0
  0
VERTEX
  5
150
  8
AREA_SURVEYED
 10
609757.3989673187
 20
1340142.6894368019
 30
0.0
  0
VERTEX
  5
151
  8
AREA_SURVEYED
 10
609740.60454800131
 20
1340127.6641075909
 30
0.0
  0
VERTEX
  5
152
  8
AREA_SURVEYED
 10
609704.82530915504
 20
1340120.577579309
 30
0.0
  0
VERTEX
  5
153
  8
AREA_SURVEYED
 10
609669.08571089676
 20
1340116.0382165329
 30
0.0
  0
VERTEX
  5
154
  8
AREA_SURVEYED
 10
609620.4715430506
 20
1340102.7819774279
 30
0.0
  0
VERTEX
  5
155
  8
AREA_SURVEYED
 10
609562.72427269875
 20
1340075.655070099
 30
0.0
  0
VERTEX
  5
156
  8
AREA_SURVEYED
 10
609552.35722802824
 20
1340064.3513876761
 30
0.0
  0
VERTEX
  5
157
  8
AREA_SURVEYED
 10
609534.13066360506
 20
1340039.157216735
 30
0.0
  0
VERTEX
  5
158
  8
AREA_SURVEYED
 10
609524.40295227536
 20
1339987.079065925
 30
0.0
  0
VERTEX
  5
159
  8
AREA_SURVEYED
 10
609523.96690580458
 20
1339959.0602453609
 30
0.0
  0
VERTEX
  5
15A
  8
AREA_SURVEYED
 10
609554.05720481556
 20
1339928.018572232
 30
0.0
  0
VERTEX
  5
15B
  8
AREA_SURVEYED
 10
609565.06358282699
 20
1339898.547786267
 30
0.0
  0
VERTEX
  5
15C
  8
AREA_SURVEYED
 10
609584.98504010867
 20
1339868.938258244
 30
0.0
  0
VERTEX
  5
15D
  8
AREA_SURVEYED
 10
609606.41792367282
 20
1339854.591902962
 30
0.0
  0
VERTEX
  5
15E
  8
AREA_SURVEYED
 10
609645.50258313073
 20
1339828.5058187861
 30
0.0
  0
VERTEX
  5
15F
  8
AREA_SURVEYED
 10
609688.60619378858
 20
1339815.096101257
 30
0.0
  0
VERTEX
  5
160
  8
AREA_SURVEYED
 10
609723.05238899973
 20
1339818.381701574
 30
0.0
  0
VERTEX
  5
161
  8
AREA_SURVEYED
 10
609794.17482022184
 20
1339804.535937574
 30
0.0
  0
VERTEX
  5
162
  8
AREA_SURVEYED
 10
609906.01225894876
 20
1339787.508758656
 30
0.0
  0
VERTEX
  5
163
  8
AREA_SURVEYED
 10
609975.98002918251
 20
1339781.3243114669
 30
0.0
  0
VERTEX
  5
164
  8
AREA_SURVEYED
 10
609996.56064009934
 20
1339712.2138978101
 30
0.0
  0
VERTEX
  5
165
  8
AREA_SURVEYED
 10
609996.30806020461
 20
1339614.1282055411
 30
0.0
  0
VERTEX
  5
166
  8
AREA_SURVEYED
 10
609991.19899282779
 20
1339531.4047874841
 30
0.0
  0
VERTEX
  5
167
  8
AREA_SURVEYED
 10
609996.59571218025
 20
1339468.900131121
 30
0.0
  0
VERTEX
  5
168
  8
AREA_SURVEYED
 10
610004.46031586197
 20
1339401.261503157
 30
0.0
  0
VERTEX
  5
169
  8
AREA_SURVEYED
 10
610016.76009692042
 20
1339373.0444796521
 30
0.0
  0
VERTEX
  5
16A
  8
AREA_SURVEYED
 10
610040.18517775484
 20
1339322.9981666999
 30
0.0
  0
VERTEX
  5
16B
  8
AREA_SURVEYED
 10
610073.858381495
 20
1339276.614039653
 30
0.0
  0
VERTEX
  5
16C
  8
AREA_SURVEYED
 10
610091.41105591797
 20
1339258.5063969949
 30
0.0
  0
VERTEX
  5
16D
  8
AREA_SURVEYED
 10
610110.2769536823
 20
1339242.9260995481
 30
0.0
  0
VERTEX
  5
16E
  8
AREA_SURVEYED
 10
610134.55430716416
 20
1339247.643844971
 30
0.0
  0
VERTEX
  5
16F
  8
AREA_SURVEYED
 10
610172.60322739871
 20
1339236.8605741239
 30
0.0
  0
VERTEX
  5
170
  8
AREA_SURVEYED
 10
610188.68411612755
 20
1339206.0369242299
 30
0.0
  0
VERTEX
  5
171
  8
AREA_SURVEYED
 10
610184.09037639794
 20
1339156.4266577491
 30
0.0
  0
VERTEX
  5
172
  8
AREA_SURVEYED
 10
610169.46653699793
 20
1339117.163615644
 30
0.0
  0
VERTEX
  5
173
  8
AREA_SURVEYED
 10
610137.59241151577
 20
1339033.582841011
 30
0.0
  0
VERTEX
  5
174
  8
AREA_SURVEYED
 10
610124.18269398645
 20
1338990.4792303529
 30
0.0
  0
VERTEX
  5
175
  8
AREA_SURVEYED
 10
610113.30032166874
 20
1338946.062396354
 30
0.0
  0
VERTEX
  5
176
  8
AREA_SURVEYED
 10
610094.57824989222
 20
1338889.028656591
 30
0.0
  0
VERTEX
  5
177
  8
AREA_SURVEYED
 10
610088.98841152736
 20
1338857.2683689441
 30
0.0
  0
VERTEX
  5
178
  8
AREA_SURVEYED
 10
610098.54282413865
 20
1338816.355158498
 30
0.0
  0
VERTEX
  5
179
  8
AREA_SURVEYED
 10
610110.46601960866
 20
1338763.940062687
 30
0.0
  0
VERTEX
  5
17A
  8
AREA_SURVEYED
 10
610130.24873483158
 20
1338725.415455394
 30
0.0
  0
VERTEX
  5
17B
  8
AREA_SURVEYED
 10
610151.40413427807
 20
1338693.238941571
 30
0.0
  0
VERTEX
  5
17C
  8
AREA_SURVEYED
 10
610179.06618954788
 20
1338669.878405547
 30
0.0
  0
VERTEX
  5
17D
  8
AREA_SURVEYED
 10
610221.21842608775
 20
1338595.336715878
 30
0.0
  0
VERTEX
  5
17E
  8
AREA_SURVEYED
 10
610259.84721878078
 20
1338539.9582283851
 30
0.0
  0
VERTEX
  5
17F
  8
AREA_SURVEYED
 10
610275.8884669214
 20
1338506.587412985
 30
0.0
  0
VERTEX
  5
180
  8
AREA_SURVEYED
 10
610306.61809927318
 20
1338434.7712714691
 30
0.0
  0
VERTEX
  5
181
  8
AREA_SURVEYED
 10
610308.03550801391
 20
1338362.1374139639
 30
0.0
  0
VERTEX
  5
182
  8
AREA_SURVEYED
 10
610314.03192011907
 20
1338256.311123708
 30
0.0
  0
VERTEX
  5
183
  8
AREA_SURVEYED
 10
610301.51919975423
 20
1338188.98962045
 30
0.0
  0
VERTEX
  5
184
  8
AREA_SURVEYED
 10
610266.93934641324
 20
1338095.2598243819
 30
0.0
  0
VERTEX
  5
185
  8
AREA_SURVEYED
 10
610235.14450210729
 20
1338016.773380761
 30
0.0
  0
VERTEX
  5
186
  8
AREA_SURVEYED
 10
610197.1204860959
 20
1337947.30111788
 30
0.0
  0
VERTEX
  5
187
  8
AREA_SURVEYED
 10
610164.13134021382
 20
1337873.928825564
 30
0.0
  0
VERTEX
  5
188
  8
AREA_SURVEYED
 10
610133.78846130811
 20
1337806.8848064239
 30
0.0
  0
VERTEX
  5
189
  8
AREA_SURVEYED
 10
610101.55757053162
 20
1337700.3795422381
 30
0.0
  0
VERTEX
  5
18A
  8
AREA_SURVEYED
 10
610094.85779569577
 20
1337597.298620428
 30
0.0
  0
VERTEX
  5
18B
  8
AREA_SURVEYED
 10
610104.55095036596
 20
1337565.3004892529
 30
0.0
  0
VERTEX
  5
18C
  8
AREA_SURVEYED
 10
610112.87142081256
 20
1337526.9542646061
 30
0.0
  0
VERTEX
  5
18D
  8
AREA_SURVEYED
 10
610148.09569142363
 20
1337498.380475807
 30
0.0
  0
VERTEX
  5
18E
  8
AREA_SURVEYED
 10
610180.67369505775
 20
1337463.478413831
 30
0.0
  0
VERTEX
  5
18F
  8
AREA_SURVEYED
 10
610167.14505576377
 20
1337412.733306655
 30
0.0
  0
VERTEX
  5
190
  8
AREA_SURVEYED
 10
610128.48170641134
 20
1337384.0355121619
 30
0.0
  0
VERTEX
  5
191
  8
AREA_SURVEYED
 10
610061.77971620089
 20
1337354.500181386
 30
0.0
  0
VERTEX
  5
192
  8
AREA_SURVEYED
 10
610015.27666738967
 20
1337313.185481129
 30
0.0
  0
VERTEX
  5
193
  8
AREA_SURVEYED
 10
610004.15645154251
 20
1337253.485654095
 30
0.0
  0
VERTEX
  5
194
  8
AREA_SURVEYED
 10
610000.99485691881
 20
1337214.0442293431
 30
0.0
  0
VERTEX
  5
195
  8
AREA_SURVEYED
 10
609969.61623878975
 20
1337162.303023532
 30
0.0
  0
VERTEX
  5
196
  8
AREA_SURVEYED
 10
609954.85365733085
 20
1337114.1249021571
 30
0.0
  0
VERTEX
  5
197
  8
AREA_SURVEYED
 10
609936.23068702512
 20
1337063.459076158
 30
0.0
  0
VERTEX
  5
198
  8
AREA_SURVEYED
 10
609930.32372395415
 20
1337011.321464465
 30
0.0
  0
VERTEX
  5
199
  8
AREA_SURVEYED
 10
609934.36757937726
 20
1336943.742297384
 30
0.0
  0
VERTEX
  5
19A
  8
AREA_SURVEYED
 10
609936.06247223576
 20
1336888.93859842
 30
0.0
  0
VERTEX
  5
19B
  8
AREA_SURVEYED
 10
609971.10836019949
 20
1336848.9025648439
 30
0.0
  0
VERTEX
  5
19C
  8
AREA_SURVEYED
 10
610010.43086318695
 20
1336838.099473703
 30
0.0
  0
VERTEX
  5
19D
  8
AREA_SURVEYED
 10
610063.90151851508
 20
1336835.9934385971
 30
0.0
  0
VERTEX
  5
19E
  8
AREA_SURVEYED
 10
610121.31184386695
 20
1336841.4694391261
 30
0.0
  0
VERTEX
  5
19F
  8
AREA_SURVEYED
 10
610173.21161203063
 20
1336820.2794830201
 30
0.0
  0
VERTEX
  5
1A0
  8
AREA_SURVEYED
 10
610204.19890820596
 20
1336765.0199172921
 30
0.0
  0
VERTEX
  5
1A1
  8
AREA_SURVEYED
 10
610236.4399668402
 20
1336708.466948516
 30
0.0
  0
VERTEX
  5
1A2
  8
AREA_SURVEYED
 10
610290.15354962694
 20
1336640.1147899639
 30
0.0
  0
VERTEX
  5
1A3
  8
AREA_SURVEYED
 10
610307.60712257936
 20
1336615.639233541
 30
0.0
  0
VERTEX
  5
1A4
  8
AREA_SURVEYED
 10
610341.57763073151
 20
1336588.358847789
 30
0.0
  0
VERTEX
  5
1A5
  8
AREA_SURVEYED
 10
610382.55538598902
 20
1336520.2048921781
 30
0.0
  0
VERTEX
  5
1A6
  8
AREA_SURVEYED
 10
610397.38251225918
 20
1336490.674645331
 30
0.0
  0
VERTEX
  5
1A7
  8
AREA_SURVEYED
 10
610437.126325352
 20
1336425.0876755209
 30
0.0
  0
VERTEX
  5
1A8
  8
AREA_SURVEYED
 10
610449.683770234
 20
1336413.427227803
 30
0.0
  0
VERTEX
  5
1A9
  8
AREA_SURVEYED
 10
610507.53522598557
 20
1336365.3929324159
 30
0.0
  0
VERTEX
  5
1AA
  8
AREA_SURVEYED
 10
610540.60873697302
 20
1336362.330439263
 30
0.0
  0
VERTEX
  5
1AB
  8
AREA_SURVEYED
 10
610559.77193914913
 20
1336365.8538831091
 30
0.0
  0
VERTEX
  5
1AC
  8
AREA_SURVEYED
 10
610586.69555960735
 20
1336376.8999017091
 30
0.0
  0
VERTEX
  5
1AD
  8
AREA_SURVEYED
 10
610639.15029600658
 20
1336391.370262685
 30
0.0
  0
VERTEX
  5
1AE
  8
AREA_SURVEYED
 10
610710.57003164035
 20
1336396.6282399781
 30
0.0
  0
VERTEX
  5
1AF
  8
AREA_SURVEYED
 10
610743.74264409859
 20
1336399.9336605901
 30
0.0
  0
VERTEX
  5
1B0
  8
AREA_SURVEYED
 10
610806.06891781488
 20
1336393.8681351659
 30
0.0
  0
VERTEX
  5
1B1
  8
AREA_SURVEYED
 10
610822.76423566171
 20
1336402.5255506129
 30
0.0
  0
VERTEX
  5
1B2
  8
AREA_SURVEYED
 10
610867.81531907269
 20
1336432.3978263889
 30
0.0
  0
VERTEX
  5
1B3
  8
AREA_SURVEYED
 10
610887.05780242535
 20
1336441.0156012471
 30
0.0
  0
VERTEX
  5
1B4
  8
AREA_SURVEYED
 10
610953.5615896947
 20
1336457.8151044929
 30
0.0
  0
VERTEX
  5
1B5
  8
AREA_SURVEYED
 10
610972.74461216491
 20
1336462.6121310929
 30
0.0
  0
VERTEX
  5
1B6
  8
AREA_SURVEYED
 10
610998.27572810557
 20
1336466.0364734691
 30
0.0
  0
VERTEX
  5
1B7
  8
AREA_SURVEYED
 10
611031.52762174024
 20
1336474.436225093
 30
0.0
  0
VERTEX
  5
1B8
  8
AREA_SURVEYED
 10
611076.063377504
 20
1336471.1953492919
 30
0.0
  0
VERTEX
  5
1B9
  8
AREA_SURVEYED
 10
611089.51781955059
 20
1336435.317008975
 30
0.0
  0
VERTEX
  5
1BA
  8
AREA_SURVEYED
 10
611103.05154277384
 20
1336404.5329996699
 30
0.0
  0
VERTEX
  5
1BB
  8
AREA_SURVEYED
 10
611151.30894532555
 20
1336394.864749223
 30
0.0
  0
VERTEX
  5
1BC
  8
AREA_SURVEYED
 10
611168.0240834665
 20
1336404.7957474219
 30
0.0
  0
VERTEX
  5
1BD
  8
AREA_SURVEYED
 10
611198.90719424235
 20
1336424.6973844101
 30
0.0
  0
VERTEX
  5
1BE
  8
AREA_SURVEYED
 10
611250.34601171222
 20
1336455.7441414681
 30
0.0
  0
VERTEX
  5
1BF
  8
AREA_SURVEYED
 10
611337.52442744013
 20
1336491.3302613019
 30
0.0
  0
VERTEX
  5
1C0
  8
AREA_SURVEYED
 10
611449.39642282645
 20
1336558.3793643699
 30
0.0
  0
VERTEX
  5
1C1
  8
AREA_SURVEYED
 10
611488.05977217865
 20
1336587.0771588639
 30
0.0
  0
VERTEX
  5
1C2
  8
AREA_SURVEYED
 10
611628.12897077645
 20
1336665.152460238
 30
0.0
  0
VERTEX
  5
1C3
  8
AREA_SURVEYED
 10
611742.48867078626
 20
1336728.3411744591
 30
0.0
  0
VERTEX
  5
1C4
  8
AREA_SURVEYED
 10
611818.0
 20
1336800.0
 30
0.0
  0
VERTEX
  5
1C5
  8
AREA_SURVEYED
 10
611818.0
 20
1335878.5
 30
0.0
  0
VERTEX
  5
1C6
  8
AREA_SURVEYED
 10
611778.95808226254
 20
1335879.3620695469
 30
0.0
  0
VERTEX
  5
1C7
  8
AREA_SURVEYED
 10
611670.46570473525
 20
1335865.763801513
 30
0.0
  0
VERTEX
  5
1C8
  8
AREA_SURVEYED
 10
611605.29496110114
 20
1335852.765226231
 30
0.0
  0
VERTEX
  5
1C9
  8
AREA_SURVEYED
 10
611545.0798064199
 20
1335830.772290502
 30
0.0
  0
VERTEX
  5
1CA
  8
AREA_SURVEYED
 10
611454.12028302159
 20
1335797.792797057
 30
0.0
  0
VERTEX
  5
1CB
  8
AREA_SURVEYED
 10
611375.95604803471
 20
1335768.4358489281
 30
0.0
  0
VERTEX
  5
1CC
  8
AREA_SURVEYED
 10
611314.46731060056
 20
1335746.4627334939
 30
0.0
  0
VERTEX
  5
1CD
  8
AREA_SURVEYED
 10
611256.68039966025
 20
1335716.788660659
 30
0.0
  0
VERTEX
  5
1CE
  8
AREA_SURVEYED
 10
611218.0963314845
 20
1335693.185197178
 30
0.0
  0
VERTEX
  5
1CF
  8
AREA_SURVEYED
 10
611136.03206706245
 20
1335658.7933789201
 30
0.0
  0
VERTEX
  5
1D0
  8
AREA_SURVEYED
 10
611063.1009051461
 20
1335638.2722288859
 30
0.0
  0
VERTEX
  5
1D1
  8
AREA_SURVEYED
 10
611008.49540912372
 20
1335649.3131635571
 30
0.0
  0
VERTEX
  5
1D2
  8
AREA_SURVEYED
 10
610919.87976436096
 20
1335685.087318474
 30
0.0
  0
VERTEX
  5
1D3
  8
AREA_SURVEYED
 10
610837.69149424543
 20
1335724.5831201801
 30
0.0
  0
VERTEX
  5
1D4
  8
AREA_SURVEYED
 10
610753.61521225888
 20
1335724.617676839
 30
0.0
  0
VERTEX
  5
1D5
  8
AREA_SURVEYED
 10
610702.29531655379
 20
1335701.212416298
 30
0.0
  0
VERTEX
  5
1D6
  8
AREA_SURVEYED
 10
610622.58001469634
 20
1335654.0451299229
 30
0.0
  0
VERTEX
  5
1D7
  8
AREA_SURVEYED
 10
610567.34026926197
 20
1335624.331416501
 30
0.0
  0
VERTEX
  5
1D8
  8
AREA_SURVEYED
 10
610514.33056462754
 20
1335574.2007384431
 30
0.0
  0
VERTEX
  5
1D9
  8
AREA_SURVEYED
 10
610460.66679028678
 20
1335482.0418295399
 30
0.0
  0
VERTEX
  5
1DA
  8
AREA_SURVEYED
 10
610487.99698448554
 20
1335355.501270236
 30
0.0
  0
VERTEX
  5
1DB
  8
AREA_SURVEYED
 10
610491.28258480283
 20
1335321.055075025
 30
0.0
  0
VERTEX
  5
1DC
  8
AREA_SURVEYED
 10
610528.53869327228
 20
1335259.3284940619
 30
0.0
  0
VERTEX
  5
1DD
  8
AREA_SURVEYED
 10
610605.79119472927
 20
1335230.100635556
 30
0.0
  0
VERTEX
  5
1DE
  8
AREA_SURVEYED
 10
610665.01533470431
 20
1335188.414433639
 30
0.0
  0
VERTEX
  5
1DF
  8
AREA_SURVEYED
 10
610762.8235428551
 20
1335170.331695203
 30
0.0
  0
VERTEX
  5
1E0
  8
AREA_SURVEYED
 10
610863.17891651182
 20
1335152.2093161789
 30
0.0
  0
VERTEX
  5
1E1
  8
AREA_SURVEYED
 10
610965.382661451
 20
1335171.001016696
 30
0.0
  0
VERTEX
  5
1E2
  8
AREA_SURVEYED
 10
611042.07511074375
 20
1335187.641957589
 30
0.0
  0
VERTEX
  5
1E3
  8
AREA_SURVEYED
 10
611082.92886030767
 20
1335193.3756219421
 30
0.0
  0
VERTEX
  5
1E4
  8
AREA_SURVEYED
 10
611144.81400362425
 20
1335240.820392434
 30
0.0
  0
VERTEX
  5
1E5
  8
AREA_SURVEYED
 10
611185.0
 20
1335280.0
 30
0.0
  0
SEQEND
  5
1E6
  8
AREA_SURVEYED
  0
POLYLINE
  5
6F
  8
AREA_SURVEYED
 66
     1
 10
0.0
 20
0.0
 30
0.0
 70
     1
  0
VERTEX
  5
1E7
  8
AREA_SURVEYED
 10
595046.64031266666
 20
1320749.5380101111
 30
0.0
  0
VERTEX
  5
1E8
  8
AREA_SURVEYED
 10
594991.97058114631
 20
1320741.612712252
 30
0.0
  0
VERTEX
  5
1E9
  8
AREA_SURVEYED
 10
594914.5863286301
 20
1320754.6179442899
 30
0.0
  0
VERTEX
  5
1EA
  8
AREA_SURVEYED
 10
594832.24004519393
 20
1320774.086847024
 30
0.0
  0
VERTEX
  5
1EB
  8
AREA_SURVEYED
 10
594773.94108919997
 20
1320786.7099346051
 30
0.0
  0
VERTEX
  5
1EC
  8
AREA_SURVEYED
 10
594694.26689345215
 20
1320812.489650252
 30
0.0
  0
VERTEX
  5
1ED
  8
AREA_SURVEYED
 10
594633.6015653353
 20
1320834.070162138
 30
0.0
  0
VERTEX
  5
1EE
  8
AREA_SURVEYED
 10
594525.22372679028
 20
1320888.427600851
 30
0.0
  0
VERTEX
  5
1EF
  8
AREA_SURVEYED
 10
594476.08600547805
 20
1320913.5958853669
 30
0.0
  0
VERTEX
  5
1F0
  8
AREA_SURVEYED
 10
594471.04900742124
 20
1320979.8856281289
 30
0.0
  0
VERTEX
  5
1F1
  8
AREA_SURVEYED
 10
594463.36832148232
 20
1321168.423173822
 30
0.0
  0
VERTEX
  5
1F2
  8
AREA_SURVEYED
 10
594764.28056085925
 20
1321194.2195952381
 30
0.0
  0
VERTEX
  5
1F3
  8
AREA_SURVEYED
 10
594761.40612454852
 20
1321241.3730888839
 30
0.0
  0
VERTEX
  5
1F4
  8
AREA_SURVEYED
 10
594744.89247228112
 20
1321306.619765219
 30
0.0
  0
VERTEX
  5
1F5
  8
AREA_SURVEYED
 10
594722.32277007191
 20
1321387.2620602581
 30
0.0
  0
VERTEX
  5
1F6
  8
AREA_SURVEYED
 10
594695.19719594182
 20
1321431.0825442451
 30
0.0
  0
VERTEX
  5
1F7
  8
AREA_SURVEYED
 10
594674.07671915914
 20
1321456.9627033251
 30
0.0
  0
VERTEX
  5
1F8
  8
AREA_SURVEYED
 10
594646.69638205762
 20
1321488.0596562971
 30
0.0
  0
VERTEX
  5
1F9
  8
AREA_SURVEYED
 10
594647.71543394262
 20
1321538.953780357
 30
0.0
  0
VERTEX
  5
1FA
  8
AREA_SURVEYED
 10
594653.74746934208
 20
1321585.9289399229
 30
0.0
  0
VERTEX
  5
1FB
  8
AREA_SURVEYED
 10
594645.29957098002
 20
1321609.0096298291
 30
0.0
  0
VERTEX
  5
1FC
  8
AREA_SURVEYED
 10
594633.82437852444
 20
1321671.6096947731
 30
0.0
  0
VERTEX
  5
1FD
  8
AREA_SURVEYED
 10
594645.60674830026
 20
1321687.920998418
 30
0.0
  0
VERTEX
  5
1FE
  8
AREA_SURVEYED
 10
594670.41836465651
 20
1321719.2457763089
 30
0.0
  0
VERTEX
  5
1FF
  8
AREA_SURVEYED
 10
594680.26745936042
 20
1321766.1445069839
 30
0.0
  0
VERTEX
  5
200
  8
AREA_SURVEYED
 10
594691.43985976011
 20
1321815.5624675651
 30
0.0
  0
VERTEX
  5
201
  8
AREA_SURVEYED
 10
594719.4840423417
 20
1321881.1898266021
 30
0.0
  0
VERTEX
  5
202
  8
AREA_SURVEYED
 10
594746.0265851476
 20
1321935.3914840231
 30
0.0
  0
VERTEX
  5
203
  8
AREA_SURVEYED
 10
594801.01946953428
 20
1322011.9350187341
 30
0.0
  0
VERTEX
  5
204
  8
AREA_SURVEYED
 10
594850.74460743507
 20
1322079.6739869229
 30
0.0
  0
VERTEX
  5
205
  8
AREA_SURVEYED
 10
594884.59007698752
 20
1322117.182196242
 30
0.0
  0
VERTEX
  5
206
  8
AREA_SURVEYED
 10
594926.17157033714
 20
1322159.626960184
 30
0.0
  0
VERTEX
  5
207
  8
AREA_SURVEYED
 10
594995.33867291978
 20
1322244.7967273369
 30
0.0
  0
VERTEX
  5
208
  8
AREA_SURVEYED
 10
595035.85162354505
 20
1322297.4457923891
 30
0.0
  0
VERTEX
  5
209
  8
AREA_SURVEYED
 10
595080.23258606868
 20
1322352.563134751
 30
0.0
  0
VERTEX
  5
20A
  8
AREA_SURVEYED
 10
595128.63441827381
 20
1322417.7828730349
 30
0.0
  0
VERTEX
  5
20B
  8
AREA_SURVEYED
 10
595162.60726931167
 20
1322461.6528478609
 30
0.0
  0
VERTEX
  5
20C
  8
AREA_SURVEYED
 10
595197.72509196529
 20
1322499.1355808829
 30
0.0
  0
VERTEX
  5
20D
  8
AREA_SURVEYED
 10
595250.02187412104
 20
1322631.7390809499
 30
0.0
  0
VERTEX
  5
20E
  8
AREA_SURVEYED
 10
595262.87571013113
 20
1322765.1323462289
 30
0.0
  0
VERTEX
  5
20F
  8
AREA_SURVEYED
 10
595270.96986384294
 20
1322851.524975644
 30
0.0
  0
VERTEX
  5
210
  8
AREA_SURVEYED
 10
595278.17380891019
 20
1322957.028377878
 30
0.0
  0
VERTEX
  5
211
  8
AREA_SURVEYED
 10
595294.97062395548
 20
1323033.063848401
 30
0.0
  0
VERTEX
  5
212
  8
AREA_SURVEYED
 10
595311.74196270353
 20
1323107.8269658219
 30
0.0
  0
VERTEX
  5
213
  8
AREA_SURVEYED
 10
595322.45725150977
 20
1323197.985701947
 30
0.0
  0
VERTEX
  5
214
  8
AREA_SURVEYED
 10
595314.67173687287
 20
1323254.1475724929
 30
0.0
  0
VERTEX
  5
215
  8
AREA_SURVEYED
 10
595298.05617941706
 20
1323314.304836422
 30
0.0
  0
VERTEX
  5
216
  8
AREA_SURVEYED
 10
595280.0408873742
 20
1323368.125811141
 30
0.0
  0
VERTEX
  5
217
  8
AREA_SURVEYED
 10
595257.19094589667
 20
1323434.772222063
 30
0.0
  0
VERTEX
  5
218
  8
AREA_SURVEYED
 10
595244.23958996264
 20
1323487.218938492
 30
0.0
  0
VERTEX
  5
219
  8
AREA_SURVEYED
 10
595230.93156586855
 20
1323521.8527114999
 30
0.0
  0
VERTEX
  5
21A
  8
AREA_SURVEYED
 10
595229.66067452193
 20
1323585.5213191679
 30
0.0
  0
VERTEX
  5
21B
  8
AREA_SURVEYED
 10
595259.46125985018
 20
1323675.297910837
 30
0.0
  0
VERTEX
  5
21C
  8
AREA_SURVEYED
 10
595303.25772929494
 20
1323764.794263236
 30
0.0
  0
VERTEX
  5
21D
  8
AREA_SURVEYED
 10
595336.11108501407
 20
1323816.3238329689
 30
0.0
  0
VERTEX
  5
21E
  8
AREA_SURVEYED
 10
595393.92891487211
 20
1323906.812299202
 30
0.0
  0
VERTEX
  5
21F
  8
AREA_SURVEYED
 10
595434.69662846834
 20
1323972.1848952679
 30
0.0
  0
VERTEX
  5
220
  8
AREA_SURVEYED
 10
595461.41750535415
 20
1324035.2930243991
 30
0.0
  0
VERTEX
  5
221
  8
AREA_SURVEYED
 10
595475.54223271087
 20
1324105.0176820089
 30
0.0
  0
VERTEX
  5
222
  8
AREA_SURVEYED
 10
595476.61223719025
 20
1324158.456512271
 30
0.0
  0
VERTEX
  5
223
  8
AREA_SURVEYED
 10
595486.13160178624
 20
1324252.457783998
 30
0.0
  0
VERTEX
  5
224
  8
AREA_SURVEYED
 10
595491.27342854114
 20
1324318.5437163829
 30
0.0
  0
VERTEX
  5
225
  8
AREA_SURVEYED
 10
595492.72557747725
 20
1324391.067843168
 30
0.0
  0
VERTEX
  5
226
  8
AREA_SURVEYED
 10
595499.44547289924
 20
1324472.3965364741
 30
0.0
  0
VERTEX
  5
227
  8
AREA_SURVEYED
 10
595482.93182063184
 20
1324537.643212809
 30
0.0
  0
VERTEX
  5
228
  8
AREA_SURVEYED
 10
595515.68473291723
 20
1324647.7265015061
 30
0.0
  0
VERTEX
  5
229
  8
AREA_SURVEYED
 10
595532.12487980281
 20
1324705.9490286091
 30
0.0
  0
VERTEX
  5
22A
  8
AREA_SURVEYED
 10
595539.22545792675
 20
1324742.7198870659
 30
0.0
  0
VERTEX
  5
22B
  8
AREA_SURVEYED
 10
595541.28757623909
 20
1324782.137356915
 30
0.0
  0
VERTEX
  5
22C
  8
AREA_SURVEYED
 10
595540.70308315998
 20
1324816.5163669521
 30
0.0
  0
VERTEX
  5
22D
  8
AREA_SURVEYED
 10
595516.42793079815
 20
1324875.5541355619
 30
0.0
  0
VERTEX
  5
22E
  8
AREA_SURVEYED
 10
595491.66872879094
 20
1324910.4171952449
 30
0.0
  0
VERTEX
  5
22F
  8
AREA_SURVEYED
 10
595474.84936095821
 20
1324960.395634362
 30
0.0
  0
VERTEX
  5
230
  8
AREA_SURVEYED
 10
595462.81368996575
 20
1324995.003931073
 30
0.0
  0
VERTEX
  5
231
  8
AREA_SURVEYED
 10
595467.01289372705
 20
1325014.012798704
 30
0.0
  0
VERTEX
  5
232
  8
AREA_SURVEYED
 10
595472.38254540134
 20
1325027.906777632
 30
0.0
  0
VERTEX
  5
233
  8
AREA_SURVEYED
 10
595532.3884133026
 20
1325100.5313478501
 30
0.0
  0
VERTEX
  5
234
  8
AREA_SURVEYED
 10
595581.73140674655
 20
1325149.1850195171
 30
0.0
  0
VERTEX
  5
235
  8
AREA_SURVEYED
 10
595613.05764639296
 20
1325188.016534531
 30
0.0
  0
VERTEX
  5
236
  8
AREA_SURVEYED
 10
595649.67710882227
 20
1325236.92496917
 30
0.0
  0
VERTEX
  5
237
  8
AREA_SURVEYED
 10
595654.94485530804
 20
1325245.729535691
 30
0.0
  0
VERTEX
  5
238
  8
AREA_SURVEYED
 10
595720.64066410344
 20
1325271.735496527
 30
0.0
  0
VERTEX
  5
239
  8
AREA_SURVEYED
 10
595699.23550908605
 20
1325233.4250291931
 30
0.0
  0
VERTEX
  5
23A
  8
AREA_SURVEYED
 10
595669.12885478768
 20
1325160.698827839
 30
0.0
  0
VERTEX
  5
23B
  8
AREA_SURVEYED
 10
595653.94124870864
 20
1325146.607408379
 30
0.0
  0
VERTEX
  5
23C
  8
AREA_SURVEYED
 10
595605.92517245596
 20
1325089.0457938579
 30
0.0
  0
VERTEX
  5
23D
  8
AREA_SURVEYED
 10
595561.78081026941
 20
1325022.598526095
 30
0.0
  0
VERTEX
  5
23E
  8
AREA_SURVEYED
 10
595548.05769873108
 20
1324976.698092263
 30
0.0
  0
VERTEX
  5
23F
  8
AREA_SURVEYED
 10
595574.98321631644
 20
1324943.769872027
 30
0.0
  0
VERTEX
  5
240
  8
AREA_SURVEYED
 10
595601.78596459422
 20
1324931.2043317619
 30
0.0
  0
VERTEX
  5
241
  8
AREA_SURVEYED
 10
595654.30294761294
 20
1324875.521558193
 30
0.0
  0
VERTEX
  5
242
  8
AREA_SURVEYED
 10
595684.94671763037
 20
1324859.1610346781
 30
0.0
  0
VERTEX
  5
243
  8
AREA_SURVEYED
 10
595743.52011487156
 20
1324854.4233264441
 30
0.0
  0
VERTEX
  5
244
  8
AREA_SURVEYED
 10
595784.32220562908
 20
1324841.9421900769
 30
0.0
  0
VERTEX
  5
245
  8
AREA_SURVEYED
 10
595797.45555394061
 20
1324774.567543492
 30
0.0
  0
VERTEX
  5
246
  8
AREA_SURVEYED
 10
595762.19684499607
 20
1324711.991989796
 30
0.0
  0
VERTEX
  5
247
  8
AREA_SURVEYED
 10
595726.92278988811
 20
1324651.9617710961
 30
0.0
  0
VERTEX
  5
248
  8
AREA_SURVEYED
 10
595695.52044884651
 20
1324583.045899153
 30
0.0
  0
VERTEX
  5
249
  8
AREA_SURVEYED
 10
595657.60898176173
 20
1324538.2723442679
 30
0.0
  0
VERTEX
  5
24A
  8
AREA_SURVEYED
 10
595611.87735572737
 20
1324523.9967708469
 30
0.0
  0
VERTEX
  5
24B
  8
AREA_SURVEYED
 10
595581.18754721968
 20
1324547.9932993511
 30
0.0
  0
VERTEX
  5
24C
  8
AREA_SURVEYED
 10
595554.96028006938
 20
1324465.108777256
 30
0.0
  0
VERTEX
  5
24D
  8
AREA_SURVEYED
 10
595570.77707884775
 20
1324374.841461868
 30
0.0
  0
VERTEX
  5
24E
  8
AREA_SURVEYED
 10
595572.56384281989
 20
1324289.580412575
 30
0.0
  0
VERTEX
  5
24F
  8
AREA_SURVEYED
 10
595595.76343489101
 20
1324241.3571631161
 30
0.0
  0
VERTEX
  5
250
  8
AREA_SURVEYED
 10
595635.65349299053
 20
1324169.0529812551
 30
0.0
  0
VERTEX
  5
251
  8
AREA_SURVEYED
 10
595632.33424080652
 20
1324086.3065746301
 30
0.0
  0
VERTEX
  5
252
  8
AREA_SURVEYED
 10
595627.42772477481
 20
1324055.731862348
 30
0.0
  0
VERTEX
  5
253
  8
AREA_SURVEYED
 10
595653.31844039436
 20
1323983.343276588
 30
0.0
  0
VERTEX
  5
254
  8
AREA_SURVEYED
 10
595673.05299172946
 20
1323876.5543029699
 30
0.0
  0
VERTEX
  5
255
  8
AREA_SURVEYED
 10
595675.88223074877
 20
1323829.480951702
 30
0.0
  0
VERTEX
  5
256
  8
AREA_SURVEYED
 10
595664.89628124936
 20
1323751.77917658
 30
0.0
  0
VERTEX
  5
257
  8
AREA_SURVEYED
 10
595656.38660901075
 20
1323685.546755105
 30
0.0
  0
VERTEX
  5
258
  8
AREA_SURVEYED
 10
595612.11947751697
 20
1323639.4621673131
 30
0.0
  0
VERTEX
  5
259
  8
AREA_SURVEYED
 10
595517.04539615987
 20
1323576.5259787759
 30
0.0
  0
VERTEX
  5
25A
  8
AREA_SURVEYED
 10
595443.31508516637
 20
1323562.081597558
 30
0.0
  0
VERTEX
  5
25B
  8
AREA_SURVEYED
 10
595404.10025825677
 20
1323522.3910395829
 30
0.0
  0
VERTEX
  5
25C
  8
AREA_SURVEYED
 10
595392.96084712329
 20
1323470.142614424
 30
0.0
  0
VERTEX
  5
25D
  8
AREA_SURVEYED
 10
595428.65692172491
 20
1323460.1761207259
 30
0.0
  0
VERTEX
  5
25E
  8
AREA_SURVEYED
 10
595453.15220053925
 20
1323408.1425418551
 30
0.0
  0
VERTEX
  5
25F
  8
AREA_SURVEYED
 10
595462.5903156636
 20
1323320.382196055
 30
0.0
  0
VERTEX
  5
260
  8
AREA_SURVEYED
 10
595457.92166516453
 20
1323250.3547913311
 30
0.0
  0
VERTEX
  5
261
  8
AREA_SURVEYED
 10
595467.21399173664
 20
1323186.7751279951
 30
0.0
  0
VERTEX
  5
262
  8
AREA_SURVEYED
 10
595461.34940455644
 20
1323104.013375208
 30
0.0
  0
VERTEX
  5
263
  8
AREA_SURVEYED
 10
595456.5963501588
 20
1323047.9853129629
 30
0.0
  0
VERTEX
  5
264
  8
AREA_SURVEYED
 10
595464.61600923259
 20
1322984.3979765461
 30
0.0
  0
VERTEX
  5
265
  8
AREA_SURVEYED
 10
595464.83085552033
 20
1322948.763286598
 30
0.0
  0
VERTEX
  5
266
  8
AREA_SURVEYED
 10
595439.60769800853
 20
1322910.4298000201
 30
0.0
  0
VERTEX
  5
267
  8
AREA_SURVEYED
 10
595420.78624339588
 20
1322865.771341359
 30
0.0
  0
VERTEX
  5
268
  8
AREA_SURVEYED
 10
595381.64047422155
 20
1322814.6267759011
 30
0.0
  0
VERTEX
  5
269
  8
AREA_SURVEYED
 10
595356.50172060856
 20
1322762.2939468429
 30
0.0
  0
VERTEX
  5
26A
  8
AREA_SURVEYED
 10
595351.71797388396
 20
1322711.3565545911
 30
0.0
  0
VERTEX
  5
26B
  8
AREA_SURVEYED
 10
595355.80453423795
 20
1322666.836211401
 30
0.0
  0
VERTEX
  5
26C
  8
AREA_SURVEYED
 10
595351.18959531083
 20
1322587.90013419
 30
0.0
  0
VERTEX
  5
26D
  8
AREA_SURVEYED
 10
595328.93379228888
 20
1322479.585281377
 30
0.0
  0
VERTEX
  5
26E
  8
AREA_SURVEYED
 10
595275.86541145213
 20
1322415.629637039
 30
0.0
  0
VERTEX
  5
26F
  8
AREA_SURVEYED
 10
595208.77466889063
 20
1322355.4075912959
 30
0.0
  0
VERTEX
  5
270
  8
AREA_SURVEYED
 10
595172.04379232368
 20
1322325.913719469
 30
0.0
  0
VERTEX
  5
271
  8
AREA_SURVEYED
 10
595168.40227070835
 20
1322296.619347767
 30
0.0
  0
VERTEX
  5
272
  8
AREA_SURVEYED
 10
595190.12202207535
 20
1322282.7504476761
 30
0.0
  0
VERTEX
  5
273
  8
AREA_SURVEYED
 10
595209.38084234495
 20
1322254.8668589429
 30
0.0
  0
VERTEX
  5
274
  8
AREA_SURVEYED
 10
595187.93732191925
 20
1322222.9197291001
 30
0.0
  0
VERTEX
  5
275
  8
AREA_SURVEYED
 10
595195.92628866632
 20
1322164.4230626761
 30
0.0
  0
VERTEX
  5
276
  8
AREA_SURVEYED
 10
595198.90131623775
 20
1322093.1690289429
 30
0.0
  0
VERTEX
  5
277
  8
AREA_SURVEYED
 10
595169.84481006826
 20
1322057.357858116
 30
0.0
  0
VERTEX
  5
278
  8
AREA_SURVEYED
 10
595106.67949314485
 20
1321979.3414866449
 30
0.0
  0
VERTEX
  5
279
  8
AREA_SURVEYED
 10
595061.09365566284
 20
1321940.8852307589
 30
0.0
  0
VERTEX
  5
27A
  8
AREA_SURVEYED
 10
595024.37045217759
 20
1321910.1186914351
 30
0.0
  0
VERTEX
  5
27B
  8
AREA_SURVEYED
 10
594965.84309342655
 20
1321907.22039468
 30
0.0
  0
VERTEX
  5
27C
  8
AREA_SURVEYED
 10
594926.44411255606
 20
1321898.0738566599
 30
0.0
  0
VERTEX
  5
27D
  8
AREA_SURVEYED
 10
594897.61012575589
 20
1321825.3553283871
 30
0.0
  0
VERTEX
  5
27E
  8
AREA_SURVEYED
 10
594852.96701325895
 20
1321841.6314480039
 30
0.0
  0
VERTEX
  5
27F
  8
AREA_SURVEYED
 10
594817.48578494485
 20
1321815.963251753
 30
0.0
  0
VERTEX
  5
280
  8
AREA_SURVEYED
 10
594799.98303632066
 20
1321763.676461186
 30
0.0
  0
VERTEX
  5
281
  8
AREA_SURVEYED
 10
594816.78859857435
 20
1321720.5055163109
 30
0.0
  0
VERTEX
  5
282
  8
AREA_SURVEYED
 10
594786.6205596223
 20
1321657.9606549409
 30
0.0
  0
VERTEX
  5
283
  8
AREA_SURVEYED
 10
594763.88135245326
 20
1321629.8238545121
 30
0.0
  0
VERTEX
  5
284
  8
AREA_SURVEYED
 10
594768.01395129738
 20
1321577.667506333
 30
0.0
  0
VERTEX
  5
285
  8
AREA_SURVEYED
 10
594812.91027549049
 20
1321519.3933592781
 30
0.0
  0
VERTEX
  5
286
  8
AREA_SURVEYED
 10
594832.30721123074
 20
1321468.6017555781
 30
0.0
  0
VERTEX
  5
287
  8
AREA_SURVEYED
 10
594761.15292756038
 20
1321449.08205053
 30
0.0
  0
VERTEX
  5
288
  8
AREA_SURVEYED
 10
594697.45816799975
 20
1321458.8797364309
 30
0.0
  0
VERTEX
  5
289
  8
AREA_SURVEYED
 10
594720.63474082574
 20
1321414.4744894661
 30
0.0
  0
VERTEX
  5
28A
  8
AREA_SURVEYED
 10
594799.63220269093
 20
1321399.6782105539
 30
0.0
  0
VERTEX
  5
28B
  8
AREA_SURVEYED
 10
594836.76975258801
 20
1321361.720704979
 30
0.0
  0
VERTEX
  5
28C
  8
AREA_SURVEYED
 10
594882.76226340013
 20
1321332.725583463
 30
0.0
  0
VERTEX
  5
28D
  8
AREA_SURVEYED
 10
594944.04213035351
 20
1321301.277203931
 30
0.0
  0
VERTEX
  5
28E
  8
AREA_SURVEYED
 10
594965.89999719115
 20
1321264.5002888739
 30
0.0
  0
VERTEX
  5
28F
  8
AREA_SURVEYED
 10
594939.9259417369
 20
1321139.617739341
 30
0.0
  0
VERTEX
  5
290
  8
AREA_SURVEYED
 10
594933.88487367763
 20
1321086.1273390099
 30
0.0
  0
VERTEX
  5
291
  8
AREA_SURVEYED
 10
594939.29781310167
 20
1321032.7059964151
 30
0.0
  0
VERTEX
  5
292
  8
AREA_SURVEYED
 10
594933.11862957175
 20
1321002.1236110521
 30
0.0
  0
VERTEX
  5
293
  8
AREA_SURVEYED
 10
594937.40469005005
 20
1320924.5139129099
 30
0.0
  0
VERTEX
  5
294
  8
AREA_SURVEYED
 10
594960.73472451
 20
1320854.6553159831
 30
0.0
  0
VERTEX
  5
295
  8
AREA_SURVEYED
 10
594982.63095675618
 20
1320811.5150634351
 30
0.0
  0
VERTEX
  5
296
  8
AREA_SURVEYED
 10
595020.96444333449
 20
1320786.291905923
 30
0.0
  0
SEQEND
  5
297
  8
AREA_SURVEYED
  0
POLYLINE
  5
70
  8
AREA_SURVEYED
 66
     1
 10
0.0
 20
0.0
 30
0.0
 70
     1
  0
VERTEX
  5
298
  8
AREA_SURVEYED
 10
591370.25088679465
 20
1322542.9838701049
 30
0.0
  0
VERTEX
  5
299
  8
AREA_SURVEYED
 10
592584.69480455294
 20
1322546.1509609879
 30
0.0
  0
VERTEX
  5
29A
  8
AREA_SURVEYED
 10
592583.33641346486
 20
1322184.8988204671
 30
0.0
  0
VERTEX
  5
29B
  8
AREA_SURVEYED
 10
592595.60137113137
 20
1322161.7417016691
 30
0.0
  0
VERTEX
  5
29C
  8
AREA_SURVEYED
 10
592641.65938400105
 20
1322109.904954616
 30
0.0
  0
VERTEX
  5
29D
  8
AREA_SURVEYED
 10
592668.65757664572
 20
1322059.7227051221
 30
0.0
  0
VERTEX
  5
29E
  8
AREA_SURVEYED
 10
592694.58722656581
 20
1322019.7447567361
 30
0.0
  0
VERTEX
  5
29F
  8
AREA_SURVEYED
 10
592718.09955176862
 20
1321986.179526452
 30
0.0
  0
VERTEX
  5
2A0
  8
AREA_SURVEYED
 10
592740.33952387015
 20
1321952.6397724659
 30
0.0
  0
VERTEX
  5
2A1
  8
AREA_SURVEYED
 10
592756.44701713824
 20
1321930.678577878
 30
0.0
  0
VERTEX
  5
2A2
  8
AREA_SURVEYED
 10
592797.74680946453
 20
1321895.484326333
 30
0.0
  0
VERTEX
  5
2A3
  8
AREA_SURVEYED
 10
592823.80384087027
 20
1321861.8681434549
 30
0.0
  0
VERTEX
  5
2A4
  8
AREA_SURVEYED
 10
593474.68104473827
 20
1321861.0344521049
 30
0.0
  0
VERTEX
  5
2A5
  8
AREA_SURVEYED
 10
593483.21307739615
 20
1321467.946916901
 30
0.0
  0
VERTEX
  5
2A6
  8
AREA_SURVEYED
 10
593493.00697449595
 20
1321281.988532746
 30
0.0
  0
VERTEX
  5
2A7
  8
AREA_SURVEYED
 10
593679.08571105171
 20
1321213.4778817501
 30
0.0
  0
VERTEX
  5
2A8
  8
AREA_SURVEYED
 10
593845.576653408
 20
1321125.390501837
 30
0.0
  0
VERTEX
  5
2A9
  8
AREA_SURVEYED
 10
593923.92252186313
 20
1321007.9427686769
 30
0.0
  0
VERTEX
  5
2AA
  8
AREA_SURVEYED
 10
593816.19496210758
 20
1320851.3478978539
 30
0.0
  0
VERTEX
  5
2AB
  8
AREA_SURVEYED
 10
593600.7398425974
 20
1320557.7285649539
 30
0.0
  0
VERTEX
  5
2AC
  8
AREA_SURVEYED
 10
593287.3404437406
 20
1320410.917318461
 30
0.0
  0
VERTEX
  5
2AD
  8
AREA_SURVEYED
 10
593188.39763488562
 20
1320236.758746773
 30
0.0
  0
VERTEX
  5
2AE
  8
AREA_SURVEYED
 10
593088.31337516522
 20
1320196.7582455999
 30
0.0
  0
VERTEX
  5
2AF
  8
AREA_SURVEYED
 10
592997.54466966365
 20
1320240.5801913419
 30
0.0
  0
VERTEX
  5
2B0
  8
AREA_SURVEYED
 10
592878.55490925594
 20
1320273.5114377071
 30
0.0
  0
VERTEX
  5
2B1
  8
AREA_SURVEYED
 10
592785.85146692791
 20
1320284.2776791081
 30
0.0
  0
VERTEX
  5
2B2
  8
AREA_SURVEYED
 10
592690.4759369113
 20
1320288.733107595
 30
0.0
  0
VERTEX
  5
2B3
  8
AREA_SURVEYED
 10
592566.01461964066
 20
1320302.6809626271
 30
0.0
  0
VERTEX
  5
2B4
  8
AREA_SURVEYED
 10
592414.96126872441
 20
1320323.5255854051
 30
0.0
  0
VERTEX
  5
2B5
  8
AREA_SURVEYED
 10
592287.29286152544
 20
1320304.443212393
 30
0.0
  0
VERTEX
  5
2B6
  8
AREA_SURVEYED
 10
592229.39233982959
 20
1320322.3521562761
 30
0.0
  0
VERTEX
  5
2B7
  8
AREA_SURVEYED
 10
592221.48581380094
 20
1320381.5794495151
 30
0.0
  0
VERTEX
  5
2B8
  8
AREA_SURVEYED
 10
592233.34560284391
 20
1320436.8583313641
 30
0.0
  0
VERTEX
  5
2B9
  8
AREA_SURVEYED
 10
592233.34560284391
 20
1320523.7249252291
 30
0.0
  0
VERTEX
  5
2BA
  8
AREA_SURVEYED
 10
592225.43907681515
 20
1320622.4370338621
 30
0.0
  0
VERTEX
  5
2BB
  8
AREA_SURVEYED
 10
592161.45732321427
 20
1320618.1641539419
 30
0.0
  0
VERTEX
  5
2BC
  8
AREA_SURVEYED
 10
592083.77439229249
 20
1320618.1641539419
 30
0.0
  0
VERTEX
  5
2BD
  8
AREA_SURVEYED
 10
591999.61761434865
 20
1320614.929241891
 30
0.0
  0
VERTEX
  5
2BE
  8
AREA_SURVEYED
 10
591902.51383522002
 20
1320614.929241891
 30
0.0
  0
VERTEX
  5
2BF
  8
AREA_SURVEYED
 10
591899.27702718566
 20
1320766.9666005881
 30
0.0
  0
VERTEX
  5
2C0
  8
AREA_SURVEYED
 10
591902.51383522002
 20
1320880.18585652
 30
0.0
  0
VERTEX
  5
2C1
  8
AREA_SURVEYED
 10
591886.32979504752
 20
1321087.2153170039
 30
0.0
  0
VERTEX
  5
2C2
  8
AREA_SURVEYED
 10
591879.85617897857
 20
1321342.767335789
 30
0.0
  0
VERTEX
  5
2C3
  8
AREA_SURVEYED
 10
591773.0419757464
 20
1321342.767335789
 30
0.0
  0
VERTEX
  5
2C4
  8
AREA_SURVEYED
 10
591637.09650020371
 20
1321342.767335789
 30
0.0
  0
VERTEX
  5
2C5
  8
AREA_SURVEYED
 10
591481.73017645406
 20
1321342.767335789
 30
0.0
  0
VERTEX
  5
2C6
  8
AREA_SURVEYED
 10
591374.91597322188
 20
1321339.5324237391
 30
0.0
  0
VERTEX
  5
2C7
  8
AREA_SURVEYED
 10
591303.70642741607
 20
1321329.8279682009
 30
0.0
  0
VERTEX
  5
2C8
  8
AREA_SURVEYED
 10
591271.33834707108
 20
1321303.949233026
 30
0.0
  0
VERTEX
  5
2C9
  8
AREA_SURVEYED
 10
591229.26007357566
 20
1321307.184145076
 30
0.0
  0
VERTEX
  5
2CA
  8
AREA_SURVEYED
 10
591200.12903221836
 20
1321271.6009543629
 30
0.0
  0
VERTEX
  5
2CB
  8
AREA_SURVEYED
 10
591162.09607279231
 20
1321258.70887379
 30
0.0
  0
VERTEX
  5
2CC
  8
AREA_SURVEYED
 10
591100.38914000278
 20
1321355.4091712569
 30
0.0
  0
VERTEX
  5
2CD
  8
AREA_SURVEYED
 10
591092.73100685154
 20
1321417.9328073091
 30
0.0
  0
VERTEX
  5
2CE
  8
AREA_SURVEYED
 10
591102.60557785258
 20
1321466.1038910861
 30
0.0
  0
VERTEX
  5
2CF
  8
AREA_SURVEYED
 10
591111.66636910045
 20
1321537.202806985
 30
0.0
  0
SEQEND
  5
2D0
  8
AREA_SURVEYED
  0
POLYLINE
  5
71
  8
AREA_SURVEYED
 66
     1
 10
0.0
 20
0.0
 30
0.0
 70
     1
  0
VERTEX
  5
2D1
  8
AREA_SURVEYED
 10
588607.53906096832
 20
1328856.0920425451
 30
0.0
  0
VERTEX
  5
2D2
  8
AREA_SURVEYED
 10
588645.63101685455
 20
1328872.6254457771
 30
0.0
  0
VERTEX
  5
2D3
  8
AREA_SURVEYED
 10
588698.98707171716
 20
1328849.7960796619
 30
0.0
  0
VERTEX
  5
2D4
  8
AREA_SURVEYED
 10
588759.98762701498
 20
1328786.329357726
 30
0.0
  0
VERTEX
  5
2D5
  8
AREA_SURVEYED
 10
588791.78211081156
 20
1328713.9548679229
 30
0.0
  0
VERTEX
  5
2D6
  8
AREA_SURVEYED
 10
588807.06960247562
 20
1328635.220273996
 30
0.0
  0
VERTEX
  5
2D7
  8
AREA_SURVEYED
 10
588836.31642252917
 20
1328575.5448635621
 30
0.0
  0
VERTEX
  5
2D8
  8
AREA_SURVEYED
 10
588924.02443476836
 20
1328451.1311631289
 30
0.0
  0
VERTEX
  5
2D9
  8
AREA_SURVEYED
 10
588932.94578548602
 20
1328399.064032194
 30
0.0
  0
VERTEX
  5
2DA
  8
AREA_SURVEYED
 10
588934.25357448461
 20
1328335.5618439249
 30
0.0
  0
VERTEX
  5
2DB
  8
AREA_SURVEYED
 10
588910.19716187275
 20
1328209.8116795861
 30
0.0
  0
VERTEX
  5
2DC
  8
AREA_SURVEYED
 10
588892.45935022971
 20
1328137.407760273
 30
0.0
  0
VERTEX
  5
2DD
  8
AREA_SURVEYED
 10
588831.54104663979
 20
1328062.4380667501
 30
0.0
  0
VERTEX
  5
2DE
  8
AREA_SURVEYED
 10
588789.68645415909
 20
1327965.8886916919
 30
0.0
  0
VERTEX
  5
2DF
  8
AREA_SURVEYED
 10
588777.01982271182
 20
1327908.72849708
 30
0.0
  0
VERTEX
  5
2E0
  8
AREA_SURVEYED
 10
588751.65335729311
 20
1327850.2906975809
 30
0.0
  0
VERTEX
  5
2E1
  8
AREA_SURVEYED
 10
588709.79046418145
 20
1327767.7119699549
 30
0.0
  0
VERTEX
  5
2E2
  8
AREA_SURVEYED
 10
588675.53735977504
 20
1327702.9185939501
 30
0.0
  0
VERTEX
  5
2E3
  8
AREA_SURVEYED
 10
588681.91406516079
 20
1327658.470306955
 30
0.0
  0
VERTEX
  5
2E4
  8
AREA_SURVEYED
 10
588641.32575852354
 20
1327568.2719807869
 30
0.0
  0
VERTEX
  5
2E5
  8
AREA_SURVEYED
 10
588601.99241868721
 20
1327503.475586371
 30
0.0
  0
VERTEX
  5
2E6
  8
AREA_SURVEYED
 10
588602.06335135258
 20
1327384.0900537721
 30
0.0
  0
VERTEX
  5
2E7
  8
AREA_SURVEYED
 10
588586.87773106946
 20
1327291.3667019459
 30
0.0
  0
VERTEX
  5
2E8
  8
AREA_SURVEYED
 10
588564.07930366986
 20
1327185.938233929
 30
0.0
  0
VERTEX
  5
2E9
  8
AREA_SURVEYED
 10
588557.76447571546
 20
1327126.2416946159
 30
0.0
  0
VERTEX
  5
2EA
  8
AREA_SURVEYED
 10
588532.38669125445
 20
1327086.854777979
 30
0.0
  0
VERTEX
  5
2EB
  8
AREA_SURVEYED
 10
588454.97346917714
 20
1326985.204038613
 30
0.0
  0
VERTEX
  5
2EC
  8
AREA_SURVEYED
 10
588414.3474323987
 20
1326958.508655316
 30
0.0
  0
VERTEX
  5
2ED
  8
AREA_SURVEYED
 10
588364.85211249744
 20
1326896.2463417919
 30
0.0
  0
VERTEX
  5
2EE
  8
AREA_SURVEYED
 10
588349.64687254082
 20
1326836.5445202589
 30
0.0
  0
VERTEX
  5
2EF
  8
AREA_SURVEYED
 10
588349.66649221443
 20
1326803.522989966
 30
0.0
  0
VERTEX
  5
2F0
  8
AREA_SURVEYED
 10
588362.38217284495
 20
1326778.129358846
 30
0.0
  0
VERTEX
  5
2F1
  8
AREA_SURVEYED
 10
588420.83053678274
 20
1326734.982069423
 30
0.0
  0
VERTEX
  5
2F2
  8
AREA_SURVEYED
 10
588431.00836350699
 20
1326705.776752525
 30
0.0
  0
VERTEX
  5
2F3
  8
AREA_SURVEYED
 10
588432.30181505205
 20
1326666.405682547
 30
0.0
  0
VERTEX
  5
2F4
  8
AREA_SURVEYED
 10
588428.52785941516
 20
1326605.4405935821
 30
0.0
  0
VERTEX
  5
2F5
  8
AREA_SURVEYED
 10
588385.41226331098
 20
1326493.649757633
 30
0.0
  0
VERTEX
  5
2F6
  8
AREA_SURVEYED
 10
588339.73843902419
 20
1326412.3388250561
 30
0.0
  0
VERTEX
  5
2F7
  8
AREA_SURVEYED
 10
588257.25252754544
 20
1326297.9844787039
 30
0.0
  0
VERTEX
  5
2F8
  8
AREA_SURVEYED
 10
588219.17566371569
 20
1326256.0498983241
 30
0.0
  0
VERTEX
  5
2F9
  8
AREA_SURVEYED
 10
588170.93078299833
 20
1326226.8098696959
 30
0.0
  0
VERTEX
  5
2FA
  8
AREA_SURVEYED
 10
588055.39843933331
 20
1326154.347845966
 30
0.0
  0
VERTEX
  5
2FB
  8
AREA_SURVEYED
 10
587965.27104583092
 20
1326075.550620005
 30
0.0
  0
VERTEX
  5
2FC
  8
AREA_SURVEYED
 10
587900.53426503751
 20
1326014.549310104
 30
0.0
  0
VERTEX
  5
2FD
  8
AREA_SURVEYED
 10
587852.30296717095
 20
1325962.4482220421
 30
0.0
  0
VERTEX
  5
2FE
  8
AREA_SURVEYED
 10
587796.46489901084
 20
1325887.48154693
 30
0.0
  0
VERTEX
  5
2FF
  8
AREA_SURVEYED
 10
587743.16468475678
 20
1325816.326557595
 30
0.0
  0
VERTEX
  5
300
  8
AREA_SURVEYED
 10
587703.84492777125
 20
1325728.6691037449
 30
0.0
  0
VERTEX
  5
301
  8
AREA_SURVEYED
 10
587645.43806698895
 20
1325701.9631560091
 30
0.0
  0
VERTEX
  5
302
  8
AREA_SURVEYED
 10
587575.57501999359
 20
1325718.4324180009
 30
0.0
  0
VERTEX
  5
303
  8
AREA_SURVEYED
 10
587489.07066156354
 20
1325954.61205249
 30
0.0
  0
VERTEX
  5
304
  8
AREA_SURVEYED
 10
587473.79901655868
 20
1326006.6754104111
 30
0.0
  0
VERTEX
  5
305
  8
AREA_SURVEYED
 10
587468.6833147963
 20
1326066.365158299
 30
0.0
  0
VERTEX
  5
306
  8
AREA_SURVEYED
 10
587482.6094406615
 20
1326141.306931518
 30
0.0
  0
VERTEX
  5
307
  8
AREA_SURVEYED
 10
587514.33148258715
 20
1326190.8580920279
 30
0.0
  0
VERTEX
  5
308
  8
AREA_SURVEYED
 10
587618.41744987608
 20
1326289.984560339
 30
0.0
  0
VERTEX
  5
309
  8
AREA_SURVEYED
 10
587711.07816966774
 20
1326380.213825223
 30
0.0
  0
VERTEX
  5
30A
  8
AREA_SURVEYED
 10
587821.5234864779
 20
1326464.103360259
 30
0.0
  0
VERTEX
  5
30B
  8
AREA_SURVEYED
 10
587940.83884101361
 20
1326582.2897666651
 30
0.0
  0
VERTEX
  5
30C
  8
AREA_SURVEYED
 10
588052.54742525553
 20
1326677.6105860199
 30
0.0
  0
VERTEX
  5
30D
  8
AREA_SURVEYED
 10
588137.57873666892
 20
1326783.0760295759
 30
0.0
  0
VERTEX
  5
30E
  8
AREA_SURVEYED
 10
588195.93503906229
 20
1326894.875920759
 30
0.0
  0
VERTEX
  5
30F
  8
AREA_SURVEYED
 10
588223.80992887728
 20
1327006.6577014751
 30
0.0
  0
VERTEX
  5
310
  8
AREA_SURVEYED
 10
588244.02145318687
 20
1327190.828309447
 30
0.0
  0
VERTEX
  5
311
  8
AREA_SURVEYED
 10
588222.33310884645
 20
1327354.653073807
 30
0.0
  0
VERTEX
  5
312
  8
AREA_SURVEYED
 10
588215.90584507142
 20
1327484.195304251
 30
0.0
  0
VERTEX
  5
313
  8
AREA_SURVEYED
 10
588248.87379856419
 20
1327574.3891028019
 30
0.0
  0
VERTEX
  5
314
  8
AREA_SURVEYED
 10
588293.23379702994
 20
1327729.362694507
 30
0.0
  0
VERTEX
  5
315
  8
AREA_SURVEYED
 10
588276.65889064327
 20
1327837.3078875521
 30
0.0
  0
VERTEX
  5
316
  8
AREA_SURVEYED
 10
588346.44572275341
 20
1327949.1145701599
 30
0.0
  0
VERTEX
  5
317
  8
AREA_SURVEYED
 10
588425.11919385148
 20
1328067.276829276
 30
0.0
  0
VERTEX
  5
318
  8
AREA_SURVEYED
 10
588517.73237366555
 20
1328237.519802178
 30
0.0
  0
VERTEX
  5
319
  8
AREA_SURVEYED
 10
588555.78433560207
 20
1328321.3663248529
 30
0.0
  0
VERTEX
  5
31A
  8
AREA_SURVEYED
 10
588587.48223023745
 20
1328411.5593687999
 30
0.0
  0
VERTEX
  5
31B
  8
AREA_SURVEYED
 10
588633.11907898588
 20
1328555.103185392
 30
0.0
  0
VERTEX
  5
31C
  8
AREA_SURVEYED
 10
588662.28289272904
 20
1328635.1342492751
 30
0.0
  0
SEQEND
  5
31D
  8
AREA_SURVEYED
  0
POLYLINE
  5
72
  8
AREA_SURVEYED
 66
     1
 10
0.0
 20
0.0
 30
0.0
 70
     1
  0
VERTEX
  5
31E
  8
AREA_SURVEYED
 10
585050.81579177442
 20
1327656.312897485
 30
0.0
  0
VERTEX
  5
31F
  8
AREA_SURVEYED
 10
585113.03735674603
 20
1327675.4007558851
 30
0.0
  0
VERTEX
  5
320
  8
AREA_SURVEYED
 10
585151.13987707149
 20
1327674.1533351119
 30
0.0
  0
VERTEX
  5
321
  8
AREA_SURVEYED
 10
585166.40020303405
 20
1327641.140860053
 30
0.0
  0
VERTEX
  5
322
  8
AREA_SURVEYED
 10
585165.16787431773
 20
1327577.6371625781
 30
0.0
  0
VERTEX
  5
323
  8
AREA_SURVEYED
 10
585171.54684351233
 20
1327529.37869901
 30
0.0
  0
VERTEX
  5
324
  8
AREA_SURVEYED
 10
585186.80716947466
 20
1327496.3662239511
 30
0.0
  0
VERTEX
  5
325
  8
AREA_SURVEYED
 10
585223.66302363039
 20
1327455.746223995
 30
0.0
  0
VERTEX
  5
326
  8
AREA_SURVEYED
 10
585218.6008986684
 20
1327425.261793006
 30
0.0
  0
VERTEX
  5
327
  8
AREA_SURVEYED
 10
585169.58092956129
 20
1327410.8068576651
 30
0.0
  0
VERTEX
  5
328
  8
AREA_SURVEYED
 10
585072.55923541915
 20
1327436.8194827689
 30
0.0
  0
VERTEX
  5
329
  8
AREA_SURVEYED
 10
585008.66660717095
 20
1327446.278593685
 30
0.0
  0
VERTEX
  5
32A
  8
AREA_SURVEYED
 10
584963.29643024085
 20
1327463.211883561
 30
0.0
  0
VERTEX
  5
32B
  8
AREA_SURVEYED
 10
584969.62182263471
 20
1327505.1275988701
 30
0.0
  0
VERTEX
  5
32C
  8
AREA_SURVEYED
 10
584992.44741573581
 20
1327564.8339480211
 30
0.0
  0
SEQEND
  5
32D
  8
AREA_SURVEYED
  0
POLYLINE
  5
73
  8
AREA_SURVEYED
 66
     1
 10
0.0
 20
0.0
 30
0.0
 70
     1
  0
VERTEX
  5
32E
  8
AREA_SURVEYED
 10
585522.3329240036
 20
1329246.707299235
 30
0.0
  0
VERTEX
  5
32F
  8
AREA_SURVEYED
 10
585514.76992067345
 20
1329150.1782984531
 30
0.0
  0
VERTEX
  5
330
  8
AREA_SURVEYED
 10
585519.89769608108
 20
1329070.1676088469
 30
0.0
  0
VERTEX
  5
331
  8
AREA_SURVEYED
 10
585537.72304165165
 20
1328995.2447006979
 30
0.0
  0
VERTEX
  5
332
  8
AREA_SURVEYED
 10
585603.77364826621
 20
1328982.5833514701
 30
0.0
  0
VERTEX
  5
333
  8
AREA_SURVEYED
 10
585738.40064175637
 20
1328981.393280512
 30
0.0
  0
VERTEX
  5
334
  8
AREA_SURVEYED
 10
585837.46145962155
 20
1328987.802433819
 30
0.0
  0
VERTEX
  5
335
  8
AREA_SURVEYED
 10
585841.23466065561
 20
1329050.0375816419
 30
0.0
  0
VERTEX
  5
336
  8
AREA_SURVEYED
 10
585852.63576086238
 20
1329099.576668507
 30
0.0
  0
VERTEX
  5
337
  8
AREA_SURVEYED
 10
585940.2660490108
 20
1329105.9790303891
 30
0.0
  0
VERTEX
  5
338
  8
AREA_SURVEYED
 10
585974.58480386296
 20
1329060.277285798
 30
0.0
  0
VERTEX
  5
339
  8
AREA_SURVEYED
 10
586044.45086926944
 20
1329038.7277883771
 30
0.0
  0
VERTEX
  5
33A
  8
AREA_SURVEYED
 10
586175.24429349985
 20
1329076.9072781899
 30
0.0
  0
VERTEX
  5
33B
  8
AREA_SURVEYED
 10
586304.76388585882
 20
1329121.436307688
 30
0.0
  0
VERTEX
  5
33C
  8
AREA_SURVEYED
 10
586339.06151183182
 20
1329111.2962111051
 30
0.0
  0
VERTEX
  5
33D
  8
AREA_SURVEYED
 10
586384.85229955614
 20
1328995.748020781
 30
0.0
  0
VERTEX
  5
33E
  8
AREA_SURVEYED
 10
586424.26185427746
 20
1328932.268470597
 30
0.0
  0
VERTEX
  5
33F
  8
AREA_SURVEYED
 10
586442.05626113224
 20
1328909.417975602
 30
0.0
  0
VERTEX
  5
340
  8
AREA_SURVEYED
 10
586552.55515474279
 20
1328903.133331761
 30
0.0
  0
VERTEX
  5
341
  8
AREA_SURVEYED
 10
586628.75944079109
 20
1328901.9085490729
 30
0.0
  0
VERTEX
  5
342
  8
AREA_SURVEYED
 10
586734.17281675199
 20
1328904.511298822
 30
0.0
  0
VERTEX
  5
343
  8
AREA_SURVEYED
 10
586811.64565245225
 20
1328905.827388451
 30
0.0
  0
VERTEX
  5
344
  8
AREA_SURVEYED
 10
586906.90082136216
 20
1328904.613924806
 30
0.0
  0
VERTEX
  5
345
  8
AREA_SURVEYED
 10
587028.83854532044
 20
1328884.3654249581
 30
0.0
  0
VERTEX
  5
346
  8
AREA_SURVEYED
 10
587130.45306375134
 20
1328867.915028037
 30
0.0
  0
VERTEX
  5
347
  8
AREA_SURVEYED
 10
587230.78544967971
 20
1328871.7848182321
 30
0.0
  0
VERTEX
  5
348
  8
AREA_SURVEYED
 10
587322.22440519475
 20
1328880.7295616381
 30
0.0
  0
VERTEX
  5
349
  8
AREA_SURVEYED
 10
587406.04074375681
 20
1328893.479953998
 30
0.0
  0
VERTEX
  5
34A
  8
AREA_SURVEYED
 10
587397.12693906727
 20
1328932.846496359
 30
0.0
  0
VERTEX
  5
34B
  8
AREA_SURVEYED
 10
587391.95992431301
 20
1329078.900246552
 30
0.0
  0
VERTEX
  5
34C
  8
AREA_SURVEYED
 10
587376.67092344328
 20
1329160.174958193
 30
0.0
  0
VERTEX
  5
34D
  8
AREA_SURVEYED
 10
587329.67346349859
 20
1329169.037449891
 30
0.0
  0
VERTEX
  5
34E
  8
AREA_SURVEYED
 10
587268.70988373924
 20
1329170.2712878131
 30
0.0
  0
VERTEX
  5
34F
  8
AREA_SURVEYED
 10
587245.91145633988
 20
1329064.842819795
 30
0.0
  0
VERTEX
  5
350
  8
AREA_SURVEYED
 10
587190.04094025819
 20
1329044.488675552
 30
0.0
  0
VERTEX
  5
351
  8
AREA_SURVEYED
 10
587043.98568085965
 20
1329041.8617785131
 30
0.0
  0
VERTEX
  5
352
  8
AREA_SURVEYED
 10
586960.15575944679
 20
1329051.972445586
 30
0.0
  0
VERTEX
  5
353
  8
AREA_SURVEYED
 10
586914.42458534555
 20
1329067.185986174
 30
0.0
  0
VERTEX
  5
354
  8
AREA_SURVEYED
 10
586914.34761585761
 20
1329196.731989631
 30
0.0
  0
VERTEX
  5
355
  8
AREA_SURVEYED
 10
586847.03600561956
 20
1329194.1518779669
 30
0.0
  0
VERTEX
  5
356
  8
AREA_SURVEYED
 10
586858.50954769726
 20
1329121.7653145189
 30
0.0
  0
VERTEX
  5
357
  8
AREA_SURVEYED
 10
586671.84107976826
 20
1329070.852033606
 30
0.0
  0
VERTEX
  5
358
  8
AREA_SURVEYED
 10
586516.89314455935
 20
1329072.0300309199
 30
0.0
  0
VERTEX
  5
359
  8
AREA_SURVEYED
 10
586450.7218014932
 20
1329287.9007973359
 30
0.0
  0
VERTEX
  5
35A
  8
AREA_SURVEYED
 10
586341.51635942771
 20
1329254.8143712
 30
0.0
  0
VERTEX
  5
35B
  8
AREA_SURVEYED
 10
586298.27700846072
 20
1329351.3131878681
 30
0.0
  0
VERTEX
  5
35C
  8
AREA_SURVEYED
 10
586112.8650165383
 20
1329323.2617209931
 30
0.0
  0
VERTEX
  5
35D
  8
AREA_SURVEYED
 10
586003.60750687809
 20
1329377.8093560201
 30
0.0
  0
VERTEX
  5
35E
  8
AREA_SURVEYED
 10
585894.39300957881
 20
1329359.9636361729
 30
0.0
  0
VERTEX
  5
35F
  8
AREA_SURVEYED
 10
585936.38493977312
 20
1329225.362299178
 30
0.0
  0
VERTEX
  5
360
  8
AREA_SURVEYED
 10
585870.35470743489
 20
1329203.7320592559
 30
0.0
  0
VERTEX
  5
361
  8
AREA_SURVEYED
 10
585672.18628632929
 20
1329269.657401802
 30
0.0
  0
VERTEX
  5
362
  8
AREA_SURVEYED
 10
585574.36081559164
 20
1329321.6717105389
 30
0.0
  0
SEQEND
  5
363
  8
AREA_SURVEYED
  0
POLYLINE
  5
74
  8
AREA_SURVEYED
 66
     1
 10
0.0
 20
0.0
 30
0.0
 70
     1
  0
VERTEX
  5
364
  8
AREA_SURVEYED
 10
577814.06871673046
 20
1327570.729403727
 30
0.0
  0
VERTEX
  5
365
  8
AREA_SURVEYED
 10
577866.10339974368
 20
1327634.263285314
 30
0.0
  0
VERTEX
  5
366
  8
AREA_SURVEYED
 10
577943.54076911137
 20
1327695.2721412431
 30
0.0
  0
VERTEX
  5
367
  8
AREA_SURVEYED
 10
578094.68003695365
 20
1327691.551762406
 30
0.0
  0
VERTEX
  5
368
  8
AREA_SURVEYED
 10
578286.46797965921
 20
1327676.425001143
 30
0.0
  0
VERTEX
  5
369
  8
AREA_SURVEYED
 10
578391.87758260604
 20
1327685.3780451789
 30
0.0
  0
VERTEX
  5
36A
  8
AREA_SURVEYED
 10
578518.83894678229
 20
1327760.38697805
 30
0.0
  0
VERTEX
  5
36B
  8
AREA_SURVEYED
 10
578603.90346071986
 20
1327809.969831879
 30
0.0
  0
VERTEX
  5
36C
  8
AREA_SURVEYED
 10
578697.88555236103
 20
1327813.83584906
 30
0.0
  0
VERTEX
  5
36D
  8
AREA_SURVEYED
 10
578807.09854045475
 20
1327834.2216866219
 30
0.0
  0
VERTEX
  5
36E
  8
AREA_SURVEYED
 10
578959.50107572915
 20
1327841.9325921049
 30
0.0
  0
VERTEX
  5
36F
  8
AREA_SURVEYED
 10
579047.1230632466
 20
1327862.3056014189
 30
0.0
  0
VERTEX
  5
370
  8
AREA_SURVEYED
 10
579138.54466289666
 20
1327900.461698544
 30
0.0
  0
VERTEX
  5
371
  8
AREA_SURVEYED
 10
579271.8721680193
 20
1327948.803168423
 30
0.0
  0
VERTEX
  5
372
  8
AREA_SURVEYED
 10
579336.64441514527
 20
1327950.1117120241
 30
0.0
  0
VERTEX
  5
373
  8
AREA_SURVEYED
 10
579431.88675580733
 20
1327970.4892489549
 30
0.0
  0
VERTEX
  5
374
  8
AREA_SURVEYED
 10
579489.02129392396
 20
1328001.0046186601
 30
0.0
  0
VERTEX
  5
375
  8
AREA_SURVEYED
 10
579600.77741814358
 20
1328016.3117299981
 30
0.0
  0
VERTEX
  5
376
  8
AREA_SURVEYED
 10
579642.65842172294
 20
1328068.409045046
 30
0.0
  0
VERTEX
  5
377
  8
AREA_SURVEYED
 10
579745.48489459394
 20
1328149.7539347489
 30
0.0
  0
VERTEX
  5
378
  8
AREA_SURVEYED
 10
579792.48009073024
 20
1328144.7016196239
 30
0.0
  0
VERTEX
  5
379
  8
AREA_SURVEYED
 10
579933.4309674087
 20
1328187.9673816899
 30
0.0
  0
VERTEX
  5
37A
  8
AREA_SURVEYED
 10
579976.59259428503
 20
1328222.284627337
 30
0.0
  0
VERTEX
  5
37B
  8
AREA_SURVEYED
 10
580073.1080122157
 20
1328237.5826834401
 30
0.0
  0
VERTEX
  5
37C
  8
AREA_SURVEYED
 10
580101.05685310729
 20
1328224.898696128
 30
0.0
  0
VERTEX
  5
37D
  8
AREA_SURVEYED
 10
580174.70517478173
 20
1328250.3436402411
 30
0.0
  0
VERTEX
  5
37E
  8
AREA_SURVEYED
 10
580316.91101826122
 20
1328319.0113340579
 30
0.0
  0
VERTEX
  5
37F
  8
AREA_SURVEYED
 10
580469.2682773663
 20
1328402.9257709871
 30
0.0
  0
VERTEX
  5
380
  8
AREA_SURVEYED
 10
580492.11349014065
 20
1328429.610589843
 30
0.0
  0
VERTEX
  5
381
  8
AREA_SURVEYED
 10
580528.91652209894
 20
1328477.8947099079
 30
0.0
  0
VERTEX
  5
382
  8
AREA_SURVEYED
 10
580588.57382206526
 20
1328537.6229425389
 30
0.0
  0
VERTEX
  5
383
  8
AREA_SURVEYED
 10
580586.07822591695
 20
1328462.6879607451
 30
0.0
  0
VERTEX
  5
384
  8
AREA_SURVEYED
 10
580603.9299825863
 20
1328343.312992587
 30
0.0
  0
VERTEX
  5
385
  8
AREA_SURVEYED
 10
580671.29139661056
 20
1328262.0692196609
 30
0.0
  0
VERTEX
  5
386
  8
AREA_SURVEYED
 10
580663.67481648026
 20
1328255.7143977571
 30
0.0
  0
VERTEX
  5
387
  8
AREA_SURVEYED
 10
580581.11419932195
 20
1328267.09587829
 30
0.0
  0
VERTEX
  5
388
  8
AREA_SURVEYED
 10
580463.01004462352
 20
1328247.9748173661
 30
0.0
  0
VERTEX
  5
389
  8
AREA_SURVEYED
 10
580403.35500846547
 20
1328184.4364081619
 30
0.0
  0
VERTEX
  5
38A
  8
AREA_SURVEYED
 10
580360.23941236129
 20
1328072.645572213
 30
0.0
  0
VERTEX
  5
38B
  8
AREA_SURVEYED
 10
580343.77241417847
 20
1327998.9723486451
 30
0.0
  0
VERTEX
  5
38C
  8
AREA_SURVEYED
 10
580319.68128983688
 20
1327931.644891748
 30
0.0
  0
VERTEX
  5
38D
  8
AREA_SURVEYED
 10
580270.10145441955
 20
1328011.629170255
 30
0.0
  0
VERTEX
  5
38E
  8
AREA_SURVEYED
 10
580238.28131412691
 20
1328127.1856612109
 30
0.0
  0
VERTEX
  5
38F
  8
AREA_SURVEYED
 10
580132.83096262766
 20
1328186.8157954761
 30
0.0
  0
VERTEX
  5
390
  8
AREA_SURVEYED
 10
580071.90209459816
 20
1328129.626925956
 30
0.0
  0
VERTEX
  5
391
  8
AREA_SURVEYED
 10
580044.03776922263
 20
1328000.064321236
 30
0.0
  0
VERTEX
  5
392
  8
AREA_SURVEYED
 10
580008.50177771074
 20
1327956.861191205
 30
0.0
  0
VERTEX
  5
393
  8
AREA_SURVEYED
 10
579938.61684723338
 20
1328010.162160062
 30
0.0
  0
VERTEX
  5
394
  8
AREA_SURVEYED
 10
579770.91172823857
 20
1328106.587025654
 30
0.0
  0
VERTEX
  5
395
  8
AREA_SURVEYED
 10
579762.04546352685
 20
1328065.9398599961
 30
0.0
  0
VERTEX
  5
396
  8
AREA_SURVEYED
 10
579800.22118032642
 20
1327941.4967300531
 30
0.0
  0
VERTEX
  5
397
  8
AREA_SURVEYED
 10
579804.08795211033
 20
1327846.2445795541
 30
0.0
  0
VERTEX
  5
398
  8
AREA_SURVEYED
 10
579736.74464855366
 20
1327897.006939901
 30
0.0
  0
VERTEX
  5
399
  8
AREA_SURVEYED
 10
579678.33175094868
 20
1327880.4614630251
 30
0.0
  0
VERTEX
  5
39A
  8
AREA_SURVEYED
 10
579642.82971656369
 20
1327780.1056844101
 30
0.0
  0
VERTEX
  5
39B
  8
AREA_SURVEYED
 10
579617.49645366916
 20
1327665.785295184
 30
0.0
  0
VERTEX
  5
39C
  8
AREA_SURVEYED
 10
579612.46224901173
 20
1327588.3086864699
 30
0.0
  0
VERTEX
  5
39D
  8
AREA_SURVEYED
 10
579663.32346232887
 20
1327489.2742797041
 30
0.0
  0
VERTEX
  5
39E
  8
AREA_SURVEYED
 10
579653.18034733424
 20
1327460.0568891601
 30
0.0
  0
VERTEX
  5
39F
  8
AREA_SURVEYED
 10
579524.88101004669
 20
1327499.352498855
 30
0.0
  0
VERTEX
  5
3A0
  8
AREA_SURVEYED
 10
579420.66751488065
 20
1327614.86597745
 30
0.0
  0
VERTEX
  5
3A1
  8
AREA_SURVEYED
 10
579383.77091217262
 20
1327724.069155707
 30
0.0
  0
VERTEX
  5
3A2
  8
AREA_SURVEYED
 10
579318.95187967154
 20
1327801.504261266
 30
0.0
  0
VERTEX
  5
3A3
  8
AREA_SURVEYED
 10
579233.89189335087
 20
1327744.3010542931
 30
0.0
  0
VERTEX
  5
3A4
  8
AREA_SURVEYED
 10
579155.16861846659
 20
1327709.962679767
 30
0.0
  0
VERTEX
  5
3A5
  8
AREA_SURVEYED
 10
579068.83781868569
 20
1327654.028777048
 30
0.0
  0
VERTEX
  5
3A6
  8
AREA_SURVEYED
 10
579071.45641509409
 20
1327521.944165081
 30
0.0
  0
VERTEX
  5
3A7
  8
AREA_SURVEYED
 10
579114.68293781311
 20
1327447.036348989
 30
0.0
  0
VERTEX
  5
3A8
  8
AREA_SURVEYED
 10
579151.54935640842
 20
1327388.6355250289
 30
0.0
  0
VERTEX
  5
3A9
  8
AREA_SURVEYED
 10
579174.46852025948
 20
1327290.854575858
 30
0.0
  0
VERTEX
  5
3AA
  8
AREA_SURVEYED
 10
579151.67386587418
 20
1327179.0758135531
 30
0.0
  0
VERTEX
  5
3AB
  8
AREA_SURVEYED
 10
579128.82488008565
 20
1327158.741288984
 30
0.0
  0
VERTEX
  5
3AC
  8
AREA_SURVEYED
 10
579028.48947574594
 20
1327159.951734218
 30
0.0
  0
VERTEX
  5
3AD
  8
AREA_SURVEYED
 10
578957.32844958885
 20
1327223.412419332
 30
0.0
  0
VERTEX
  5
3AE
  8
AREA_SURVEYED
 10
578858.21782793733
 20
1327300.8271506149
 30
0.0
  0
VERTEX
  5
3AF
  8
AREA_SURVEYED
 10
578787.06283860281
 20
1327354.127364869
 30
0.0
  0
VERTEX
  5
3B0
  8
AREA_SURVEYED
 10
578693.06339109666
 20
1327379.472701408
 30
0.0
  0
VERTEX
  5
3B1
  8
AREA_SURVEYED
 10
578639.68998036894
 20
1327431.513421244
 30
0.0
  0
VERTEX
  5
3B2
  8
AREA_SURVEYED
 10
578600.33173863951
 20
1327408.6289691229
 30
0.0
  0
VERTEX
  5
3B3
  8
AREA_SURVEYED
 10
578602.93675219722
 20
1327299.4054165899
 30
0.0
  0
VERTEX
  5
3B4
  8
AREA_SURVEYED
 10
578639.82128126011
 20
1327210.5231800519
 30
0.0
  0
VERTEX
  5
3B5
  8
AREA_SURVEYED
 10
578690.6515558617
 20
1327163.5611864401
 30
0.0
  0
VERTEX
  5
3B6
  8
AREA_SURVEYED
 10
578716.09649997391
 20
1327089.9128647661
 30
0.0
  0
VERTEX
  5
3B7
  8
AREA_SURVEYED
 10
578731.39455607755
 20
1326993.3974468349
 30
0.0
  0
VERTEX
  5
3B8
  8
AREA_SURVEYED
 10
578753.02630520635
 20
1326924.8270967819
 30
0.0
  0
VERTEX
  5
3B9
  8
AREA_SURVEYED
 10
578753.05271630501
 20
1326880.3750367721
 30
0.0
  0
VERTEX
  5
3BA
  8
AREA_SURVEYED
 10
577814.07852656685
 20
1327554.2186385801
 30
0.0
  0
SEQEND
  5
3BB
  8
AREA_SURVEYED
  0
POLYLINE
  5
75
  8
AREA_SURVEYED
 66
     1
 10
0.0
 20
0.0
 30
0.0
 70
     1
  0
VERTEX
  5
3BC
  8
AREA_SURVEYED
 10
585840.15045146493
 20
1333620.3700766431
 30
0.0
  0
VERTEX
  5
3BD
  8
AREA_SURVEYED
 10
585697.10085782432
 20
1333620.3700766431
 30
0.0
  0
VERTEX
  5
3BE
  8
AREA_SURVEYED
 10
585704.0148518671
 20
1333415.1498867229
 30
0.0
  0
VERTEX
  5
3BF
  8
AREA_SURVEYED
 10
585537.34116679372
 20
1333412.463210756
 30
0.0
  0
VERTEX
  5
3C0
  8
AREA_SURVEYED
 10
585540.499396767
 20
1333239.6373722709
 30
0.0
  0
VERTEX
  5
3C1
  8
AREA_SURVEYED
 10
585417.02515897341
 20
1333239.76112281
 30
0.0
  0
VERTEX
  5
3C2
  8
AREA_SURVEYED
 10
585420.03655675892
 20
1333096.0759433541
 30
0.0
  0
VERTEX
  5
3C3
  8
AREA_SURVEYED
 10
585267.95253880916
 20
1333095.2933123929
 30
0.0
  0
VERTEX
  5
3C4
  8
AREA_SURVEYED
 10
585266.44672443985
 20
1332932.767183519
 30
0.0
  0
VERTEX
  5
3C5
  8
AREA_SURVEYED
 10
585173.08808117185
 20
1332927.530234687
 30
0.0
  0
VERTEX
  5
3C6
  8
AREA_SURVEYED
 10
585174.59389554115
 20
1332804.1307430831
 30
0.0
  0
VERTEX
  5
3C7
  8
AREA_SURVEYED
 10
585091.77572190471
 20
1332804.8530421481
 30
0.0
  0
VERTEX
  5
3C8
  8
AREA_SURVEYED
 10
585007.45173389907
 20
1332807.8627618901
 30
0.0
  0
VERTEX
  5
3C9
  8
AREA_SURVEYED
 10
585005.94591952977
 20
1332699.512009307
 30
0.0
  0
VERTEX
  5
3CA
  8
AREA_SURVEYED
 10
584956.25520011038
 20
1332698.0072195891
 30
0.0
  0
VERTEX
  5
3CB
  8
AREA_SURVEYED
 10
584879.46005299781
 20
1332698.0072195891
 30
0.0
  0
VERTEX
  5
3CC
  8
AREA_SURVEYED
 10
584602.3959828855
 20
1332698.0072195891
 30
0.0
  0
VERTEX
  5
3CD
  8
AREA_SURVEYED
 10
584602.1893354099
 20
1332428.929218109
 30
0.0
  0
VERTEX
  5
3CE
  8
AREA_SURVEYED
 10
584599.67864720535
 20
1332379.395413463
 30
0.0
  0
VERTEX
  5
3CF
  8
AREA_SURVEYED
 10
584458.70966005884
 20
1332366.6110639761
 30
0.0
  0
VERTEX
  5
3D0
  8
AREA_SURVEYED
 10
584170.39307903615
 20
1332369.1212806699
 30
0.0
  0
VERTEX
  5
3D1
  8
AREA_SURVEYED
 10
584110.9606124782
 20
1332364.1745075041
 30
0.0
  0
VERTEX
  5
3D2
  8
AREA_SURVEYED
 10
584112.25524899713
 20
1331909.1838687309
 30
0.0
  0
VERTEX
  5
3D3
  8
AREA_SURVEYED
 10
584098.48608051916
 20
1331570.069853167
 30
0.0
  0
VERTEX
  5
3D4
  8
AREA_SURVEYED
 10
584099.79311491479
 20
1331507.837723755
 30
0.0
  0
VERTEX
  5
3D5
  8
AREA_SURVEYED
 10
584083.32611673197
 20
1331434.1645001881
 30
0.0
  0
VERTEX
  5
3D6
  8
AREA_SURVEYED
 10
584066.86289156333
 20
1331354.1409823331
 30
0.0
  0
VERTEX
  5
3D7
  8
AREA_SURVEYED
 10
584091.05135966896
 20
1331257.6308466231
 30
0.0
  0
VERTEX
  5
3D8
  8
AREA_SURVEYED
 10
584102.52641095221
 20
1331182.7041654601
 30
0.0
  0
VERTEX
  5
3D9
  8
AREA_SURVEYED
 10
584106.36299862328
 20
1331138.2543692579
 30
0.0
  0
VERTEX
  5
3DA
  8
AREA_SURVEYED
 10
584112.73819480359
 20
1331096.346199977
 30
0.0
  0
VERTEX
  5
3DB
  8
AREA_SURVEYED
 10
584116.56648184359
 20
1331065.867051207
 30
0.0
  0
VERTEX
  5
3DC
  8
AREA_SURVEYED
 10
584129.30480055907
 20
1331002.371654364
 30
0.0
  0
VERTEX
  5
3DD
  8
AREA_SURVEYED
 10
584145.84801362699
 20
1330947.7689333309
 30
0.0
  0
VERTEX
  5
3DE
  8
AREA_SURVEYED
 10
584170.01459825074
 20
1330888.0905044861
 30
0.0
  0
VERTEX
  5
3DF
  8
AREA_SURVEYED
 10
584194.16760002391
 20
1330851.2731350739
 30
0.0
  0
VERTEX
  5
3E0
  8
AREA_SURVEYED
 10
584211.96804370114
 20
1330818.262169221
 30
0.0
  0
VERTEX
  5
3E1
  8
AREA_SURVEYED
 10
584232.31011429895
 20
1330782.7125948579
 30
0.0
  0
VERTEX
  5
3E2
  8
AREA_SURVEYED
 10
584222.18510977225
 20
1330723.013791736
 30
0.0
  0
VERTEX
  5
3E3
  8
AREA_SURVEYED
 10
584213.31809045782
 20
1330683.636684936
 30
0.0
  0
VERTEX
  5
3E4
  8
AREA_SURVEYED
 10
584199.36857190495
 20
1330648.066736297
 30
0.0
  0
VERTEX
  5
3E5
  8
AREA_SURVEYED
 10
584181.6103859857
 20
1330609.954406135
 30
0.0
  0
VERTEX
  5
3E6
  8
AREA_SURVEYED
 10
584165.11471289559
 20
1330584.543419149
 30
0.0
  0
VERTEX
  5
3E7
  8
AREA_SURVEYED
 10
584105.4536399151
 20
1330531.1654808039
 30
0.0
  0
VERTEX
  5
3E8
  8
AREA_SURVEYED
 10
584074.99486542156
 20
1330493.0456046141
 30
0.0
  0
VERTEX
  5
3E9
  8
AREA_SURVEYED
 10
584075.00618446385
 20
1330473.9947217531
 30
0.0
  0
VERTEX
  5
3EA
  8
AREA_SURVEYED
 10
584105.51249893522
 20
1330432.1008899249
 30
0.0
  0
VERTEX
  5
3EB
  8
AREA_SURVEYED
 10
584086.47368971899
 20
1330411.768629164
 30
0.0
  0
VERTEX
  5
3EC
  8
AREA_SURVEYED
 10
584036.96327776124
 20
1330374.907492789
 30
0.0
  0
VERTEX
  5
3ED
  8
AREA_SURVEYED
 10
584014.12862942624
 20
1330330.4418499279
 30
0.0
  0
VERTEX
  5
3EE
  8
AREA_SURVEYED
 10
584042.09105316876
 20
1330294.8968031821
 30
0.0
  0
VERTEX
  5
3EF
  8
AREA_SURVEYED
 10
584076.40678960946
 20
1330254.275294021
 30
0.0
  0
VERTEX
  5
3F0
  8
AREA_SURVEYED
 10
584098.05212158896
 20
1330162.843884534
 30
0.0
  0
VERTEX
  5
3F1
  8
AREA_SURVEYED
 10
584093.01716232882
 20
1330086.6373346769
 30
0.0
  0
VERTEX
  5
3F2
  8
AREA_SURVEYED
 10
584063.84127494064
 20
1330026.9272125131
 30
0.0
  0
VERTEX
  5
3F3
  8
AREA_SURVEYED
 10
584033.39155568078
 20
1329973.5666300331
 30
0.0
  0
VERTEX
  5
3F4
  8
AREA_SURVEYED
 10
584004.21491368976
 20
1329915.126566726
 30
0.0
  0
VERTEX
  5
3F5
  8
AREA_SURVEYED
 10
583980.11322490871
 20
1329865.5799338331
 30
0.0
  0
VERTEX
  5
3F6
  8
AREA_SURVEYED
 10
583948.39118298294
 20
1329816.0287733229
 30
0.0
  0
VERTEX
  5
3F7
  8
AREA_SURVEYED
 10
583934.46052950097
 20
1329748.707353248
 30
0.0
  0
VERTEX
  5
3F8
  8
AREA_SURVEYED
 10
583929.42707944626
 20
1329669.960685676
 30
0.0
  0
VERTEX
  5
3F9
  8
AREA_SURVEYED
 10
583929.49574830325
 20
1329554.38532965
 30
0.0
  0
VERTEX
  5
3FA
  8
AREA_SURVEYED
 10
583923.20506763901
 20
1329454.046906899
 30
0.0
  0
VERTEX
  5
3FB
  8
AREA_SURVEYED
 10
583920.71701751894
 20
1329366.4113365309
 30
0.0
  0
VERTEX
  5
3FC
  8
AREA_SURVEYED
 10
583922.03537095687
 20
1329285.1283242591
 30
0.0
  0
VERTEX
  5
3FD
  8
AREA_SURVEYED
 10
583901.74914096785
 20
1329226.693543172
 30
0.0
  0
VERTEX
  5
3FE
  8
AREA_SURVEYED
 10
583872.54080565844
 20
1329221.5959518771
 30
0.0
  0
VERTEX
  5
3FF
  8
AREA_SURVEYED
 10
583833.17275409214
 20
1329215.222264902
 30
0.0
  0
VERTEX
  5
400
  8
AREA_SURVEYED
 10
583774.74702823919
 20
1329220.267788602
 30
0.0
  0
VERTEX
  5
401
  8
AREA_SURVEYED
 10
583703.60939476965
 20
1329244.3566491359
 30
0.0
  0
VERTEX
  5
402
  8
AREA_SURVEYED
 10
583627.39001666475
 20
1329270.9826089719
 30
0.0
  0
VERTEX
  5
403
  8
AREA_SURVEYED
 10
583598.16734390147
 20
1329290.016135969
 30
0.0
  0
VERTEX
  5
404
  8
AREA_SURVEYED
 10
583562.61852414149
 20
1329268.4040065131
 30
0.0
  0
VERTEX
  5
405
  8
AREA_SURVEYED
 10
583487.7008982125
 20
1329241.688248941
 30
0.0
  0
VERTEX
  5
406
  8
AREA_SURVEYED
 10
583408.92404652783
 20
1329297.524053293
 30
0.0
  0
VERTEX
  5
407
  8
AREA_SURVEYED
 10
583366.97286488593
 20
1329363.5422119859
 30
0.0
  0
VERTEX
  5
408
  8
AREA_SURVEYED
 10
583424.00402241573
 20
1329568.055645159
 30
0.0
  0
VERTEX
  5
409
  8
AREA_SURVEYED
 10
583348.89321816422
 20
1329866.4749550871
 30
0.0
  0
VERTEX
  5
40A
  8
AREA_SURVEYED
 10
583210.43416461989
 20
1329904.4944691029
 30
0.0
  0
VERTEX
  5
40B
  8
AREA_SURVEYED
 10
583165.98889603524
 20
1329893.0375282869
 30
0.0
  0
VERTEX
  5
40C
  8
AREA_SURVEYED
 10
583028.7455699452
 20
1330022.5020346399
 30
0.0
  0
VERTEX
  5
40D
  8
AREA_SURVEYED
 10
582906.86519580137
 20
1329946.226061323
 30
0.0
  0
VERTEX
  5
40E
  8
AREA_SURVEYED
 10
582826.78810114635
 20
1330052.863465369
 30
0.0
  0
VERTEX
  5
40F
  8
AREA_SURVEYED
 10
582495.40008312173
 20
1329888.8289214249
 30
0.0
  0
VERTEX
  5
410
  8
AREA_SURVEYED
 10
582575.54584663361
 20
1329666.616161352
 30
0.0
  0
VERTEX
  5
411
  8
AREA_SURVEYED
 10
582639.09029266029
 20
1329596.8006543349
 30
0.0
  0
VERTEX
  5
412
  8
AREA_SURVEYED
 10
582645.44058694749
 20
1329596.804427349
 30
0.0
  0
VERTEX
  5
413
  8
AREA_SURVEYED
 10
582708.92919236526
 20
1329620.9732757809
 30
0.0
  0
VERTEX
  5
414
  8
AREA_SURVEYED
 10
582793.98917868582
 20
1329678.176482755
 30
0.0
  0
VERTEX
  5
415
  8
AREA_SURVEYED
 10
582861.28041464766
 20
1329715.0481835699
 30
0.0
  0
VERTEX
  5
416
  8
AREA_SURVEYED
 10
582906.99045986996
 20
1329735.3962909901
 30
0.0
  0
VERTEX
  5
417
  8
AREA_SURVEYED
 10
582996.04021823464
 20
1329490.327753704
 30
0.0
  0
VERTEX
  5
418
  8
AREA_SURVEYED
 10
582923.68308429676
 20
1329429.3219161869
 30
0.0
  0
VERTEX
  5
419
  8
AREA_SURVEYED
 10
582927.55740210891
 20
1329321.369177114
 30
0.0
  0
VERTEX
  5
41A
  8
AREA_SURVEYED
 10
582869.12714863906
 20
1329334.035053958
 30
0.0
  0
VERTEX
  5
41B
  8
AREA_SURVEYED
 10
582810.6923675522
 20
1329354.3212839479
 30
0.0
  0
VERTEX
  5
41C
  8
AREA_SURVEYED
 10
582749.76425412553
 20
1329295.8623555701
 30
0.0
  0
VERTEX
  5
41D
  8
AREA_SURVEYED
 10
582718.02410173207
 20
1329276.7926076381
 30
0.0
  0
VERTEX
  5
41E
  8
AREA_SURVEYED
 10
582654.53021409456
 20
1329261.514171208
 30
0.0
  0
VERTEX
  5
41F
  8
AREA_SURVEYED
 10
582585.95986404142
 20
1329239.8824220791
 30
0.0
  0
VERTEX
  5
420
  8
AREA_SURVEYED
 10
582540.24453659949
 20
1329228.4247266611
 30
0.0
  0
VERTEX
  5
421
  8
AREA_SURVEYED
 10
582467.84212649218
 20
1329243.622420589
 30
0.0
  0
VERTEX
  5
422
  8
AREA_SURVEYED
 10
582399.25442057417
 20
1329251.2020251809
 30
0.0
  0
VERTEX
  5
423
  8
AREA_SURVEYED
 10
582321.77781185973
 20
1329256.236229839
 30
0.0
  0
VERTEX
  5
424
  8
AREA_SURVEYED
 10
582265.89220372157
 20
1329261.2832627441
 30
0.0
  0
VERTEX
  5
425
  8
AREA_SURVEYED
 10
582217.63600396202
 20
1329251.0941169781
 30
0.0
  0
VERTEX
  5
426
  8
AREA_SURVEYED
 10
582227.82137671451
 20
1329209.1882115051
 30
0.0
  0
VERTEX
  5
427
  8
AREA_SURVEYED
 10
582277.37102801912
 20
1329180.006287294
 30
0.0
  0
VERTEX
  5
428
  8
AREA_SURVEYED
 10
582277.38612007559
 20
1329154.6051101461
 30
0.0
  0
VERTEX
  5
429
  8
AREA_SURVEYED
 10
582208.80067796598
 20
1329158.374538166
 30
0.0
  0
VERTEX
  5
42A
  8
AREA_SURVEYED
 10
582150.40060860896
 20
1329120.238060713
 30
0.0
  0
VERTEX
  5
42B
  8
AREA_SURVEYED
 10
582196.15668460343
 20
1329063.11257783
 30
0.0
  0
VERTEX
  5
42C
  8
AREA_SURVEYED
 10
582268.57343216427
 20
1329023.783765611
 30
0.0
  0
VERTEX
  5
42D
  8
AREA_SURVEYED
 10
582269.85028244718
 20
1329012.3539904971
 30
0.0
  0
VERTEX
  5
42E
  8
AREA_SURVEYED
 10
582201.27540477703
 20
1328998.342594513
 30
0.0
  0
VERTEX
  5
42F
  8
AREA_SURVEYED
 10
582213.98731239373
 20
1328979.2992576801
 30
0.0
  0
VERTEX
  5
430
  8
AREA_SURVEYED
 10
582241.9512453418
 20
1328941.214093219
 30
0.0
  0
VERTEX
  5
431
  8
AREA_SURVEYED
 10
582234.3354198141
 20
1328933.5892124581
 30
0.0
  0
VERTEX
  5
432
  8
AREA_SURVEYED
 10
582173.41409781284
 20
1328863.6997543629
 30
0.0
  0
VERTEX
  5
433
  8
AREA_SURVEYED
 10
582151.86460039183
 20
1328793.8336889569
 30
0.0
  0
VERTEX
  5
434
  8
AREA_SURVEYED
 10
582214.11408566788
 20
1328765.9293696319
 30
0.0
  0
VERTEX
  5
435
  8
AREA_SURVEYED
 10
582221.73594801803
 20
1328763.3937795339
 30
0.0
  0
VERTEX
  5
436
  8
AREA_SURVEYED
 10
582209.03535944386
 20
1328763.386233506
 30
0.0
  0
VERTEX
  5
437
  8
AREA_SURVEYED
 10
582007.1314674454
 20
1328703.5734853579
 30
0.0
  0
VERTEX
  5
438
  8
AREA_SURVEYED
 10
582018.60123650904
 20
1328637.537216197
 30
0.0
  0
VERTEX
  5
439
  8
AREA_SURVEYED
 10
582093.55810178479
 20
1328598.209913183
 30
0.0
  0
VERTEX
  5
43A
  8
AREA_SURVEYED
 10
582124.05385181669
 20
1328574.0969053591
 30
0.0
  0
VERTEX
  5
43B
  8
AREA_SURVEYED
 10
582246.02326909348
 20
1328500.5059334999
 30
0.0
  0
VERTEX
  5
43C
  8
AREA_SURVEYED
 10
582310.80381685065
 20
1328487.84382967
 30
0.0
  0
VERTEX
  5
43D
  8
AREA_SURVEYED
 10
582389.55652124493
 20
1328472.649908755
 30
0.0
  0
VERTEX
  5
43E
  8
AREA_SURVEYED
 10
582478.47799712978
 20
1328443.4913772319
 30
0.0
  0
VERTEX
  5
43F
  8
AREA_SURVEYED
 10
582559.77459225315
 20
1328421.9486712359
 30
0.0
  0
VERTEX
  5
440
  8
AREA_SURVEYED
 10
582625.83576330717
 20
1328391.506498005
 30
0.0
  0
VERTEX
  5
441
  8
AREA_SURVEYED
 10
582709.68983201031
 20
1328340.7539474941
 30
0.0
  0
VERTEX
  5
442
  8
AREA_SURVEYED
 10
582752.91937314067
 20
1328260.765895972
 30
0.0
  0
VERTEX
  5
443
  8
AREA_SURVEYED
 10
582805.02272501099
 20
1328208.7244215331
 30
0.0
  0
VERTEX
  5
444
  8
AREA_SURVEYED
 10
582857.12532227847
 20
1328157.9530059521
 30
0.0
  0
VERTEX
  5
445
  8
AREA_SURVEYED
 10
582895.25274449727
 20
1328114.7936428839
 30
0.0
  0
VERTEX
  5
446
  8
AREA_SURVEYED
 10
582891.46822442091
 20
1328071.609377923
 30
0.0
  0
VERTEX
  5
447
  8
AREA_SURVEYED
 10
582745.40240058268
 20
1328086.763304888
 30
0.0
  0
VERTEX
  5
448
  8
AREA_SURVEYED
 10
582544.75121157698
 20
1328056.162665063
 30
0.0
  0
VERTEX
  5
449
  8
AREA_SURVEYED
 10
582544.74894776847
 20
1328059.972841636
 30
0.0
  0
VERTEX
  5
44A
  8
AREA_SURVEYED
 10
582465.97511449514
 20
1328110.7284105581
 30
0.0
  0
VERTEX
  5
44B
  8
AREA_SURVEYED
 10
582350.42616956786
 20
1328066.207681691
 30
0.0
  0
VERTEX
  5
44C
  8
AREA_SURVEYED
 10
582217.08508159441
 20
1328040.727271246
 30
0.0
  0
VERTEX
  5
44D
  8
AREA_SURVEYED
 10
582021.4718702602
 20
1328081.252945849
 30
0.0
  0
VERTEX
  5
44E
  8
AREA_SURVEYED
 10
581937.67515137151
 20
1328035.481023195
 30
0.0
  0
VERTEX
  5
44F
  8
AREA_SURVEYED
 10
581960.59129681124
 20
1327942.7803094541
 30
0.0
  0
VERTEX
  5
450
  8
AREA_SURVEYED
 10
581900.92871462507
 20
1327891.942488824
 30
0.0
  0
VERTEX
  5
451
  8
AREA_SURVEYED
 10
581757.40904532454
 20
1327896.9374541349
 30
0.0
  0
VERTEX
  5
452
  8
AREA_SURVEYED
 10
581681.18891261669
 20
1327924.8334728291
 30
0.0
  0
VERTEX
  5
453
  8
AREA_SURVEYED
 10
581538.98382374004
 20
1327854.895720154
 30
0.0
  0
VERTEX
  5
454
  8
AREA_SURVEYED
 10
581432.31095336133
 20
1327834.511391798
 30
0.0
  0
VERTEX
  5
455
  8
AREA_SURVEYED
 10
581373.88824591949
 20
1327834.476680069
 30
0.0
  0
VERTEX
  5
456
  8
AREA_SURVEYED
 10
581268.48090678104
 20
1327821.7134594601
 30
0.0
  0
VERTEX
  5
457
  8
AREA_SURVEYED
 10
581231.64542690176
 20
1327828.041870265
 30
0.0
  0
VERTEX
  5
458
  8
AREA_SURVEYED
 10
581174.48975990608
 20
1327833.0881485681
 30
0.0
  0
VERTEX
  5
459
  8
AREA_SURVEYED
 10
581152.88744028751
 20
1327852.126203181
 30
0.0
  0
VERTEX
  5
45A
  8
AREA_SURVEYED
 10
581122.41206453182
 20
1327841.947621854
 30
0.0
  0
VERTEX
  5
45B
  8
AREA_SURVEYED
 10
581123.68665100611
 20
1327834.3280233119
 30
0.0
  0
VERTEX
  5
45C
  8
AREA_SURVEYED
 10
581164.38211124425
 20
1327744.177991725
 30
0.0
  0
VERTEX
  5
45D
  8
AREA_SURVEYED
 10
581215.19201156963
 20
1327731.5075872641
 30
0.0
  0
VERTEX
  5
45E
  8
AREA_SURVEYED
 10
581252.01390859834
 20
1327748.0402358919
 30
0.0
  0
VERTEX
  5
45F
  8
AREA_SURVEYED
 10
581371.44094435195
 20
1327678.2579313989
 30
0.0
  0
VERTEX
  5
460
  8
AREA_SURVEYED
 10
581352.42552782316
 20
1327618.553846058
 30
0.0
  0
VERTEX
  5
461
  8
AREA_SURVEYED
 10
581288.9444684335
 20
1327581.684409051
 30
0.0
  0
VERTEX
  5
462
  8
AREA_SURVEYED
 10
581259.75122518034
 20
1327551.185640608
 30
0.0
  0
VERTEX
  5
463
  8
AREA_SURVEYED
 10
581278.84813881398
 20
1327473.7233693469
 30
0.0
  0
VERTEX
  5
464
  8
AREA_SURVEYED
 10
581304.26365341619
 20
1327449.607343113
 30
0.0
  0
VERTEX
  5
465
  8
AREA_SURVEYED
 10
581324.60270560265
 20
1327419.1380041791
 30
0.0
  0
VERTEX
  5
466
  8
AREA_SURVEYED
 10
581327.19489091239
 20
1327331.505452222
 30
0.0
  0
VERTEX
  5
467
  8
AREA_SURVEYED
 10
581384.36414075876
 20
1327303.5981144861
 30
0.0
  0
VERTEX
  5
468
  8
AREA_SURVEYED
 10
581408.50280507805
 20
1327290.9118633659
 30
0.0
  0
VERTEX
  5
469
  8
AREA_SURVEYED
 10
581417.43849324959
 20
1327214.7136141399
 30
0.0
  0
VERTEX
  5
46A
  8
AREA_SURVEYED
 10
581451.77535856934
 20
1327138.53045697
 30
0.0
  0
VERTEX
  5
46B
  8
AREA_SURVEYED
 10
581428.97089434729
 20
1327043.262459812
 30
0.0
  0
VERTEX
  5
46C
  8
AREA_SURVEYED
 10
581426.44888710021
 20
1327012.7795380279
 30
0.0
  0
VERTEX
  5
46D
  8
AREA_SURVEYED
 10
581366.79837855918
 20
1326941.6207756801
 30
0.0
  0
VERTEX
  5
46E
  8
AREA_SURVEYED
 10
581337.67380416289
 20
1326795.5466512099
 30
0.0
  0
VERTEX
  5
46F
  8
AREA_SURVEYED
 10
581344.10635015764
 20
1326657.114008765
 30
0.0
  0
VERTEX
  5
470
  8
AREA_SURVEYED
 10
581499.09427931637
 20
1326588.6228920079
 30
0.0
  0
VERTEX
  5
471
  8
AREA_SURVEYED
 10
581624.8550080948
 20
1326546.785655393
 30
0.0
  0
VERTEX
  5
472
  8
AREA_SURVEYED
 10
581692.40356361913
 20
1326150.567285825
 30
0.0
  0
VERTEX
  5
473
  8
AREA_SURVEYED
 10
582383.19031799154
 20
1326361.807560093
 30
0.0
  0
VERTEX
  5
474
  8
AREA_SURVEYED
 10
582469.55507489946
 20
1326360.5888142281
 30
0.0
  0
VERTEX
  5
475
  8
AREA_SURVEYED
 10
582564.8177898376
 20
1326346.674762008
 30
0.0
  0
VERTEX
  5
476
  8
AREA_SURVEYED
 10
582641.06735205546
 20
1326269.246447874
 30
0.0
  0
VERTEX
  5
477
  8
AREA_SURVEYED
 10
582710.9507733268
 20
1326218.485596732
 30
0.0
  0
VERTEX
  5
478
  8
AREA_SURVEYED
 10
582718.61338422925
 20
1326147.3668283329
 30
0.0
  0
VERTEX
  5
479
  8
AREA_SURVEYED
 10
582655.1451530878
 20
1326088.9063907501
 30
0.0
  0
VERTEX
  5
47A
  8
AREA_SURVEYED
 10
582539.57885229576
 20
1326073.5970156039
 30
0.0
  0
VERTEX
  5
47B
  8
AREA_SURVEYED
 10
582412.58579480101
 20
1326051.930554746
 30
0.0
  0
VERTEX
  5
47C
  8
AREA_SURVEYED
 10
582317.35628238705
 20
1326009.9620172391
 30
0.0
  0
VERTEX
  5
47D
  8
AREA_SURVEYED
 10
582335.17030891508
 20
1325954.0899919509
 30
0.0
  0
VERTEX
  5
47E
  8
AREA_SURVEYED
 10
582332.70716068835
 20
1325824.5424792881
 30
0.0
  0
VERTEX
  5
47F
  8
AREA_SURVEYED
 10
582285.74365787068
 20
1325776.2523224009
 30
0.0
  0
VERTEX
  5
480
  8
AREA_SURVEYED
 10
582315.03801790194
 20
1325636.563203949
 30
0.0
  0
VERTEX
  5
481
  8
AREA_SURVEYED
 10
582360.7691920033
 20
1325621.3496633619
 30
0.0
  0
VERTEX
  5
482
  8
AREA_SURVEYED
 10
582440.79799207766
 20
1325595.9960261909
 30
0.0
  0
VERTEX
  5
483
  8
AREA_SURVEYED
 10
582496.70774750609
 20
1325550.3071098479
 30
0.0
  0
VERTEX
  5
484
  8
AREA_SURVEYED
 10
582509.45059383847
 20
1325479.1913598599
 30
0.0
  0
VERTEX
  5
485
  8
AREA_SURVEYED
 10
582594.55585632846
 20
1325460.191035388
 30
0.0
  0
VERTEX
  5
486
  8
AREA_SURVEYED
 10
582760.97506980679
 20
1325390.4366511989
 30
0.0
  0
VERTEX
  5
487
  8
AREA_SURVEYED
 10
582805.45429551834
 20
1325344.74094343
 30
0.0
  0
VERTEX
  5
488
  8
AREA_SURVEYED
 10
582846.1074979984
 20
1325325.714207859
 30
0.0
  0
VERTEX
  5
489
  8
AREA_SURVEYED
 10
583004.87089199945
 20
1325315.648062353
 30
0.0
  0
VERTEX
  5
48A
  8
AREA_SURVEYED
 10
582999.8608346323
 20
1325197.5295702
 30
0.0
  0
VERTEX
  5
48B
  8
AREA_SURVEYED
 10
582951.65519326157
 20
1325102.246480986
 30
0.0
  0
VERTEX
  5
48C
  8
AREA_SURVEYED
 10
582886.94180515583
 20
1325001.8733465059
 30
0.0
  0
VERTEX
  5
48D
  8
AREA_SURVEYED
 10
582815.84567484155
 20
1324956.10896988
 30
0.0
  0
VERTEX
  5
48E
  8
AREA_SURVEYED
 10
582608.88041248394
 20
1324864.5417318849
 30
0.0
  0
VERTEX
  5
48F
  8
AREA_SURVEYED
 10
582504.74841442285
 20
1324842.8888538771
 30
0.0
  0
VERTEX
  5
490
  8
AREA_SURVEYED
 10
582389.14966570935
 20
1324882.192009601
 30
0.0
  0
VERTEX
  5
491
  8
AREA_SURVEYED
 10
582288.7659667891
 20
1324964.6862217111
 30
0.0
  0
VERTEX
  5
492
  8
AREA_SURVEYED
 10
582168.07264519227
 20
1325028.1174773141
 30
0.0
  0
VERTEX
  5
493
  8
AREA_SURVEYED
 10
582068.98617083125
 20
1325064.8903251591
 30
0.0
  0
VERTEX
  5
494
  8
AREA_SURVEYED
 10
582002.93330040819
 20
1325081.361850959
 30
0.0
  0
VERTEX
  5
495
  8
AREA_SURVEYED
 10
581961.03041334695
 20
1325066.0962427771
 30
0.0
  0
VERTEX
  5
496
  8
AREA_SURVEYED
 10
582075.43305427954
 20
1324902.326564423
 30
0.0
  0
VERTEX
  5
497
  8
AREA_SURVEYED
 10
582155.47015498497
 20
1324863.0022798199
 30
0.0
  0
VERTEX
  5
498
  8
AREA_SURVEYED
 10
582215.2323447438
 20
1324746.1923312689
 30
0.0
  0
VERTEX
  5
499
  8
AREA_SURVEYED
 10
582259.73043552588
 20
1324668.7451520651
 30
0.0
  0
VERTEX
  5
49A
  8
AREA_SURVEYED
 10
582292.77460390376
 20
1324630.6630060161
 30
0.0
  0
VERTEX
  5
49B
  8
AREA_SURVEYED
 10
582367.73976981046
 20
1324577.3650555699
 30
0.0
  0
VERTEX
  5
49C
  8
AREA_SURVEYED
 10
582377.96362730686
 20
1324470.686148369
 30
0.0
  0
VERTEX
  5
49D
  8
AREA_SURVEYED
 10
582347.53654613195
 20
1324379.223800166
 30
0.0
  0
VERTEX
  5
49E
  8
AREA_SURVEYED
 10
582282.79297391325
 20
1324329.6530199831
 30
0.0
  0
VERTEX
  5
49F
  8
AREA_SURVEYED
 10
582210.42150252173
 20
1324292.7783007559
 30
0.0
  0
VERTEX
  5
4A0
  8
AREA_SURVEYED
 10
582145.69075855089
 20
1324221.616519996
 30
0.0
  0
VERTEX
  5
4A1
  8
AREA_SURVEYED
 10
582059.35694035864
 20
1324170.7628527069
 30
0.0
  0
VERTEX
  5
4A2
  8
AREA_SURVEYED
 10
581807.24699813651
 20
1324133.081161181
 30
0.0
  0
VERTEX
  5
4A3
  8
AREA_SURVEYED
 10
582084.10736759345
 20
1323531.5753905401
 30
0.0
  0
VERTEX
  5
4A4
  8
AREA_SURVEYED
 10
582124.56777322257
 20
1323475.6353144241
 30
0.0
  0
VERTEX
  5
4A5
  8
AREA_SURVEYED
 10
582889.9466391271
 20
1323445.9319471249
 30
0.0
  0
VERTEX
  5
4A6
  8
AREA_SURVEYED
 10
584960.40756140766
 20
1323774.9579431789
 30
0.0
  0
VERTEX
  5
4A7
  8
AREA_SURVEYED
 10
586913.58754389395
 20
1324063.151824099
 30
0.0
  0
VERTEX
  5
4A8
  8
AREA_SURVEYED
 10
587022.78543993121
 20
1324108.938838809
 30
0.0
  0
VERTEX
  5
4A9
  8
AREA_SURVEYED
 10
587173.89678746916
 20
1324152.210637697
 30
0.0
  0
VERTEX
  5
4AA
  8
AREA_SURVEYED
 10
587289.45101461606
 20
1324187.840954562
 30
0.0
  0
VERTEX
  5
4AB
  8
AREA_SURVEYED
 10
587421.51600690954
 20
1324223.4810812641
 30
0.0
  0
VERTEX
  5
4AC
  8
AREA_SURVEYED
 10
587575.17501819064
 20
1324254.0538007841
 30
0.0
  0
VERTEX
  5
4AD
  8
AREA_SURVEYED
 10
587820.276003398
 20
1324288.4910282791
 30
0.0
  0
VERTEX
  5
4AE
  8
AREA_SURVEYED
 10
588004.41340884613
 20
1324324.162093696
 30
0.0
  0
VERTEX
  5
4AF
  8
AREA_SURVEYED
 10
588048.86018663622
 20
1324333.0789167969
 30
0.0
  0
VERTEX
  5
4B0
  8
AREA_SURVEYED
 10
588294.95957368496
 20
1324824.7380875689
 30
0.0
  0
VERTEX
  5
4B1
  8
AREA_SURVEYED
 10
588273.34970803815
 20
1324856.4767307569
 30
0.0
  0
VERTEX
  5
4B2
  8
AREA_SURVEYED
 10
588122.18025608279
 20
1324910.99946389
 30
0.0
  0
VERTEX
  5
4B3
  8
AREA_SURVEYED
 10
588000.22744006815
 20
1324956.649140887
 30
0.0
  0
VERTEX
  5
4B4
  8
AREA_SURVEYED
 10
587897.3398443684
 20
1324978.1790186351
 30
0.0
  0
VERTEX
  5
4B5
  8
AREA_SURVEYED
 10
587786.82812251011
 20
1325006.0546630521
 30
0.0
  0
VERTEX
  5
4B6
  8
AREA_SURVEYED
 10
587612.7953473127
 20
1325064.3739899071
 30
0.0
  0
VERTEX
  5
4B7
  8
AREA_SURVEYED
 10
587563.24720521364
 20
1325091.0157964029
 30
0.0
  0
VERTEX
  5
4B8
  8
AREA_SURVEYED
 10
587550.53303378855
 20
1325113.8693098091
 30
0.0
  0
VERTEX
  5
4B9
  8
AREA_SURVEYED
 10
587532.74843677052
 20
1325120.209039656
 30
0.0
  0
VERTEX
  5
4BA
  8
AREA_SURVEYED
 10
587375.16605849378
 20
1325280.142884942
 30
0.0
  0
VERTEX
  5
4BB
  8
AREA_SURVEYED
 10
587323.04685996426
 20
1325358.8555953871
 30
0.0
  0
VERTEX
  5
4BC
  8
AREA_SURVEYED
 10
587272.17583681026
 20
1325474.4007673
 30
0.0
  0
VERTEX
  5
4BD
  8
AREA_SURVEYED
 10
587217.46218916273
 20
1325644.5562062741
 30
0.0
  0
VERTEX
  5
4BE
  8
AREA_SURVEYED
 10
587216.13025287376
 20
1325748.70027798
 30
0.0
  0
VERTEX
  5
4BF
  8
AREA_SURVEYED
 10
587205.87092904455
 20
1325915.071951481
 30
0.0
  0
VERTEX
  5
4C0
  8
AREA_SURVEYED
 10
587198.20228131942
 20
1325996.3511907391
 30
0.0
  0
VERTEX
  5
4C1
  8
AREA_SURVEYED
 10
587224.78749260365
 20
1326141.1537471451
 30
0.0
  0
VERTEX
  5
4C2
  8
AREA_SURVEYED
 10
587269.1882396217
 20
1326227.5441605491
 30
0.0
  0
VERTEX
  5
4C3
  8
AREA_SURVEYED
 10
587330.08465972985
 20
1326339.3455609379
 30
0.0
  0
VERTEX
  5
4C4
  8
AREA_SURVEYED
 10
587401.1573973567
 20
1326424.481762144
 30
0.0
  0
VERTEX
  5
4C5
  8
AREA_SURVEYED
 10
587533.19296014006
 20
1326509.654184286
 30
0.0
  0
VERTEX
  5
4C6
  8
AREA_SURVEYED
 10
587719.81917031098
 20
1326631.690761213
 30
0.0
  0
VERTEX
  5
4C7
  8
AREA_SURVEYED
 10
587850.55977234396
 20
1326758.774371047
 30
0.0
  0
VERTEX
  5
4C8
  8
AREA_SURVEYED
 10
587940.67131918692
 20
1326864.2428330141
 30
0.0
  0
VERTEX
  5
4C9
  8
AREA_SURVEYED
 10
587990.11532609654
 20
1327012.869148843
 30
0.0
  0
VERTEX
  5
4CA
  8
AREA_SURVEYED
 10
587991.27068532479
 20
1327205.9188497751
 30
0.0
  0
VERTEX
  5
4CB
  8
AREA_SURVEYED
 10
587944.17059939646
 20
1327387.5093460821
 30
0.0
  0
VERTEX
  5
4CC
  8
AREA_SURVEYED
 10
587916.13346997451
 20
1327548.7902197139
 30
0.0
  0
VERTEX
  5
4CD
  8
AREA_SURVEYED
 10
587910.98003807105
 20
1327671.9829104729
 30
0.0
  0
VERTEX
  5
4CE
  8
AREA_SURVEYED
 10
587931.19533539482
 20
1327849.803224158
 30
0.0
  0
VERTEX
  5
4CF
  8
AREA_SURVEYED
 10
587981.90487354458
 20
1328006.0506477349
 30
0.0
  0
VERTEX
  5
4D0
  8
AREA_SURVEYED
 10
588045.32103709143
 20
1328152.1451464801
 30
0.0
  0
VERTEX
  5
4D1
  8
AREA_SURVEYED
 10
588090.94430298905
 20
1328318.5500225041
 30
0.0
  0
VERTEX
  5
4D2
  8
AREA_SURVEYED
 10
588156.9028480592
 20
1328460.8358538831
 30
0.0
  0
VERTEX
  5
4D3
  8
AREA_SURVEYED
 10
588224.13220658957
 20
1328601.852381007
 30
0.0
  0
VERTEX
  5
4D4
  8
AREA_SURVEYED
 10
588305.33296715457
 20
1328741.6071499051
 30
0.0
  0
VERTEX
  5
4D5
  8
AREA_SURVEYED
 10
588420.83588130935
 20
1328863.6014690751
 30
0.0
  0
VERTEX
  5
4D6
  8
AREA_SURVEYED
 10
588549.05824910942
 20
1328953.851862838
 30
0.0
  0
VERTEX
  5
4D7
  8
AREA_SURVEYED
 10
588687.43957856297
 20
1329046.648411138
 30
0.0
  0
VERTEX
  5
4D8
  8
AREA_SURVEYED
 10
588863.92267373938
 20
1329139.4675975221
 30
0.0
  0
VERTEX
  5
4D9
  8
AREA_SURVEYED
 10
589003.59594553243
 20
1329195.4331935591
 30
0.0
  0
VERTEX
  5
4DA
  8
AREA_SURVEYED
 10
589166.13933199272
 20
1329236.1716661579
 30
0.0
  0
VERTEX
  5
4DB
  8
AREA_SURVEYED
 10
589368.08095413225
 20
1329232.4814714349
 30
0.0
  0
VERTEX
  5
4DC
  8
AREA_SURVEYED
 10
589558.59129195206
 20
1329230.0545441441
 30
0.0
  0
VERTEX
  5
4DD
  8
AREA_SURVEYED
 10
589709.71924075217
 20
1329245.385048168
 30
0.0
  0
VERTEX
  5
4DE
  8
AREA_SURVEYED
 10
589783.34341513622
 20
1329311.4718757181
 30
0.0
  0
VERTEX
  5
4DF
  8
AREA_SURVEYED
 10
589795.14746702579
 20
1329467.4579064159
 30
0.0
  0
VERTEX
  5
4E0
  8
AREA_SURVEYED
 10
585891.89376503066
 20
1333566.3985719739
 30
0.0
  0
SEQEND
  5
4E1
  8
AREA_SURVEYED
  0
POLYLINE
  5
76
  8
AREA_SURVEYED
 66
     1
 10
0.0
 20
0.0
 30
0.0
 70
     1
  0
VERTEX
  5
4E2
  8
AREA_SURVEYED
 10
609420.0
 20
1328250.0
 30
0.0
  0
VERTEX
  5
4E3
  8
AREA_SURVEYED
 10
610220.0
 20
1328250.0
 30
0.0
  0
VERTEX
  5
4E4
  8
AREA_SURVEYED
 10
610220.0
 20
1327250.0
 30
0.0
  0
VERTEX
  5
4E5
  8
AREA_SURVEYED
 10
609421.0
 20
1327250.0
 30
0.0
  0
SEQEND
  5
4E6
  8
AREA_SURVEYED
  0
POLYLINE
  5
77
  8
AREA_SURVEYED
 66
     1
 10
0.0
 20
0.0
 30
0.0
 70
     1
  0
VERTEX
  5
4E7
  8
AREA_SURVEYED
 10
606974.18088659947
 20
1334561.4532651519
 30
0.0
  0
VERTEX
  5
4E8
  8
AREA_SURVEYED
 10
607005.17705397843
 20
1334530.4769951
 30
0.0
  0
VERTEX
  5
4E9
  8
AREA_SURVEYED
 10
607046.50510932808
 20
1334535.63960687
 30
0.0
  0
VERTEX
  5
4EA
  8
AREA_SURVEYED
 10
607077.82676677895
 20
1334539.877490079
 30
0.0
  0
VERTEX
  5
4EB
  8
AREA_SURVEYED
 10
607015.50919368246
 20
1335289.3975595189
 30
0.0
  0
VERTEX
  5
4EC
  8
AREA_SURVEYED
 10
607293.14446507453
 20
1335329.5581554121
 30
0.0
  0
VERTEX
  5
4ED
  8
AREA_SURVEYED
 10
607273.8099172184
 20
1335449.4419711209
 30
0.0
  0
VERTEX
  5
4EE
  8
AREA_SURVEYED
 10
607216.98365231266
 20
1335454.60473275
 30
0.0
  0
VERTEX
  5
4EF
  8
AREA_SURVEYED
 10
607181.04620880773
 20
1335363.410470471
 30
0.0
  0
VERTEX
  5
4F0
  8
AREA_SURVEYED
 10
607108.49744408613
 20
1335418.4657010699
 30
0.0
  0
VERTEX
  5
4F1
  8
AREA_SURVEYED
 10
607058.28854478023
 20
1335794.124355427
 30
0.0
  0
VERTEX
  5
4F2
  8
AREA_SURVEYED
 10
607077.50127670704
 20
1335867.6226658251
 30
0.0
  0
VERTEX
  5
4F3
  8
AREA_SURVEYED
 10
607022.91605701647
 20
1335953.9674489789
 30
0.0
  0
VERTEX
  5
4F4
  8
AREA_SURVEYED
 10
606933.79302589456
 20
1336063.2715782269
 30
0.0
  0
VERTEX
  5
4F5
  8
AREA_SURVEYED
 10
606832.8053894703
 20
1336440.6484733999
 30
0.0
  0
VERTEX
  5
4F6
  8
AREA_SURVEYED
 10
606683.92817311839
 20
1336448.895334925
 30
0.0
  0
VERTEX
  5
4F7
  8
AREA_SURVEYED
 10
606481.50951166789
 20
1336482.3483707691
 30
0.0
  0
VERTEX
  5
4F8
  8
AREA_SURVEYED
 10
606473.22328458668
 20
1336342.3759830969
 30
0.0
  0
VERTEX
  5
4F9
  8
AREA_SURVEYED
 10
606540.23555022711
 20
1336316.779780437
 30
0.0
  0
VERTEX
  5
4FA
  8
AREA_SURVEYED
 10
606560.89957790205
 20
1336265.152613732
 30
0.0
  0
VERTEX
  5
4FB
  8
AREA_SURVEYED
 10
606579.39397005853
 20
1336210.542434304
 30
0.0
  0
VERTEX
  5
4FC
  8
AREA_SURVEYED
 10
606628.21810258483
 20
1336101.353952111
 30
0.0
  0
VERTEX
  5
4FD
  8
AREA_SURVEYED
 10
606779.85333404108
 20
1336099.7062412549
 30
0.0
  0
VERTEX
  5
4FE
  8
AREA_SURVEYED
 10
606921.6398406995
 20
1335982.305535797
 30
0.0
  0
VERTEX
  5
4FF
  8
AREA_SURVEYED
 10
606949.99719107756
 20
1335877.0497647361
 30
0.0
  0
VERTEX
  5
500
  8
AREA_SURVEYED
 10
606873.02734515071
 20
1335824.4219492881
 30
0.0
  0
VERTEX
  5
501
  8
AREA_SURVEYED
 10
606804.15970443119
 20
1335686.779873387
 30
0.0
  0
VERTEX
  5
502
  8
AREA_SURVEYED
 10
606736.54419073835
 20
1335372.0011461349
 30
0.0
  0
VERTEX
  5
503
  8
AREA_SURVEYED
 10
606757.20821841329
 20
1335217.119346302
 30
0.0
  0
VERTEX
  5
504
  8
AREA_SURVEYED
 10
606814.14631807746
 20
1335193.8656088221
 30
0.0
  0
VERTEX
  5
505
  8
AREA_SURVEYED
 10
606817.53410247795
 20
1335003.0590986931
 30
0.0
  0
VERTEX
  5
506
  8
AREA_SURVEYED
 10
606824.41484960192
 20
1334945.941257938
 30
0.0
  0
VERTEX
  5
507
  8
AREA_SURVEYED
 10
606819.20055317122
 20
1334902.1931348681
 30
0.0
  0
VERTEX
  5
508
  8
AREA_SURVEYED
 10
606894.40107593662
 20
1334881.2731529919
 30
0.0
  0
VERTEX
  5
509
  8
AREA_SURVEYED
 10
606933.49252982112
 20
1334671.5423293461
 30
0.0
  0
VERTEX
  5
50A
  8
AREA_SURVEYED
 10
606850.19646881684
 20
1334654.3823750231
 30
0.0
  0
VERTEX
  5
50B
  8
AREA_SURVEYED
 10
606917.35487342696
 20
1334602.755058459
 30
0.0
  0
SEQEND
  5
50C
  8
AREA_SURVEYED
  0
ENDSEC
  0
EOF
