  0
SECTION
  2
HEADER
  9
$ACADVER
  1
AC1009
  9
$INSBASE
 10
0.0
 20
0.0
 30
0.0
  9
$EXTMIN
 10
1076955.32163842
 20
691977.65132980281
 30
-0.0596093609465243
  9
$EXTMAX
 10
1105028.6941757849
 20
710012.33089681761
 30
1953.4881904573069
  9
$LIMMIN
 10
0.0
 20
0.0
  9
$LIMMAX
 10
12.0
 20
9.0
  9
$ORTHOMODE
 70
     0
  9
$REGENMODE
 70
     1
  9
$FILLMODE
 70
     1
  9
$QTEXTMODE
 70
     0
  9
$MIRRTEXT
 70
     1
  9
$DRAGMODE
 70
     2
  9
$LTSCALE
 40
1.0
  9
$OSMODE
 70
   613
  9
$ATTMODE
 70
     1
  9
$TEXTSIZE
 40
0.2133415998816519
  9
$TRACEWID
 40
0.05
  9
$TEXTSTYLE
  7
ROMANC
  9
$CLAYER
  8
0
  9
$CELTYPE
  6
BYLAYER
  9
$CECOLOR
 62
   256
  9
$DIMSCALE
 40
1.0
  9
$DIMASZ
 40
0.18
  9
$DIMEXO
 40
0.0625
  9
$DIMDLI
 40
0.38
  9
$DIMRND
 40
0.0
  9
$DIMDLE
 40
0.0
  9
$DIMEXE
 40
0.18
  9
$DIMTP
 40
0.0
  9
$DIMTM
 40
0.0
  9
$DIMTXT
 40
0.18
  9
$DIMCEN
 40
0.09
  9
$DIMTSZ
 40
0.0
  9
$DIMTOL
 70
     0
  9
$DIMLIM
 70
     0
  9
$DIMTIH
 70
     1
  9
$DIMTOH
 70
     1
  9
$DIMSE1
 70
     0
  9
$DIMSE2
 70
     0
  9
$DIMTAD
 70
     0
  9
$DIMZIN
 70
     0
  9
$DIMBLK
  1

  9
$DIMASO
 70
     1
  9
$DIMSHO
 70
     1
  9
$DIMPOST
  1

  9
$DIMAPOST
  1

  9
$DIMALT
 70
     0
  9
$DIMALTD
 70
     2
  9
$DIMALTF
 40
25.399999999999999
  9
$DIMLFAC
 40
1.0
  9
$DIMTOFL
 70
     0
  9
$DIMTVP
 40
0.0
  9
$DIMTIX
 70
     0
  9
$DIMSOXD
 70
     0
  9
$DIMSAH
 70
     0
  9
$DIMBLK1
  1

  9
$DIMBLK2
  1

  9
$DIMSTYLE
  2
STANDARD
  9
$DIMCLRD
 70
     0
  9
$DIMCLRE
 70
     0
  9
$DIMCLRT
 70
     0
  9
$DIMTFAC
 40
1.0
  9
$DIMGAP
 40
0.09
  9
$LUNITS
 70
     2
  9
$LUPREC
 70
     4
  9
$SKETCHINC
 40
0.1
  9
$FILLETRAD
 40
0.0
  9
$AUNITS
 70
     0
  9
$AUPREC
 70
     4
  9
$MENU
  1
acad
  9
$ELEVATION
 40
0.0
  9
$PELEVATION
 40
0.0
  9
$THICKNESS
 40
0.0
  9
$LIMCHECK
 70
     0
  9
$BLIPMODE
 70
     0
  9
$CHAMFERA
 40
0.0
  9
$CHAMFERB
 40
0.0
  9
$SKPOLY
 70
     0
  9
$TDCREATE
 40
2451731.0101319449
  9
$TDUPDATE
 40
2458364.5102394209
  9
$TDINDWG
 40
3.5511786921000001
  9
$TDUSRTIMER
 40
3.551178669
  9
$USRTIMER
 70
     1
  9
$ANGBASE
 50
0.0
  9
$ANGDIR
 70
     0
  9
$PDMODE
 70
    32
  9
$PDSIZE
 40
0.025
  9
$PLINEWID
 40
0.0
  9
$COORDS
 70
     2
  9
$SPLFRAME
 70
     0
  9
$SPLINETYPE
 70
     6
  9
$SPLINESEGS
 70
     8
  9
$ATTDIA
 70
     1
  9
$ATTREQ
 70
     1
  9
$HANDLING
 70
     1
  9
$HANDSEED
  5
1E5C
  9
$SURFTAB1
 70
     6
  9
$SURFTAB2
 70
     6
  9
$SURFTYPE
 70
     6
  9
$SURFU
 70
     6
  9
$SURFV
 70
     6
  9
$UCSNAME
  2

  9
$UCSORG
 10
0.0
 20
0.0
 30
0.0
  9
$UCSXDIR
 10
1.0
 20
0.0
 30
0.0
  9
$UCSYDIR
 10
0.0
 20
1.0
 30
0.0
  9
$PUCSNAME
  2

  9
$PUCSORG
 10
0.0
 20
0.0
 30
0.0
  9
$PUCSXDIR
 10
1.0
 20
0.0
 30
0.0
  9
$PUCSYDIR
 10
0.0
 20
1.0
 30
0.0
  9
$USERI1
 70
     0
  9
$USERI2
 70
     0
  9
$USERI3
 70
     0
  9
$USERI4
 70
     0
  9
$USERI5
 70
     0
  9
$USERR1
 40
0.0
  9
$USERR2
 40
0.0
  9
$USERR3
 40
0.0
  9
$USERR4
 40
0.0
  9
$USERR5
 40
0.0
  9
$WORLDVIEW
 70
     1
  9
$SHADEDGE
 70
     3
  9
$SHADEDIF
 70
    70
  9
$TILEMODE
 70
     1
  9
$MAXACTVP
 70
    16
  9
$PLIMCHECK
 70
     0
  9
$PEXTMIN
 10
1.0499999523162831
 20
0.7999999523162842
 30
0.0
  9
$PEXTMAX
 10
9.4499995708465576
 20
7.199999570846555
 30
0.0
  9
$PLIMMIN
 10
-0.2500002402958907
 20
-0.2499999962453767
  9
$PLIMMAX
 10
10.74999951940821
 20
8.2499997634587316
  9
$UNITMODE
 70
     0
  9
$VISRETAIN
 70
     0
  9
$PLINEGEN
 70
     0
  9
$PSLTSCALE
 70
     1
  0
ENDSEC
  0
SECTION
  2
TABLES
  0
TABLE
  2
VPORT
 70
     1
  0
VPORT
  2
*ACTIVE
 70
     0
 10
0.0
 20
0.0
 11
1.0
 21
1.0
 12
9609.6677002718206
 22
5374.1713264973368
 13
0.0
 23
0.0
 14
0.01
 24
0.01
 15
0.0
 25
0.0
 16
0.0
 26
0.0
 36
10853.588361641299
 17
1081382.340206831
 27
695620.81978681288
 37
0.0
 40
20817.31300015868
 41
1.357575757575757
 42
50.0
 43
0.0
 44
0.0
 50
0.0
 51
0.0
 71
     0
 72
   100
 73
     1
 74
     0
 75
     0
 76
     0
 77
     0
 78
     0
  0
ENDTAB
  0
TABLE
  2
LTYPE
 70
     2
  0
LTYPE
  2
CONTINUOUS
 70
     0
  3
Solid line
 72
    65
 73
     0
 40
0.0
  0
ENDTAB
  0
TABLE
  2
LAYER
 70
     5
  0
LAYER
  2
0
 70
     0
 62
     7
  6
CONTINUOUS
  0
LAYER
  2
RIVERS
 70
     0
 62
     5
  6
CONTINUOUS
  0
ENDTAB
  0
TABLE
  2
STYLE
 70
     4
  0
STYLE
  2
STANDARD
 70
     0
 40
0.0
 41
1.0
 50
0.0
 71
     0
 42
0.0194164878389335
  3
txt
  4

  0
STYLE
  2
ROMANC
 70
     0
 40
0.0
 41
1.0
 50
0.0
 71
     0
 42
0.2133415998816519
  3
txt
  4

  0
STYLE
  2
LEGEND
 70
     0
 40
0.0
 41
1.0
 50
0.0
 71
     0
 42
0.2133415998816519
  3
txt
  4

  0
ENDTAB
  0
TABLE
  2
VIEW
 70
     0
  0
ENDTAB
  0
TABLE
  2
UCS
 70
     0
  0
ENDTAB
  0
TABLE
  2
APPID
 70
    12
  0
APPID
  2
ACAD
 70
     0
  0
APPID
  2
ACADANNOTATIVE
 70
     0
  0
APPID
  2
ADE
 70
     0
  0
APPID
  2
ACAD_NAV_VCDISPLAY
 70
     0
  0
APPID
  2
ADE_PROJECTION
 70
     0
  0
APPID
  2
ACMAPDMDISPLAYSTYLEREGAPP
 70
     0
  0
APPID
  2
ACAECLAYERSTANDARD
 70
     0
  0
APPID
  2
ACCMTRANSPARENCY
 70
     0
  0
APPID
  2
DCO15
 70
     0
  0
APPID
  2
MAPGWS
 70
     0
  0
APPID
  2
ACAD_MLEADERVER
 70
     0
  0
APPID
  2
MapManagementAppName
 70
     0
  0
ENDTAB
  0
TABLE
  2
DIMSTYLE
 70
     2
  0
DIMSTYLE
  2
STANDARD
 70
     0
  3

  4

  5

  6

  7

 40
1.0
 41
0.18
 42
0.0625
 43
0.38
 44
0.18
 45
0.0
 46
0.0
 47
0.0
 48
0.0
140
0.18
141
0.09
142
0.0
143
25.399999999999999
144
1.0
145
0.0
146
1.0
147
0.09
 71
     0
 72
     0
 73
     1
 74
     1
 75
     0
 76
     0
 77
     0
 78
     0
170
     0
171
     2
172
     0
173
     0
174
     0
175
     0
176
     0
177
     0
178
     0
  0
ENDTAB
  0
ENDSEC
  0
SECTION
  2
BLOCKS
  0
BLOCK
  8
0
  2
$MODEL_SPACE
 70
     0
 10
0.0
 20
0.0
 30
0.0
  3
$MODEL_SPACE
  1

  0
ENDBLK
  5
FB8
  8
0
  0
BLOCK
 67
     1
  8
0
  2
$PAPER_SPACE
 70
     0
 10
0.0
 20
0.0
 30
0.0
  3
$PAPER_SPACE
  1

  0
ENDBLK
  5
FB4
 67
     1
  8
0
  0
ENDSEC
  0
SECTION
  2
ENTITIES
  0
POLYLINE
  5
82
  8
RIVERS
 66
     1
 10
0.0
 20
0.0
 30
0.0
 40
10.0
 41
10.0
  0
VERTEX
  5
FFC
  8
RIVERS
 10
1086019.9312101749
 20
692000.48978873005
 30
0.0
  0
VERTEX
  5
FFD
  8
RIVERS
 10
1086035.9068877699
 20
692025.81890373398
 30
0.0
  0
VERTEX
  5
FFE
  8
RIVERS
 10
1086094.257270653
 20
692070.58111593779
 30
0.0
  0
VERTEX
  5
FFF
  8
RIVERS
 10
1086224.597274014
 20
692117.72342363745
 30
0.0
  0
VERTEX
  5
1000
  8
RIVERS
 10
1086328.051563353
 20
692136.98522342485
 30
0.0
  0
VERTEX
  5
1001
  8
RIVERS
 10
1086393.5074369661
 20
692112.83757030405
 30
0.0
  0
VERTEX
  5
1002
  8
RIVERS
 10
1086394.92528088
 20
692098.74274037755
 30
0.0
  0
VERTEX
  5
1003
  8
RIVERS
 10
1086416.2557707741
 20
692043.76499343175
 30
0.0
  0
VERTEX
  5
1004
  8
RIVERS
 10
1086445.814461078
 20
692027.81299841078
 30
0.0
  0
VERTEX
  5
1005
  8
RIVERS
 10
1086472.7815308729
 20
692063.51492786279
 30
0.0
  0
VERTEX
  5
1006
  8
RIVERS
 10
1086487.8200877779
 20
692155.66126164002
 30
0.0
  0
VERTEX
  5
1007
  8
RIVERS
 10
1086485.0332134119
 20
692188.54377441702
 30
0.0
  0
VERTEX
  5
1008
  8
RIVERS
 10
1086482.9459987029
 20
692288.69051243679
 30
0.0
  0
VERTEX
  5
1009
  8
RIVERS
 10
1086499.1420610461
 20
692341.71346736001
 30
0.0
  0
VERTEX
  5
100A
  8
RIVERS
 10
1086540.3992146249
 20
692397.60465242225
 30
0.0
  0
VERTEX
  5
100B
  8
RIVERS
 10
1086543.853206337
 20
692428.85779627261
 30
0.0
  0
VERTEX
  5
100C
  8
RIVERS
 10
1086544.0484601951
 20
692447.62920796778
 30
0.0
  0
VERTEX
  5
100D
  8
RIVERS
 10
1086548.9365669759
 20
692466.35180619918
 30
0.0
  0
VERTEX
  5
100E
  8
RIVERS
 10
1086564.62822352
 20
692470.88194757584
 30
0.0
  0
VERTEX
  5
100F
  8
RIVERS
 10
1086638.198399459
 20
692474.810056224
 30
0.0
  0
VERTEX
  5
1010
  8
RIVERS
 10
1086718.2209664879
 20
692497.44449194951
 30
0.0
  0
VERTEX
  5
1011
  8
RIVERS
 10
1086757.4419722711
 20
692507.98770323559
 30
0.0
  0
VERTEX
  5
1012
  8
RIVERS
 10
1086823.613776695
 20
692552.66855966544
 30
0.0
  0
VERTEX
  5
1013
  8
RIVERS
 10
1086826.4146687661
 20
692671.53789591661
 30
0.0
  0
VERTEX
  5
1014
  8
RIVERS
 10
1086872.852809913
 20
692774.30879675387
 30
0.0
  0
VERTEX
  5
1015
  8
RIVERS
 10
1086962.7166751239
 20
692840.64556617383
 30
0.0
  0
VERTEX
  5
1016
  8
RIVERS
 10
1086978.343247049
 20
692838.91857031779
 30
0.0
  0
VERTEX
  5
1017
  8
RIVERS
 10
1086995.5503744369
 20
692838.73958761524
 30
0.0
  0
VERTEX
  5
1018
  8
RIVERS
 10
1087028.2864468209
 20
692827.44790320855
 30
0.0
  0
VERTEX
  5
1019
  8
RIVERS
 10
1087036.17295298
 20
692833.62368466647
 30
0.0
  0
VERTEX
  5
101A
  8
RIVERS
 10
1087099.934373046
 20
692796.97802823666
 30
0.0
  0
VERTEX
  5
101B
  8
RIVERS
 10
1087168.4862729651
 20
692769.66926419025
 30
0.0
  0
VERTEX
  5
101C
  8
RIVERS
 10
1087196.3505097229
 20
692741.21926586109
 30
0.0
  0
VERTEX
  5
101D
  8
RIVERS
 10
1087249.194481944
 20
692707.81607613096
 30
0.0
  0
VERTEX
  5
101E
  8
RIVERS
 10
1087258.6290012549
 20
692712.4113021259
 30
0.0
  0
VERTEX
  5
101F
  8
RIVERS
 10
1087288.8548089061
 20
692760.59496373171
 30
0.0
  0
VERTEX
  5
1020
  8
RIVERS
 10
1087306.550070937
 20
692807.34451026865
 30
0.0
  0
VERTEX
  5
1021
  8
RIVERS
 10
1087297.3596189469
 20
692826.21354889253
 30
0.0
  0
VERTEX
  5
1022
  8
RIVERS
 10
1087312.4469893151
 20
692923.05273559387
 30
0.0
  0
VERTEX
  5
1023
  8
RIVERS
 10
1087330.386318668
 20
692993.26654675009
 30
0.0
  0
VERTEX
  5
1024
  8
RIVERS
 10
1087354.1597352291
 20
693022.74388127995
 30
0.0
  0
VERTEX
  5
1025
  8
RIVERS
 10
1087404.6073407989
 20
693059.76602771785
 30
0.0
  0
VERTEX
  5
1026
  8
RIVERS
 10
1087422.074806663
 20
693084.61559394235
 30
0.0
  0
VERTEX
  5
1027
  8
RIVERS
 10
1087455.3478271549
 20
693124.94529169926
 30
0.0
  0
VERTEX
  5
1028
  8
RIVERS
 10
1087473.1895295801
 20
693185.77339700726
 30
0.0
  0
VERTEX
  5
1029
  8
RIVERS
 10
1087516.824525207
 20
693319.86252631352
 30
0.0
  0
VERTEX
  5
102A
  8
RIVERS
 10
1087564.6316968049
 20
693403.84574430075
 30
0.0
  0
VERTEX
  5
102B
  8
RIVERS
 10
1087592.984068206
 20
693422.32427521027
 30
0.0
  0
VERTEX
  5
102C
  8
RIVERS
 10
1087650.374452957
 20
693374.79371324345
 30
0.0
  0
VERTEX
  5
102D
  8
RIVERS
 10
1087664.4530117291
 20
693374.64727285039
 30
0.0
  0
VERTEX
  5
102E
  8
RIVERS
 10
1087678.5152993461
 20
693372.93654814956
 30
0.0
  0
VERTEX
  5
102F
  8
RIVERS
 10
1087712.4717083389
 20
693478.96618684113
 30
0.0
  0
VERTEX
  5
1030
  8
RIVERS
 10
1087715.779259657
 20
693496.14077191928
 30
0.0
  0
VERTEX
  5
1031
  8
RIVERS
 10
1087740.3825051121
 20
693605.39660615544
 30
0.0
  0
VERTEX
  5
1032
  8
RIVERS
 10
1087794.251560085
 20
693670.54332782759
 30
0.0
  0
VERTEX
  5
1033
  8
RIVERS
 10
1087842.484035155
 20
693645.01037310122
 30
0.0
  0
VERTEX
  5
1034
  8
RIVERS
 10
1087865.8669440011
 20
693636.94488423935
 30
0.0
  0
VERTEX
  5
1035
  8
RIVERS
 10
1087906.7498610199
 20
693656.85753021855
 30
0.0
  0
VERTEX
  5
1036
  8
RIVERS
 10
1087951.7376159439
 20
693770.59469236643
 30
0.0
  0
VERTEX
  5
1037
  8
RIVERS
 10
1087989.3455239539
 20
693776.46132188349
 30
0.0
  0
VERTEX
  5
1038
  8
RIVERS
 10
1088014.048649786
 20
693744.91529724724
 30
0.0
  0
VERTEX
  5
1039
  8
RIVERS
 10
1088042.010513471
 20
693725.85100476537
 30
0.0
  0
VERTEX
  5
103A
  8
RIVERS
 10
1088057.6533565519
 20
693725.68829321745
 30
0.0
  0
VERTEX
  5
103B
  8
RIVERS
 10
1088070.135088705
 20
693722.42955536325
 30
0.0
  0
VERTEX
  5
103C
  8
RIVERS
 10
1088111.6060207449
 20
693648.46887170896
 30
0.0
  0
VERTEX
  5
103D
  8
RIVERS
 10
1088133.489729902
 20
693646.67679123406
 30
0.0
  0
VERTEX
  5
103E
  8
RIVERS
 10
1088161.76074553
 20
693657.33390060381
 30
0.0
  0
VERTEX
  5
103F
  8
RIVERS
 10
1088190.5524381101
 20
693718.04810782825
 30
0.0
  0
VERTEX
  5
1040
  8
RIVERS
 10
1088165.1799414831
 20
693835.64604055777
 30
0.0
  0
VERTEX
  5
1041
  8
RIVERS
 10
1088166.9394796491
 20
693854.40118109866
 30
0.0
  0
VERTEX
  5
1042
  8
RIVERS
 10
1088167.167275816
 20
693876.30116141029
 30
0.0
  0
VERTEX
  5
1043
  8
RIVERS
 10
1088173.7986496079
 20
693912.21461587423
 30
0.0
  0
VERTEX
  5
1044
  8
RIVERS
 10
1088214.974447414
 20
693960.28437939705
 30
0.0
  0
VERTEX
  5
1045
  8
RIVERS
 10
1088232.149032492
 20
693956.97682807851
 30
0.0
  0
VERTEX
  5
1046
  8
RIVERS
 10
1088299.4132577351
 20
693956.27716842259
 30
0.0
  0
VERTEX
  5
1047
  8
RIVERS
 10
1088302.6557244339
 20
693967.19461626897
 30
0.0
  0
VERTEX
  5
1048
  8
RIVERS
 10
1088278.2780216979
 20
694030.02632706403
 30
0.0
  0
VERTEX
  5
1049
  8
RIVERS
 10
1088294.3764571119
 20
694073.66357613925
 30
0.0
  0
VERTEX
  5
104A
  8
RIVERS
 10
1088333.6300052039
 20
694087.33535604191
 30
0.0
  0
VERTEX
  5
104B
  8
RIVERS
 10
1088407.4117061561
 20
694111.59916069405
 30
0.0
  0
VERTEX
  5
104C
  8
RIVERS
 10
1088468.8255730369
 20
694150.07169335638
 30
0.0
  0
VERTEX
  5
104D
  8
RIVERS
 10
1088487.6946116609
 20
694159.26214534696
 30
0.0
  0
VERTEX
  5
104E
  8
RIVERS
 10
1088503.353725896
 20
694160.66371810681
 30
0.0
  0
VERTEX
  5
104F
  8
RIVERS
 10
1088552.009250991
 20
694175.8021553884
 30
0.0
  0
VERTEX
  5
1050
  8
RIVERS
 10
1088567.635822915
 20
694174.07515953225
 30
0.0
  0
VERTEX
  5
1051
  8
RIVERS
 10
1088631.4297852919
 20
694140.55807171855
 30
0.0
  0
VERTEX
  5
1052
  8
RIVERS
 10
1088645.540886373
 20
694143.54019994126
 30
0.0
  0
VERTEX
  5
1053
  8
RIVERS
 10
1088675.4738132369
 20
694163.56674400403
 30
0.0
  0
VERTEX
  5
1054
  8
RIVERS
 10
1088731.3139313869
 20
694267.80430222023
 30
0.0
  0
VERTEX
  5
1055
  8
RIVERS
 10
1088770.681377562
 20
694292.42607227794
 30
0.0
  0
VERTEX
  5
1056
  8
RIVERS
 10
1088786.3893052619
 20
694298.52049796248
 30
0.0
  0
VERTEX
  5
1057
  8
RIVERS
 10
1088868.0900546811
 20
694332.08865268878
 30
0.0
  0
VERTEX
  5
1058
  8
RIVERS
 10
1088882.2011557629
 20
694335.0707809116
 30
0.0
  0
VERTEX
  5
1059
  8
RIVERS
 10
1088978.3872428241
 20
694407.59960294398
 30
0.0
  0
VERTEX
  5
105A
  8
RIVERS
 10
1088997.646789164
 20
694454.33287832537
 30
0.0
  0
VERTEX
  5
105B
  8
RIVERS
 10
1089059.320994521
 20
694517.83395991591
 30
0.0
  0
VERTEX
  5
105C
  8
RIVERS
 10
1089061.178159615
 20
694545.97480630409
 30
0.0
  0
VERTEX
  5
105D
  8
RIVERS
 10
1089075.9889203529
 20
694616.22115976992
 30
0.0
  0
VERTEX
  5
105E
  8
RIVERS
 10
1089136.033756783
 20
694673.48137528321
 30
0.0
  0
VERTEX
  5
105F
  8
RIVERS
 10
1089157.0853835971
 20
694742.09835982183
 30
0.0
  0
VERTEX
  5
1060
  8
RIVERS
 10
1089108.1509954219
 20
694850.55465402512
 30
0.0
  0
VERTEX
  5
1061
  8
RIVERS
 10
1089109.9430758981
 20
694872.43836318189
 30
0.0
  0
VERTEX
  5
1062
  8
RIVERS
 10
1089141.863337094
 20
694933.12002809648
 30
0.0
  0
VERTEX
  5
1063
  8
RIVERS
 10
1089208.083954982
 20
694982.4937374508
 30
0.0
  0
VERTEX
  5
1064
  8
RIVERS
 10
1089301.0601176531
 20
695047.23368025315
 30
0.0
  0
VERTEX
  5
1065
  8
RIVERS
 10
1089350.317675476
 20
695120.25063692895
 30
0.0
  0
VERTEX
  5
1066
  8
RIVERS
 10
1089470.5375175739
 20
695247.28534241905
 30
0.0
  0
VERTEX
  5
1067
  8
RIVERS
 10
1089605.372866553
 20
695425.79498967854
 30
0.0
  0
VERTEX
  5
1068
  8
RIVERS
 10
1089709.5593578571
 20
695515.44958332449
 30
0.0
  0
VERTEX
  5
1069
  8
RIVERS
 10
1089745.2102203961
 20
695633.97722532495
 30
0.0
  0
VERTEX
  5
106A
  8
RIVERS
 10
1089798.7213099641
 20
695664.70969222183
 30
0.0
  0
VERTEX
  5
106B
  8
RIVERS
 10
1089857.854961725
 20
695634.36998648848
 30
0.0
  0
VERTEX
  5
106C
  8
RIVERS
 10
1089939.929947705
 20
695703.91668029816
 30
0.0
  0
VERTEX
  5
106D
  8
RIVERS
 10
1089960.3307283281
 20
695709.96229251742
 30
0.0
  0
VERTEX
  5
106E
  8
RIVERS
 10
1090030.1924844231
 20
695754.30803925614
 30
0.0
  0
VERTEX
  5
106F
  8
RIVERS
 10
1090022.910861087
 20
695816.80704335705
 30
0.0
  0
VERTEX
  5
1070
  8
RIVERS
 10
1089996.9724007039
 20
695854.80676950247
 30
0.0
  0
VERTEX
  5
1071
  8
RIVERS
 10
1089985.0436716981
 20
695858.85870931426
 30
0.0
  0
VERTEX
  5
1072
  8
RIVERS
 10
1089974.9315775989
 20
695870.3092805862
 30
0.0
  0
VERTEX
  5
1073
  8
RIVERS
 10
1089962.122986071
 20
695883.78059150255
 30
0.0
  0
VERTEX
  5
1074
  8
RIVERS
 10
1089958.078115161
 20
695899.94613234745
 30
0.0
  0
VERTEX
  5
1075
  8
RIVERS
 10
1089957.4039700089
 20
695914.09093354747
 30
0.0
  0
VERTEX
  5
1076
  8
RIVERS
 10
1089961.448840919
 20
695932.27716027782
 30
0.0
  0
VERTEX
  5
1077
  8
RIVERS
 10
1089966.1677738039
 20
695947.09561303782
 30
0.0
  0
VERTEX
  5
1078
  8
RIVERS
 10
1089975.605722751
 20
695960.56687019544
 30
0.0
  0
VERTEX
  5
1079
  8
RIVERS
 10
1089983.6954645701
 20
695967.30252565385
 30
0.0
  0
VERTEX
  5
107A
  8
RIVERS
 10
1089993.8075586681
 20
695974.71172515466
 30
0.0
  0
VERTEX
  5
107B
  8
RIVERS
 10
1090112.8169581059
 20
696075.43070117955
 30
0.0
  0
VERTEX
  5
107C
  8
RIVERS
 10
1090182.2003429569
 20
696158.56457714352
 30
0.0
  0
VERTEX
  5
107D
  8
RIVERS
 10
1090201.0658681339
 20
696266.37101674126
 30
0.0
  0
VERTEX
  5
107E
  8
RIVERS
 10
1090218.350601081
 20
696336.99048575107
 30
0.0
  0
VERTEX
  5
107F
  8
RIVERS
 10
1090281.826329984
 20
696437.24698870431
 30
0.0
  0
VERTEX
  5
1080
  8
RIVERS
 10
1090328.2092444871
 20
696543.49685880169
 30
0.0
  0
VERTEX
  5
1081
  8
RIVERS
 10
1090392.4846859381
 20
696666.06591676513
 30
0.0
  0
VERTEX
  5
1082
  8
RIVERS
 10
1090440.2769702801
 20
696741.07187467278
 30
0.0
  0
VERTEX
  5
1083
  8
RIVERS
 10
1090498.3429033109
 20
696760.26570082107
 30
0.0
  0
VERTEX
  5
1084
  8
RIVERS
 10
1090579.4857014511
 20
696786.8399045089
 30
0.0
  0
VERTEX
  5
1085
  8
RIVERS
 10
1090617.5953615219
 20
696856.66338754317
 30
0.0
  0
VERTEX
  5
1086
  8
RIVERS
 10
1090634.328199073
 20
697003.89755599317
 30
0.0
  0
VERTEX
  5
1087
  8
RIVERS
 10
1090668.7225160019
 20
697075.21798334795
 30
0.0
  0
VERTEX
  5
1088
  8
RIVERS
 10
1090748.4932100419
 20
697147.91237809055
 30
0.0
  0
VERTEX
  5
1089
  8
RIVERS
 10
1090803.691957938
 20
697210.2548660941
 30
0.0
  0
VERTEX
  5
108A
  8
RIVERS
 10
1090820.3502640149
 20
697327.73647681472
 30
0.0
  0
VERTEX
  5
108B
  8
RIVERS
 10
1090951.7292030291
 20
697514.10583807854
 30
0.0
  0
VERTEX
  5
108C
  8
RIVERS
 10
1090954.0389029069
 20
697545.340433834
 30
0.0
  0
VERTEX
  5
108D
  8
RIVERS
 10
1090905.006807833
 20
697569.26545695111
 30
0.0
  0
VERTEX
  5
108E
  8
RIVERS
 10
1090856.835913775
 20
697640.04889520525
 30
0.0
  0
VERTEX
  5
108F
  8
RIVERS
 10
1090875.647403633
 20
697726.28473044909
 30
0.0
  0
VERTEX
  5
1090
  8
RIVERS
 10
1090939.0728237899
 20
697806.45825693489
 30
0.0
  0
VERTEX
  5
1091
  8
RIVERS
 10
1090887.514525078
 20
698009.64989351982
 30
0.0
  0
VERTEX
  5
1092
  8
RIVERS
 10
1090941.48091539
 20
698173.89861832093
 30
0.0
  0
VERTEX
  5
1093
  8
RIVERS
 10
1090992.3770222981
 20
698300.22028516454
 30
0.0
  0
VERTEX
  5
1094
  8
RIVERS
 10
1091092.238145953
 20
698375.83962693426
 30
0.0
  0
VERTEX
  5
1095
  8
RIVERS
 10
1090968.880555161
 20
698422.26539703563
 30
0.0
  0
VERTEX
  5
1096
  8
RIVERS
 10
1090912.428953523
 20
698453.64719245338
 30
0.0
  0
VERTEX
  5
1097
  8
RIVERS
 10
1090655.1792630879
 20
698498.17691236129
 30
0.0
  0
VERTEX
  5
1098
  8
RIVERS
 10
1090588.3012232371
 20
698524.37809619284
 30
0.0
  0
VERTEX
  5
1099
  8
RIVERS
 10
1090503.4933907001
 20
698519.3838132933
 30
0.0
  0
VERTEX
  5
109A
  8
RIVERS
 10
1090444.7712182079
 20
698535.15110576397
 30
0.0
  0
VERTEX
  5
109B
  8
RIVERS
 10
1090343.0662163929
 20
698614.25065404805
 30
0.0
  0
VERTEX
  5
109C
  8
RIVERS
 10
1090305.8904255261
 20
698620.29432993755
 30
0.0
  0
VERTEX
  5
109D
  8
RIVERS
 10
1090149.5031687589
 20
698546.30422585632
 30
0.0
  0
VERTEX
  5
109E
  8
RIVERS
 10
1090088.5439645769
 20
698559.84566635813
 30
0.0
  0
VERTEX
  5
109F
  8
RIVERS
 10
1090057.488244361
 20
698633.56150478695
 30
0.0
  0
VERTEX
  5
10A0
  8
RIVERS
 10
1090036.0853358251
 20
698700.55879499787
 30
0.0
  0
VERTEX
  5
10A1
  8
RIVERS
 10
1089948.096807997
 20
698745.12944231799
 30
0.0
  0
VERTEX
  5
10A2
  8
RIVERS
 10
1089924.4372895199
 20
698726.60209794436
 30
0.0
  0
VERTEX
  5
10A3
  8
RIVERS
 10
1089877.313506423
 20
698708.3188208919
 30
0.0
  0
VERTEX
  5
10A4
  8
RIVERS
 10
1089850.6881308791
 20
698705.46686190786
 30
0.0
  0
VERTEX
  5
10A5
  8
RIVERS
 10
1089819.4349870291
 20
698708.92085361935
 30
0.0
  0
VERTEX
  5
10A6
  8
RIVERS
 10
1089805.3401571021
 20
698707.50300970417
 30
0.0
  0
VERTEX
  5
10A7
  8
RIVERS
 10
1089725.7569112531
 20
698727.10425029451
 30
0.0
  0
VERTEX
  5
10A8
  8
RIVERS
 10
1089717.854133938
 20
698719.36418452871
 30
0.0
  0
VERTEX
  5
10A9
  8
RIVERS
 10
1089638.319701554
 20
698743.65827804245
 30
0.0
  0
VERTEX
  5
10AA
  8
RIVERS
 10
1089583.374496917
 20
698725.45635676431
 30
0.0
  0
VERTEX
  5
10AB
  8
RIVERS
 10
1089569.2308535271
 20
698719.34565992537
 30
0.0
  0
VERTEX
  5
10AC
  8
RIVERS
 10
1089431.445918635
 20
698558.07568236336
 30
0.0
  0
VERTEX
  5
10AD
  8
RIVERS
 10
1089396.9503080859
 20
698550.61222622858
 30
0.0
  0
VERTEX
  5
10AE
  8
RIVERS
 10
1089382.8554781589
 20
698549.1943823141
 30
0.0
  0
VERTEX
  5
10AF
  8
RIVERS
 10
1089244.010664758
 20
698436.43348945363
 30
0.0
  0
VERTEX
  5
10B0
  8
RIVERS
 10
1089222.0944132919
 20
698435.09700131242
 30
0.0
  0
VERTEX
  5
10B1
  8
RIVERS
 10
1089067.458062968
 20
698458.60782594793
 30
0.0
  0
VERTEX
  5
10B2
  8
RIVERS
 10
1089051.831491044
 20
698460.33482180408
 30
0.0
  0
VERTEX
  5
10B3
  8
RIVERS
 10
1088997.244251813
 20
698476.54715530179
 30
0.0
  0
VERTEX
  5
10B4
  8
RIVERS
 10
1088973.877614123
 20
698486.17692847119
 30
0.0
  0
VERTEX
  5
10B5
  8
RIVERS
 10
1088962.862539347
 20
698480.03368932276
 30
0.0
  0
VERTEX
  5
10B6
  8
RIVERS
 10
1088937.8828038841
 20
698484.98688072339
 30
0.0
  0
VERTEX
  5
10B7
  8
RIVERS
 10
1088770.6856190821
 20
698353.74745695328
 30
0.0
  0
VERTEX
  5
10B8
  8
RIVERS
 10
1088743.1978723339
 20
698267.98842964636
 30
0.0
  0
VERTEX
  5
10B9
  8
RIVERS
 10
1088681.9955304649
 20
698249.85159298754
 30
0.0
  0
VERTEX
  5
10BA
  8
RIVERS
 10
1088633.567801537
 20
698256.61313601793
 30
0.0
  0
VERTEX
  5
10BB
  8
RIVERS
 10
1088613.248376688
 20
698258.38894533797
 30
0.0
  0
VERTEX
  5
10BC
  8
RIVERS
 10
1088533.665130839
 20
698277.9901859283
 30
0.0
  0
VERTEX
  5
10BD
  8
RIVERS
 10
1088373.3899471669
 20
698361.00889888615
 30
0.0
  0
VERTEX
  5
10BE
  8
RIVERS
 10
1088362.439957011
 20
698361.12279696995
 30
0.0
  0
VERTEX
  5
10BF
  8
RIVERS
 10
1088271.353501742
 20
698327.6522691719
 30
0.0
  0
VERTEX
  5
10C0
  8
RIVERS
 10
1088250.838823037
 20
698310.65666679665
 30
0.0
  0
VERTEX
  5
10C1
  8
RIVERS
 10
1088176.813054763
 20
698262.92859752465
 30
0.0
  0
VERTEX
  5
10C2
  8
RIVERS
 10
1088164.2987803
 20
698263.05876676284
 30
0.0
  0
VERTEX
  5
10C3
  8
RIVERS
 10
1088139.3190448361
 20
698268.01195816358
 30
0.0
  0
VERTEX
  5
10C4
  8
RIVERS
 10
1088091.23301016
 20
698307.62347166159
 30
0.0
  0
VERTEX
  5
10C5
  8
RIVERS
 10
1088074.042153927
 20
698309.36673867202
 30
0.0
  0
VERTEX
  5
10C6
  8
RIVERS
 10
1088058.399310847
 20
698309.52945022006
 30
0.0
  0
VERTEX
  5
10C7
  8
RIVERS
 10
1088042.789010077
 20
698312.82073038386
 30
0.0
  0
VERTEX
  5
10C8
  8
RIVERS
 10
1088024.0338695359
 20
698314.58026854927
 30
0.0
  0
VERTEX
  5
10C9
  8
RIVERS
 10
1088000.602147226
 20
698317.95290448715
 30
0.0
  0
VERTEX
  5
10CA
  8
RIVERS
 10
1087984.9755753011
 20
698319.67990034295
 30
0.0
  0
VERTEX
  5
10CB
  8
RIVERS
 10
1087950.6101339899
 20
698324.73071867204
 30
0.0
  0
VERTEX
  5
10CC
  8
RIVERS
 10
1087902.1498627521
 20
698328.36369308655
 30
0.0
  0
VERTEX
  5
10CD
  8
RIVERS
 10
1087795.501920179
 20
698302.87729837676
 30
0.0
  0
VERTEX
  5
10CE
  8
RIVERS
 10
1087779.8265347891
 20
698299.91144130903
 30
0.0
  0
VERTEX
  5
10CF
  8
RIVERS
 10
1087739.0575158531
 20
698290.94878548535
 30
0.0
  0
VERTEX
  5
10D0
  8
RIVERS
 10
1087600.584685564
 20
698364.35399642854
 30
0.0
  0
VERTEX
  5
10D1
  8
RIVERS
 10
1087540.979170314
 20
698349.32945723087
 30
0.0
  0
VERTEX
  5
10D2
  8
RIVERS
 10
1087526.8843403871
 20
698347.91161331581
 30
0.0
  0
VERTEX
  5
10D3
  8
RIVERS
 10
1087467.2950962901
 20
698334.45135842625
 30
0.0
  0
VERTEX
  5
10D4
  8
RIVERS
 10
1087465.6169138991
 20
698323.51763942523
 30
0.0
  0
VERTEX
  5
10D5
  8
RIVERS
 10
1087435.8466985831
 20
698319.13393844245
 30
0.0
  0
VERTEX
  5
10D6
  8
RIVERS
 10
1087418.639571195
 20
698319.312921145
 30
0.0
  0
VERTEX
  5
10D7
  8
RIVERS
 10
1087393.578479958
 20
698316.4446910054
 30
0.0
  0
VERTEX
  5
10D8
  8
RIVERS
 10
1087366.9856467231
 20
698316.72130063712
 30
0.0
  0
VERTEX
  5
10D9
  8
RIVERS
 10
1087348.1979638729
 20
698315.35227018665
 30
0.0
  0
VERTEX
  5
10DA
  8
RIVERS
 10
1087243.66752487
 20
698343.03527079278
 30
0.0
  0
VERTEX
  5
10DB
  8
RIVERS
 10
1087124.0800043601
 20
698427.19521803421
 30
0.0
  0
VERTEX
  5
10DC
  8
RIVERS
 10
1087094.2749932869
 20
698569.87051315536
 30
0.0
  0
VERTEX
  5
10DD
  8
RIVERS
 10
1087091.3091362179
 20
698585.54589854472
 30
0.0
  0
VERTEX
  5
10DE
  8
RIVERS
 10
1087011.5283830641
 20
698736.56329215935
 30
0.0
  0
VERTEX
  5
10DF
  8
RIVERS
 10
1086975.761368993
 20
698757.27322472306
 30
0.0
  0
VERTEX
  5
10E0
  8
RIVERS
 10
1086916.562632611
 20
698781.35579322476
 30
0.0
  0
VERTEX
  5
10E1
  8
RIVERS
 10
1086873.153179703
 20
698819.35420895007
 30
0.0
  0
VERTEX
  5
10E2
  8
RIVERS
 10
1086859.2373324791
 20
698835.14349242288
 30
0.0
  0
VERTEX
  5
10E3
  8
RIVERS
 10
1086829.6786421761
 20
698851.09548744385
 30
0.0
  0
VERTEX
  5
10E4
  8
RIVERS
 10
1086814.05207025
 20
698852.82248329977
 30
0.0
  0
VERTEX
  5
10E5
  8
RIVERS
 10
1086789.1048770971
 20
698860.90424331615
 30
0.0
  0
VERTEX
  5
10E6
  8
RIVERS
 10
1086733.0835227959
 20
698889.64712243224
 30
0.0
  0
VERTEX
  5
10E7
  8
RIVERS
 10
1086609.163368216
 20
698858.08257319313
 30
0.0
  0
VERTEX
  5
10E8
  8
RIVERS
 10
1086602.6458925081
 20
698833.11910888483
 30
0.0
  0
VERTEX
  5
10E9
  8
RIVERS
 10
1086613.2867307221
 20
698803.2838089494
 30
0.0
  0
VERTEX
  5
10EA
  8
RIVERS
 10
1086637.1762988151
 20
698693.52356891485
 30
0.0
  0
VERTEX
  5
10EB
  8
RIVERS
 10
1086582.981820747
 20
698597.0911610832
 30
0.0
  0
VERTEX
  5
10EC
  8
RIVERS
 10
1086485.475516699
 20
698548.0428748253
 30
0.0
  0
VERTEX
  5
10ED
  8
RIVERS
 10
1086418.227562611
 20
698550.30681878945
 30
0.0
  0
VERTEX
  5
10EE
  8
RIVERS
 10
1086400.9878929129
 20
698547.35723287566
 30
0.0
  0
VERTEX
  5
10EF
  8
RIVERS
 10
1086385.361320989
 20
698549.08422873192
 30
0.0
  0
VERTEX
  5
10F0
  8
RIVERS
 10
1086295.7740654091
 20
698509.34029254748
 30
0.0
  0
VERTEX
  5
10F1
  8
RIVERS
 10
1086281.6304220189
 20
698503.22959570866
 30
0.0
  0
VERTEX
  5
10F2
  8
RIVERS
 10
1086239.2157630001
 20
698486.46178950078
 30
0.0
  0
VERTEX
  5
10F3
  8
RIVERS
 10
1086225.1697465391
 20
698489.73679850972
 30
0.0
  0
VERTEX
  5
10F4
  8
RIVERS
 10
1086060.852267412
 20
698466.60985824256
 30
0.0
  0
VERTEX
  5
10F5
  8
RIVERS
 10
1086048.194094725
 20
698471.23974299699
 30
0.0
  0
VERTEX
  5
10F6
  8
RIVERS
 10
1086032.567522801
 20
698472.96673885291
 30
0.0
  0
VERTEX
  5
10F7
  8
RIVERS
 10
1086016.9084085659
 20
698471.56516609306
 30
0.0
  0
VERTEX
  5
10F8
  8
RIVERS
 10
1085988.800104487
 20
698476.55089980352
 30
0.0
  0
VERTEX
  5
10F9
  8
RIVERS
 10
1085966.8838530199
 20
698475.21441166231
 30
0.0
  0
VERTEX
  5
10FA
  8
RIVERS
 10
1085935.451726468
 20
698461.46127598616
 30
0.0
  0
VERTEX
  5
10FB
  8
RIVERS
 10
1085918.2445990799
 20
698461.64025868895
 30
0.0
  0
VERTEX
  5
10FC
  8
RIVERS
 10
1085902.585484846
 20
698460.2386859291
 30
0.0
  0
VERTEX
  5
10FD
  8
RIVERS
 10
1085885.394628613
 20
698461.98195293965
 30
0.0
  0
VERTEX
  5
10FE
  8
RIVERS
 10
1085844.5605250581
 20
698446.76215988456
 30
0.0
  0
VERTEX
  5
10FF
  8
RIVERS
 10
1085797.339115032
 20
698419.09317698434
 30
0.0
  0
VERTEX
  5
1100
  8
RIVERS
 10
1085577.332753768
 20
698174.1979468409
 30
0.0
  0
VERTEX
  5
1101
  8
RIVERS
 10
1085555.367688837
 20
698168.16860577615
 30
0.0
  0
VERTEX
  5
1102
  8
RIVERS
 10
1085522.7292433821
 20
698188.84599603014
 30
0.0
  0
VERTEX
  5
1103
  8
RIVERS
 10
1085507.720975338
 20
698250.01579558896
 30
0.0
  0
VERTEX
  5
1104
  8
RIVERS
 10
1085507.9162291959
 20
698268.78720728483
 30
0.0
  0
VERTEX
  5
1105
  8
RIVERS
 10
1085498.6932348961
 20
698284.52767729305
 30
0.0
  0
VERTEX
  5
1106
  8
RIVERS
 10
1085447.153208507
 20
698292.88604694081
 30
0.0
  0
VERTEX
  5
1107
  8
RIVERS
 10
1085425.2044147309
 20
698288.42099018442
 30
0.0
  0
VERTEX
  5
1108
  8
RIVERS
 10
1085409.577842806
 20
698290.14798603987
 30
0.0
  0
VERTEX
  5
1109
  8
RIVERS
 10
1085367.3096241809
 20
698287.45873860316
 30
0.0
  0
VERTEX
  5
110A
  8
RIVERS
 10
1085289.485916497
 20
698325.81511973403
 30
0.0
  0
VERTEX
  5
110B
  8
RIVERS
 10
1085228.950691975
 20
698371.81393970258
 30
0.0
  0
VERTEX
  5
110C
  8
RIVERS
 10
1085216.420146357
 20
698370.37982463243
 30
0.0
  0
VERTEX
  5
110D
  8
RIVERS
 10
1085213.177679657
 20
698359.46237678651
 30
0.0
  0
VERTEX
  5
110E
  8
RIVERS
 10
1085197.5185654231
 20
698358.06080402655
 30
0.0
  0
VERTEX
  5
110F
  8
RIVERS
 10
1085183.3911931871
 20
698353.51439149561
 30
0.0
  0
VERTEX
  5
1110
  8
RIVERS
 10
1085166.1677946439
 20
698352.12908989005
 30
0.0
  0
VERTEX
  5
1111
  8
RIVERS
 10
1085139.542419099
 20
698349.27713090577
 30
0.0
  0
VERTEX
  5
1112
  8
RIVERS
 10
1085112.965857018
 20
698351.11802484503
 30
0.0
  0
VERTEX
  5
1113
  8
RIVERS
 10
1085098.8872982459
 20
698351.26446523832
 30
0.0
  0
VERTEX
  5
1114
  8
RIVERS
 10
1084991.0330367701
 20
698360.20859645843
 30
0.0
  0
VERTEX
  5
1115
  8
RIVERS
 10
1084978.518762307
 20
698360.33876569709
 30
0.0
  0
VERTEX
  5
1116
  8
RIVERS
 10
1084964.4076612261
 20
698357.35663747403
 30
0.0
  0
VERTEX
  5
1117
  8
RIVERS
 10
1084936.1041032891
 20
698343.57095948863
 30
0.0
  0
VERTEX
  5
1118
  8
RIVERS
 10
1084898.056874099
 20
698295.46865365631
 30
0.0
  0
VERTEX
  5
1119
  8
RIVERS
 10
1084834.8183844341
 20
698231.98384322098
 30
0.0
  0
VERTEX
  5
111A
  8
RIVERS
 10
1084799.4929449901
 20
698144.74188737979
 30
0.0
  0
VERTEX
  5
111B
  8
RIVERS
 10
1084741.142562106
 20
698099.97967517597
 30
0.0
  0
VERTEX
  5
111C
  8
RIVERS
 10
1084709.921960566
 20
698106.56223550381
 30
0.0
  0
VERTEX
  5
111D
  8
RIVERS
 10
1084634.836313783
 20
698107.34325093369
 30
0.0
  0
VERTEX
  5
111E
  8
RIVERS
 10
1084611.372049164
 20
698107.58731825533
 30
0.0
  0
VERTEX
  5
111F
  8
RIVERS
 10
1084589.4883400069
 20
698109.37939873047
 30
0.0
  0
VERTEX
  5
1120
  8
RIVERS
 10
1084570.7494706211
 20
698112.70322120422
 30
0.0
  0
VERTEX
  5
1121
  8
RIVERS
 10
1084550.4300457721
 20
698114.47903052426
 30
0.0
  0
VERTEX
  5
1122
  8
RIVERS
 10
1084448.7700903569
 20
697966.91337517335
 30
0.0
  0
VERTEX
  5
1123
  8
RIVERS
 10
1084330.2447018051
 20
697852.37667299272
 30
0.0
  0
VERTEX
  5
1124
  8
RIVERS
 10
1084304.58157784
 20
697791.62992345833
 30
0.0
  0
VERTEX
  5
1125
  8
RIVERS
 10
1084369.370334107
 20
697703.34661371075
 30
0.0
  0
VERTEX
  5
1126
  8
RIVERS
 10
1084317.3421730739
 20
697664.77645411913
 30
0.0
  0
VERTEX
  5
1127
  8
RIVERS
 10
1084289.120777498
 20
697668.60966900631
 30
0.0
  0
SEQEND
  5
1128
  8
RIVERS
  0
POLYLINE
  5
86
  8
RIVERS
 66
     1
 10
0.0
 20
0.0
 30
0.0
 40
10.0
 41
10.0
  0
VERTEX
  5
1129
  8
RIVERS
 10
1101520.3229199031
 20
694448.24940495857
 30
0.0
  0
VERTEX
  5
112A
  8
RIVERS
 10
1101554.092177225
 20
694533.84274557617
 30
0.0
  0
VERTEX
  5
112B
  8
RIVERS
 10
1101601.1555539181
 20
694614.80107831664
 30
0.0
  0
VERTEX
  5
112C
  8
RIVERS
 10
1101648.2226571839
 20
694697.24703894323
 30
0.0
  0
VERTEX
  5
112D
  8
RIVERS
 10
1101693.740644098
 20
694755.15086601675
 30
0.0
  0
VERTEX
  5
112E
  8
RIVERS
 10
1101783.814799418
 20
694783.93415209185
 30
0.0
  0
VERTEX
  5
112F
  8
RIVERS
 10
1101866.4564051661
 20
694814.96751286543
 30
0.0
  0
VERTEX
  5
1130
  8
RIVERS
 10
1101911.9408529149
 20
694859.48268896097
 30
0.0
  0
VERTEX
  5
1131
  8
RIVERS
 10
1101955.17336268
 20
694895.82150154095
 30
0.0
  0
VERTEX
  5
1132
  8
RIVERS
 10
1101997.7999417291
 20
694987.2044092078
 30
0.0
  0
VERTEX
  5
1133
  8
RIVERS
 10
1101973.423640707
 20
695054.95296650927
 30
0.0
  0
VERTEX
  5
1134
  8
RIVERS
 10
1101947.455367734
 20
695081.05166956293
 30
0.0
  0
VERTEX
  5
1135
  8
RIVERS
 10
1101897.610517103
 20
695077.45744006708
 30
0.0
  0
VERTEX
  5
1136
  8
RIVERS
 10
1101876.906703626
 20
695126.6013323532
 30
0.0
  0
VERTEX
  5
1137
  8
RIVERS
 10
1101909.6848258739
 20
695146.60232419858
 30
0.0
  0
VERTEX
  5
1138
  8
RIVERS
 10
1101969.283105677
 20
695183.64395841071
 30
0.0
  0
VERTEX
  5
1139
  8
RIVERS
 10
1101977.53772724
 20
695212.63220604148
 30
0.0
  0
VERTEX
  5
113A
  8
RIVERS
 10
1101951.684978053
 20
695284.8473735759
 30
0.0
  0
VERTEX
  5
113B
  8
RIVERS
 10
1101932.4278001511
 20
695317.62363253697
 30
0.0
  0
VERTEX
  5
113C
  8
RIVERS
 10
1101942.183092609
 20
695351.81485119672
 30
0.0
  0
VERTEX
  5
113D
  8
RIVERS
 10
1101939.265598729
 20
695374.88053658453
 30
0.0
  0
VERTEX
  5
113E
  8
RIVERS
 10
1101901.3590369271
 20
695386.1327733635
 30
0.0
  0
VERTEX
  5
113F
  8
RIVERS
 10
1101890.9996770411
 20
695407.72946373362
 30
0.0
  0
VERTEX
  5
1140
  8
RIVERS
 10
1101898.480672071
 20
695424.81855155935
 30
0.0
  0
VERTEX
  5
1141
  8
RIVERS
 10
1101887.392404536
 20
695452.36761676217
 30
0.0
  0
VERTEX
  5
1142
  8
RIVERS
 10
1101887.453893004
 20
695476.91347688914
 30
0.0
  0
VERTEX
  5
1143
  8
RIVERS
 10
1101912.0705580311
 20
695505.11691826559
 30
0.0
  0
VERTEX
  5
1144
  8
RIVERS
 10
1101918.8319618481
 20
695531.87745064055
 30
0.0
  0
VERTEX
  5
1145
  8
RIVERS
 10
1101957.551279207
 20
695548.1444664743
 30
0.0
  0
VERTEX
  5
1146
  8
RIVERS
 10
1101971.10389943
 20
695613.56655431585
 30
0.0
  0
VERTEX
  5
1147
  8
RIVERS
 10
1102012.1366432421
 20
695662.55579379154
 30
0.0
  0
VERTEX
  5
1148
  8
RIVERS
 10
1102064.2054825551
 20
695663.16917765397
 30
0.0
  0
VERTEX
  5
1149
  8
RIVERS
 10
1102110.314493889
 20
695660.07839809521
 30
0.0
  0
VERTEX
  5
114A
  8
RIVERS
 10
1102166.227243138
 20
695710.51799972029
 30
0.0
  0
VERTEX
  5
114B
  8
RIVERS
 10
1102253.447256332
 20
695787.65664525318
 30
0.0
  0
VERTEX
  5
114C
  8
RIVERS
 10
1102268.485641154
 20
695852.33119257784
 30
0.0
  0
VERTEX
  5
114D
  8
RIVERS
 10
1102320.697953556
 20
695910.21825006965
 30
0.0
  0
VERTEX
  5
114E
  8
RIVERS
 10
1102355.058731321
 20
695968.15002644598
 30
0.0
  0
VERTEX
  5
114F
  8
RIVERS
 10
1102328.5124769369
 20
696060.45003373513
 30
0.0
  0
VERTEX
  5
1150
  8
RIVERS
 10
1102342.7548757831
 20
696104.29965393536
 30
0.0
  0
VERTEX
  5
1151
  8
RIVERS
 10
1102396.3150695569
 20
696106.39693911071
 30
0.0
  0
VERTEX
  5
1152
  8
RIVERS
 10
1102482.6179831279
 20
696114.36275120929
 30
0.0
  0
VERTEX
  5
1153
  8
RIVERS
 10
1102518.4589356319
 20
696169.31554523925
 30
0.0
  0
VERTEX
  5
1154
  8
RIVERS
 10
1102472.5287998379
 20
696243.81246334896
 30
0.0
  0
VERTEX
  5
1155
  8
RIVERS
 10
1102468.9178007611
 20
696286.96298849117
 30
0.0
  0
VERTEX
  5
1156
  8
RIVERS
 10
1102561.327741975
 20
696357.39426552702
 30
0.0
  0
VERTEX
  5
1157
  8
RIVERS
 10
1102611.5545664141
 20
696513.47035338706
 30
0.0
  0
VERTEX
  5
1158
  8
RIVERS
 10
1102639.1185379119
 20
696530.50913246733
 30
0.0
  0
VERTEX
  5
1159
  8
RIVERS
 10
1102683.803273112
 20
696552.7117535522
 30
0.0
  0
VERTEX
  5
115A
  8
RIVERS
 10
1102759.131579648
 20
696633.59928139136
 30
0.0
  0
VERTEX
  5
115B
  8
RIVERS
 10
1102864.083877119
 20
696663.08911567251
 30
0.0
  0
VERTEX
  5
115C
  8
RIVERS
 10
1102931.8436141419
 20
696691.92830035358
 30
0.0
  0
VERTEX
  5
115D
  8
RIVERS
 10
1102992.8531270691
 20
696698.46983631945
 30
0.0
  0
VERTEX
  5
115E
  8
RIVERS
 10
1103082.1797418729
 20
696725.76735779503
 30
0.0
  0
VERTEX
  5
115F
  8
RIVERS
 10
1103164.137158857
 20
696780.60462803906
 30
0.0
  0
VERTEX
  5
1160
  8
RIVERS
 10
1103444.7264378499
 20
696848.3330516672
 30
0.0
  0
VERTEX
  5
1161
  8
RIVERS
 10
1103573.4304727591
 20
696857.68028430105
 30
0.0
  0
VERTEX
  5
1162
  8
RIVERS
 10
1103691.6875733
 20
696853.66495197255
 30
0.0
  0
VERTEX
  5
1163
  8
RIVERS
 10
1103762.2735031459
 20
696822.99156804732
 30
0.0
  0
VERTEX
  5
1164
  8
RIVERS
 10
1103855.8151844549
 20
696751.35065535118
 30
0.0
  0
VERTEX
  5
1165
  8
RIVERS
 10
1103935.3939599469
 20
696747.43221393984
 30
0.0
  0
VERTEX
  5
1166
  8
RIVERS
 10
1104025.2352044079
 20
696683.23875711008
 30
0.0
  0
VERTEX
  5
1167
  8
RIVERS
 10
1104095.8621265651
 20
696668.92927993578
 30
0.0
  0
VERTEX
  5
1168
  8
RIVERS
 10
1104199.813476505
 20
696595.77465333685
 30
0.0
  0
VERTEX
  5
1169
  8
RIVERS
 10
1104333.6235915259
 20
696564.94289002754
 30
0.0
  0
VERTEX
  5
116A
  8
RIVERS
 10
1104450.3744313121
 20
696553.49314484058
 30
0.0
  0
VERTEX
  5
116B
  8
RIVERS
 10
1104527.855921628
 20
696603.13489720318
 30
0.0
  0
VERTEX
  5
116C
  8
RIVERS
 10
1104552.4427740669
 20
696619.43731548765
 30
0.0
  0
VERTEX
  5
116D
  8
RIVERS
 10
1104584.5292544039
 20
696660.26696103043
 30
0.0
  0
VERTEX
  5
116E
  8
RIVERS
 10
1104704.45285837
 20
696727.65404067934
 30
0.0
  0
VERTEX
  5
116F
  8
RIVERS
 10
1104798.928408883
 20
696731.8802869065
 30
0.0
  0
VERTEX
  5
1170
  8
RIVERS
 10
1104882.384633475
 20
696791.17671423615
 30
0.0
  0
VERTEX
  5
1171
  8
RIVERS
 10
1104928.825309871
 20
696920.48481657368
 30
0.0
  0
VERTEX
  5
1172
  8
RIVERS
 10
1104922.3732116751
 20
697017.19739877642
 30
0.0
  0
VERTEX
  5
1173
  8
RIVERS
 10
1104987.86434288
 20
697059.96223171661
 30
0.0
  0
SEQEND
  5
1174
  8
RIVERS
  0
POLYLINE
  5
87
  8
RIVERS
 66
     1
 10
0.0
 20
0.0
 30
0.0
 40
10.0
 41
10.0
  0
VERTEX
  5
1175
  8
RIVERS
 10
1104987.86434288
 20
697059.96223171661
 30
0.0
  0
VERTEX
  5
1176
  8
RIVERS
 10
1104909.78799982
 20
697041.03112083673
 30
0.0
  0
VERTEX
  5
1177
  8
RIVERS
 10
1104891.0324085681
 20
696977.10970389005
 30
0.0
  0
VERTEX
  5
1178
  8
RIVERS
 10
1104900.4057272179
 20
696858.81906418572
 30
0.0
  0
VERTEX
  5
1179
  8
RIVERS
 10
1104854.129020066
 20
696794.96658885304
 30
0.0
  0
VERTEX
  5
117A
  8
RIVERS
 10
1104775.213937182
 20
696766.89916741825
 30
0.0
  0
VERTEX
  5
117B
  8
RIVERS
 10
1104688.9147501851
 20
696760.42098320602
 30
0.0
  0
VERTEX
  5
117C
  8
RIVERS
 10
1104579.4660298901
 20
696717.55367766786
 30
0.0
  0
VERTEX
  5
117D
  8
RIVERS
 10
1104486.2340166839
 20
696615.88407830289
 30
0.0
  0
VERTEX
  5
117E
  8
RIVERS
 10
1104433.337515519
 20
696581.80093028152
 30
0.0
  0
VERTEX
  5
117F
  8
RIVERS
 10
1104245.959753576
 20
696607.56015264278
 30
0.0
  0
VERTEX
  5
1180
  8
RIVERS
 10
1104136.0187630651
 20
696665.10959272878
 30
0.0
  0
VERTEX
  5
1181
  8
RIVERS
 10
1103988.1563044579
 20
696727.96075804776
 30
0.0
  0
VERTEX
  5
1182
  8
RIVERS
 10
1103896.780849938
 20
696773.56259287021
 30
0.0
  0
VERTEX
  5
1183
  8
RIVERS
 10
1103770.5355778569
 20
696854.95507145103
 30
0.0
  0
VERTEX
  5
1184
  8
RIVERS
 10
1103632.277485471
 20
696891.74852602743
 30
0.0
  0
VERTEX
  5
1185
  8
RIVERS
 10
1103426.222390325
 20
696884.82651705772
 30
0.0
  0
VERTEX
  5
1186
  8
RIVERS
 10
1103269.190073818
 20
696850.26041525509
 30
0.0
  0
VERTEX
  5
1187
  8
RIVERS
 10
1103151.542630567
 20
696800.71928038332
 30
0.0
  0
VERTEX
  5
1188
  8
RIVERS
 10
1103071.7924326831
 20
696736.20683901664
 30
0.0
  0
VERTEX
  5
1189
  8
RIVERS
 10
1102960.166305878
 20
696714.91572769301
 30
0.0
  0
VERTEX
  5
118A
  8
RIVERS
 10
1102775.5308888501
 20
696647.69075400184
 30
0.0
  0
VERTEX
  5
118B
  8
RIVERS
 10
1102720.3992192801
 20
696612.12556795473
 30
0.0
  0
VERTEX
  5
118C
  8
RIVERS
 10
1102680.891369093
 20
696578.00888076995
 30
0.0
  0
VERTEX
  5
118D
  8
RIVERS
 10
1102581.1364527899
 20
696544.78693376458
 30
0.0
  0
VERTEX
  5
118E
  8
RIVERS
 10
1102556.4787954511
 20
696500.21958563698
 30
0.0
  0
VERTEX
  5
118F
  8
RIVERS
 10
1102542.1190095311
 20
696409.50968701218
 30
0.0
  0
VERTEX
  5
1190
  8
RIVERS
 10
1102518.180943406
 20
696355.27089433582
 30
0.0
  0
VERTEX
  5
1191
  8
RIVERS
 10
1102448.1487722429
 20
696310.07339276385
 30
0.0
  0
VERTEX
  5
1192
  8
RIVERS
 10
1102413.8196703549
 20
696264.78645342262
 30
0.0
  0
VERTEX
  5
1193
  8
RIVERS
 10
1102465.609016638
 20
696153.82774579886
 30
0.0
  0
VERTEX
  5
1194
  8
RIVERS
 10
1102416.4632610651
 20
696132.38011837867
 30
0.0
  0
VERTEX
  5
1195
  8
RIVERS
 10
1102297.4418504259
 20
696128.21536061808
 30
0.0
  0
VERTEX
  5
1196
  8
RIVERS
 10
1102278.654583297
 20
696051.64910663606
 30
0.0
  0
VERTEX
  5
1197
  8
RIVERS
 10
1102314.915137829
 20
695977.17641125573
 30
0.0
  0
VERTEX
  5
1198
  8
RIVERS
 10
1102259.7517923829
 20
695928.96638817387
 30
0.0
  0
VERTEX
  5
1199
  8
RIVERS
 10
1102204.495282593
 20
695843.56566792948
 30
0.0
  0
VERTEX
  5
119A
  8
RIVERS
 10
1102223.003056691
 20
695808.55983042566
 30
0.0
  0
VERTEX
  5
119B
  8
RIVERS
 10
1102168.5630290329
 20
695752.16599068092
 30
0.0
  0
VERTEX
  5
119C
  8
RIVERS
 10
1102137.934363992
 20
695699.4315954725
 30
0.0
  0
VERTEX
  5
119D
  8
RIVERS
 10
1102043.419684455
 20
695679.58525643765
 30
0.0
  0
VERTEX
  5
119E
  8
RIVERS
 10
1101969.746701624
 20
695665.63725691615
 30
0.0
  0
VERTEX
  5
119F
  8
RIVERS
 10
1101941.32152911
 20
695601.74006269861
 30
0.0
  0
VERTEX
  5
11A0
  8
RIVERS
 10
1101938.2586988551
 20
695566.7882605138
 30
0.0
  0
VERTEX
  5
11A1
  8
RIVERS
 10
1101880.1592266599
 20
695534.20578338706
 30
0.0
  0
VERTEX
  5
11A2
  8
RIVERS
 10
1101878.5486218401
 20
695485.11778970715
 30
0.0
  0
VERTEX
  5
11A3
  8
RIVERS
 10
1101838.2727349801
 20
695441.33338454715
 30
0.0
  0
VERTEX
  5
11A4
  8
RIVERS
 10
1101869.4216195389
 20
695404.80824327981
 30
0.0
  0
VERTEX
  5
11A5
  8
RIVERS
 10
1101871.5785298939
 20
695375.05009568972
 30
0.0
  0
VERTEX
  5
11A6
  8
RIVERS
 10
1101899.049337049
 20
695354.89817760792
 30
0.0
  0
VERTEX
  5
11A7
  8
RIVERS
 10
1101898.102424837
 20
695273.82432108198
 30
0.0
  0
VERTEX
  5
11A8
  8
RIVERS
 10
1101938.9246172321
 20
695238.76258497208
 30
0.0
  0
VERTEX
  5
11A9
  8
RIVERS
 10
1101938.7885972899
 20
695184.46416711551
 30
0.0
  0
VERTEX
  5
11AA
  8
RIVERS
 10
1101873.2994311219
 20
695171.23948538175
 30
0.0
  0
VERTEX
  5
11AB
  8
RIVERS
 10
1101850.862035891
 20
695122.2036637339
 30
0.0
  0
VERTEX
  5
11AC
  8
RIVERS
 10
1101863.361536551
 20
695064.15450028447
 30
0.0
  0
VERTEX
  5
11AD
  8
RIVERS
 10
1101918.321783728
 20
695031.28880355391
 30
0.0
  0
VERTEX
  5
11AE
  8
RIVERS
 10
1101957.7364695719
 20
695028.21479357674
 30
0.0
  0
VERTEX
  5
11AF
  8
RIVERS
 10
1101957.538961164
 20
694949.37051559356
 30
0.0
  0
VERTEX
  5
11B0
  8
RIVERS
 10
1101924.6769910071
 20
694895.89789630286
 30
0.0
  0
VERTEX
  5
11B1
  8
RIVERS
 10
1101873.3016568909
 20
694875.19967268594
 30
0.0
  0
VERTEX
  5
11B2
  8
RIVERS
 10
1101827.032402887
 20
694814.32245312608
 30
0.0
  0
VERTEX
  5
11B3
  8
RIVERS
 10
1101743.6674793509
 20
694791.47290901537
 30
0.0
  0
VERTEX
  5
11B4
  8
RIVERS
 10
1101663.23495599
 20
694751.50819106225
 30
0.0
  0
VERTEX
  5
11B5
  8
RIVERS
 10
1101604.263103059
 20
694667.60441513895
 30
0.0
  0
VERTEX
  5
11B6
  8
RIVERS
 10
1101536.2238730059
 20
694527.19313897192
 30
0.0
  0
VERTEX
  5
11B7
  8
RIVERS
 10
1101515.7079326401
 20
694450.87272806256
 30
0.0
  0
VERTEX
  5
11B8
  8
RIVERS
 10
1101511.446965307
 20
694435.02169847698
 30
0.0
  0
VERTEX
  5
11B9
  8
RIVERS
 10
1101455.4764541639
 20
694361.52386461163
 30
0.0
  0
VERTEX
  5
11BA
  8
RIVERS
 10
1101384.1057180639
 20
694375.83520507265
 30
0.0
  0
VERTEX
  5
11BB
  8
RIVERS
 10
1101330.5231648469
 20
694364.81215257873
 30
0.0
  0
VERTEX
  5
11BC
  8
RIVERS
 10
1101317.770257174
 20
694321.70261974761
 30
0.0
  0
VERTEX
  5
11BD
  8
RIVERS
 10
1101314.7130167789
 20
694288.98225939251
 30
0.0
  0
VERTEX
  5
11BE
  8
RIVERS
 10
1101279.058392962
 20
694308.41085968656
 30
0.0
  0
VERTEX
  5
11BF
  8
RIVERS
 10
1101253.7407695891
 20
694297.31700229144
 30
0.0
  0
VERTEX
  5
11C0
  8
RIVERS
 10
1101185.069522805
 20
694201.53642600565
 30
0.0
  0
VERTEX
  5
11C1
  8
RIVERS
 10
1101142.5230650911
 20
694142.13751789834
 30
0.0
  0
VERTEX
  5
11C2
  8
RIVERS
 10
1101200.4026694349
 20
694086.94994972262
 30
0.0
  0
VERTEX
  5
11C3
  8
RIVERS
 10
1101141.5295707069
 20
694042.46831279085
 30
0.0
  0
VERTEX
  5
11C4
  8
RIVERS
 10
1101103.924809345
 20
694000.48978873028
 30
0.0
  0
SEQEND
  5
11C5
  8
RIVERS
  0
POLYLINE
  5
88
  8
RIVERS
 66
     1
 10
0.0
 20
0.0
 30
0.0
 40
10.0
 41
10.0
  0
VERTEX
  5
11C6
  8
RIVERS
 10
1102917.695762913
 20
701651.26762187085
 30
0.0
  0
VERTEX
  5
11C7
  8
RIVERS
 10
1102936.4157629129
 20
701567.02762187063
 30
0.0
  0
VERTEX
  5
11C8
  8
RIVERS
 10
1102927.055762914
 20
701479.66762187076
 30
0.0
  0
VERTEX
  5
11C9
  8
RIVERS
 10
1102939.535762914
 20
701411.02762187074
 30
0.0
  0
VERTEX
  5
11CA
  8
RIVERS
 10
1102936.4157629129
 20
701395.42762187065
 30
0.0
  0
VERTEX
  5
11CB
  8
RIVERS
 10
1102920.815762914
 20
701351.74762187095
 30
0.0
  0
VERTEX
  5
11CC
  8
RIVERS
 10
1102895.8557629129
 20
701317.42762187053
 30
0.0
  0
VERTEX
  5
11CD
  8
RIVERS
 10
1102845.935762913
 20
701283.10762187082
 30
0.0
  0
VERTEX
  5
11CE
  8
RIVERS
 10
1102799.1357629129
 20
701242.54762187053
 30
0.0
  0
VERTEX
  5
11CF
  8
RIVERS
 10
1102789.7757629131
 20
701236.30762187077
 30
0.0
  0
VERTEX
  5
11D0
  8
RIVERS
 10
1102777.295762914
 20
701233.18762187043
 30
0.0
  0
VERTEX
  5
11D1
  8
RIVERS
 10
1102761.695762913
 20
701236.30762187077
 30
0.0
  0
VERTEX
  5
11D2
  8
RIVERS
 10
1102733.6157629129
 20
701230.06762187066
 30
0.0
  0
VERTEX
  5
11D3
  8
RIVERS
 10
1102702.4157629129
 20
701214.46762187057
 30
0.0
  0
VERTEX
  5
11D4
  8
RIVERS
 10
1102686.8157629131
 20
701205.10762187082
 30
0.0
  0
VERTEX
  5
11D5
  8
RIVERS
 10
1102671.215762913
 20
701211.34762187046
 30
0.0
  0
VERTEX
  5
11D6
  8
RIVERS
 10
1102636.8957629141
 20
701205.10762187082
 30
0.0
  0
VERTEX
  5
11D7
  8
RIVERS
 10
1102596.3357629131
 20
701208.2276218707
 30
0.0
  0
VERTEX
  5
11D8
  8
RIVERS
 10
1102552.6557629129
 20
701205.10762187082
 30
0.0
  0
VERTEX
  5
11D9
  8
RIVERS
 10
1102502.735762913
 20
701161.42762187065
 30
0.0
  0
VERTEX
  5
11DA
  8
RIVERS
 10
1102480.8957629129
 20
701130.2276218707
 30
0.0
  0
VERTEX
  5
11DB
  8
RIVERS
 10
1102427.8557629129
 20
701077.18762187031
 30
0.0
  0
VERTEX
  5
11DC
  8
RIVERS
 10
1102368.575762914
 20
701042.86762187071
 30
0.0
  0
VERTEX
  5
11DD
  8
RIVERS
 10
1102328.015762913
 20
701030.38762187096
 30
0.0
  0
VERTEX
  5
11DE
  8
RIVERS
 10
1102293.695762913
 20
701033.50762187096
 30
0.0
  0
VERTEX
  5
11DF
  8
RIVERS
 10
1102246.8957629129
 20
701017.90762187052
 30
0.0
  0
VERTEX
  5
11E0
  8
RIVERS
 10
1102200.095762914
 20
701011.66762187111
 30
0.0
  0
VERTEX
  5
11E1
  8
RIVERS
 10
1102165.775762914
 20
701030.38762187096
 30
0.0
  0
VERTEX
  5
11E2
  8
RIVERS
 10
1102150.175762913
 20
701036.62762187072
 30
0.0
  0
VERTEX
  5
11E3
  8
RIVERS
 10
1102134.5757629131
 20
701033.50762187096
 30
0.0
  0
VERTEX
  5
11E4
  8
RIVERS
 10
1102053.455762913
 20
701045.98762187082
 30
0.0
  0
VERTEX
  5
11E5
  8
RIVERS
 10
1101994.175762913
 20
701039.74762187025
 30
0.0
  0
VERTEX
  5
11E6
  8
RIVERS
 10
1101869.3757629129
 20
700992.94762187079
 30
0.0
  0
VERTEX
  5
11E7
  8
RIVERS
 10
1101847.535762914
 20
700971.10762187059
 30
0.0
  0
VERTEX
  5
11E8
  8
RIVERS
 10
1101841.2957629131
 20
700949.26762187073
 30
0.0
  0
VERTEX
  5
11E9
  8
RIVERS
 10
1101838.1757629139
 20
700908.70762187056
 30
0.0
  0
VERTEX
  5
11EA
  8
RIVERS
 10
1101835.0557629131
 20
700836.9476218709
 30
0.0
  0
VERTEX
  5
11EB
  8
RIVERS
 10
1101816.335762914
 20
700793.26762187073
 30
0.0
  0
VERTEX
  5
11EC
  8
RIVERS
 10
1101794.495762913
 20
700749.58762187092
 30
0.0
  0
VERTEX
  5
11ED
  8
RIVERS
 10
1101757.0557629131
 20
700652.86762187083
 30
0.0
  0
VERTEX
  5
11EE
  8
RIVERS
 10
1101728.975762913
 20
700587.34762187058
 30
0.0
  0
VERTEX
  5
11EF
  8
RIVERS
 10
1101704.015762913
 20
700549.90762187063
 30
0.0
  0
VERTEX
  5
11F0
  8
RIVERS
 10
1101657.215762913
 20
700493.7476218706
 30
0.0
  0
VERTEX
  5
11F1
  8
RIVERS
 10
1101638.495762914
 20
700481.26762187085
 30
0.0
  0
VERTEX
  5
11F2
  8
RIVERS
 10
1101519.935762913
 20
700434.46762187057
 30
0.0
  0
VERTEX
  5
11F3
  8
RIVERS
 10
1101463.7757629131
 20
700406.3876218705
 30
0.0
  0
VERTEX
  5
11F4
  8
RIVERS
 10
1101426.3357629131
 20
700390.7876218704
 30
0.0
  0
VERTEX
  5
11F5
  8
RIVERS
 10
1101420.095762914
 20
700381.42762187088
 30
0.0
  0
VERTEX
  5
11F6
  8
RIVERS
 10
1101420.095762914
 20
700350.22762187046
 30
0.0
  0
VERTEX
  5
11F7
  8
RIVERS
 10
1101426.3357629131
 20
700328.38762187085
 30
0.0
  0
VERTEX
  5
11F8
  8
RIVERS
 10
1101460.655762912
 20
700297.18762187078
 30
0.0
  0
VERTEX
  5
11F9
  8
RIVERS
 10
1101535.535762914
 20
700256.62762187095
 30
0.0
  0
VERTEX
  5
11FA
  8
RIVERS
 10
1101588.575762914
 20
700256.62762187095
 30
0.0
  0
VERTEX
  5
11FB
  8
RIVERS
 10
1101644.735762913
 20
700275.34762187104
 30
0.0
  0
VERTEX
  5
11FC
  8
RIVERS
 10
1101660.335762914
 20
700272.22762187058
 30
0.0
  0
VERTEX
  5
11FD
  8
RIVERS
 10
1101666.5757629131
 20
700262.86762187048
 30
0.0
  0
VERTEX
  5
11FE
  8
RIVERS
 10
1101675.935762913
 20
700237.90762187075
 30
0.0
  0
VERTEX
  5
11FF
  8
RIVERS
 10
1101654.0957629131
 20
700197.34762187046
 30
0.0
  0
VERTEX
  5
1200
  8
RIVERS
 10
1101644.735762913
 20
700172.38762187108
 30
0.0
  0
VERTEX
  5
1201
  8
RIVERS
 10
1101644.735762913
 20
700138.06762187066
 30
0.0
  0
VERTEX
  5
1202
  8
RIVERS
 10
1101638.495762914
 20
700109.98762187059
 30
0.0
  0
VERTEX
  5
1203
  8
RIVERS
 10
1101641.6157629129
 20
700069.42762187053
 30
0.0
  0
VERTEX
  5
1204
  8
RIVERS
 10
1101644.735762913
 20
700013.26762187039
 30
0.0
  0
VERTEX
  5
1205
  8
RIVERS
 10
1101638.495762914
 20
699966.4676218708
 30
0.0
  0
VERTEX
  5
1206
  8
RIVERS
 10
1101593.1183645769
 20
699720.39215673786
 30
0.0
  0
VERTEX
  5
1207
  8
RIVERS
 10
1101636.893453303
 20
699676.39720016147
 30
0.0
  0
VERTEX
  5
1208
  8
RIVERS
 10
1101826.9203958169
 20
699520.46308458608
 30
0.0
  0
VERTEX
  5
1209
  8
RIVERS
 10
1101839.4459824921
 20
699472.82731634215
 30
0.0
  0
VERTEX
  5
120A
  8
RIVERS
 10
1101840.038870198
 20
699412.57652365288
 30
0.0
  0
VERTEX
  5
120B
  8
RIVERS
 10
1101931.5130789219
 20
699406.39682782197
 30
0.0
  0
VERTEX
  5
120C
  8
RIVERS
 10
1101975.8922350761
 20
699306.61396221607
 30
0.0
  0
VERTEX
  5
120D
  8
RIVERS
 10
1101999.8567496999
 20
699074.48252345889
 30
0.0
  0
VERTEX
  5
120E
  8
RIVERS
 10
1102046.4375350941
 20
698962.79304490029
 30
0.0
  0
VERTEX
  5
120F
  8
RIVERS
 10
1102160.9960620729
 20
698966.96898238175
 30
0.0
  0
VERTEX
  5
1210
  8
RIVERS
 10
1102306.6960204651
 20
698931.64452282351
 30
0.0
  0
VERTEX
  5
1211
  8
RIVERS
 10
1102421.832528857
 20
698869.61915606982
 30
0.0
  0
VERTEX
  5
1212
  8
RIVERS
 10
1102719.96776344
 20
698815.3173741221
 30
0.0
  0
VERTEX
  5
1213
  8
RIVERS
 10
1102798.8642134571
 20
698835.94665612455
 30
0.0
  0
VERTEX
  5
1214
  8
RIVERS
 10
1102924.471878947
 20
698796.95343559538
 30
0.0
  0
VERTEX
  5
1215
  8
RIVERS
 10
1103005.581137924
 20
698810.13898830465
 30
0.0
  0
VERTEX
  5
1216
  8
RIVERS
 10
1103095.4298355321
 20
698748.92078724818
 30
0.0
  0
VERTEX
  5
1217
  8
RIVERS
 10
1103197.3491153379
 20
698755.35984243616
 30
0.0
  0
VERTEX
  5
1218
  8
RIVERS
 10
1103235.6547830121
 20
698606.50016287155
 30
0.0
  0
VERTEX
  5
1219
  8
RIVERS
 10
1103343.6755005999
 20
698673.17324116675
 30
0.0
  0
VERTEX
  5
121A
  8
RIVERS
 10
1103346.9339759769
 20
698786.2255073915
 30
0.0
  0
VERTEX
  5
121B
  8
RIVERS
 10
1103407.345011337
 20
698850.78639421705
 30
0.0
  0
VERTEX
  5
121C
  8
RIVERS
 10
1103529.9718311939
 20
698809.56918500527
 30
0.0
  0
VERTEX
  5
121D
  8
RIVERS
 10
1103610.9432069419
 20
698767.7125059152
 30
0.0
  0
VERTEX
  5
121E
  8
RIVERS
 10
1103766.4823057009
 20
698800.05089246214
 30
0.0
  0
VERTEX
  5
121F
  8
RIVERS
 10
1103949.5853759579
 20
698849.42805808922
 30
0.0
  0
VERTEX
  5
1220
  8
RIVERS
 10
1104081.9376756819
 20
698830.50104444555
 30
0.0
  0
VERTEX
  5
1221
  8
RIVERS
 10
1104261.66488349
 20
698719.96566542389
 30
0.0
  0
VERTEX
  5
1222
  8
RIVERS
 10
1104377.1162873621
 20
698783.64485507761
 30
0.0
  0
VERTEX
  5
1223
  8
RIVERS
 10
1104490.9831724309
 20
698808.64944625681
 30
0.0
  0
VERTEX
  5
1224
  8
RIVERS
 10
1104581.3163246261
 20
698940.82287044229
 30
0.0
  0
VERTEX
  5
1225
  8
RIVERS
 10
1104733.233244586
 20
699011.84889847168
 30
0.0
  0
VERTEX
  5
1226
  8
RIVERS
 10
1104860.4831907731
 20
699034.58850865765
 30
0.0
  0
VERTEX
  5
1227
  8
RIVERS
 10
1104936.1658842959
 20
698960.01705907297
 30
0.0
  0
VERTEX
  5
1228
  8
RIVERS
 10
1104894.264486321
 20
698861.19414868718
 30
0.0
  0
VERTEX
  5
1229
  8
RIVERS
 10
1104953.4528430121
 20
698734.59671538684
 30
0.0
  0
VERTEX
  5
122A
  8
RIVERS
 10
1104987.86434288
 20
698687.9522653945
 30
0.0
  0
SEQEND
  5
122B
  8
RIVERS
  0
POLYLINE
  5
89
  8
RIVERS
 66
     1
 10
0.0
 20
0.0
 30
0.0
 40
10.0
 41
10.0
  0
VERTEX
  5
122C
  8
RIVERS
 10
1094702.1018879621
 20
694000.44350425794
 30
0.0
  0
VERTEX
  5
122D
  8
RIVERS
 10
1094702.1018879621
 20
694000.44350425794
 30
0.0
  0
VERTEX
  5
122E
  8
RIVERS
 10
1094691.703191004
 20
694089.11530408857
 30
0.0
  0
VERTEX
  5
122F
  8
RIVERS
 10
1094663.973458773
 20
694116.82132509176
 30
0.0
  0
VERTEX
  5
1230
  8
RIVERS
 10
1094643.1761595991
 20
694141.06410877826
 30
0.0
  0
VERTEX
  5
1231
  8
RIVERS
 10
1094629.311388226
 20
694168.77012978122
 30
0.0
  0
VERTEX
  5
1232
  8
RIVERS
 10
1094611.980258211
 20
694224.18217178748
 30
0.0
  0
VERTEX
  5
1233
  8
RIVERS
 10
1094598.1153920949
 20
694255.35143010726
 30
0.0
  0
VERTEX
  5
1234
  8
RIVERS
 10
1094598.1153920949
 20
694289.98398697865
 30
0.0
  0
VERTEX
  5
1235
  8
RIVERS
 10
1094608.514089053
 20
694307.30023479683
 30
0.0
  0
VERTEX
  5
1236
  8
RIVERS
 10
1094632.777557384
 20
694359.2490394864
 30
0.0
  0
VERTEX
  5
1237
  8
RIVERS
 10
1094650.1085926569
 20
694411.19784417585
 30
0.0
  0
VERTEX
  5
1238
  8
RIVERS
 10
1094643.1761595991
 20
694463.14664886566
 30
0.0
  0
VERTEX
  5
1239
  8
RIVERS
 10
1094667.439722673
 20
694490.85266986873
 30
0.0
  0
VERTEX
  5
123A
  8
RIVERS
 10
1094684.770757946
 20
694525.48516550555
 30
0.0
  0
VERTEX
  5
123B
  8
RIVERS
 10
1094677.8383248879
 20
694563.5809596933
 30
0.0
  0
VERTEX
  5
123C
  8
RIVERS
 10
1094681.3045887889
 20
694601.67675388139
 30
0.0
  0
VERTEX
  5
123D
  8
RIVERS
 10
1094684.770757946
 20
694612.06652706605
 30
0.0
  0
VERTEX
  5
123E
  8
RIVERS
 10
1094709.0342262769
 20
694639.77254806925
 30
0.0
  0
VERTEX
  5
123F
  8
RIVERS
 10
1094733.2977893511
 20
694681.33157957415
 30
0.0
  0
VERTEX
  5
1240
  8
RIVERS
 10
1094733.2977893511
 20
694726.35384839552
 30
0.0
  0
VERTEX
  5
1241
  8
RIVERS
 10
1094712.500490177
 20
694774.83941576816
 30
0.0
  0
VERTEX
  5
1242
  8
RIVERS
 10
1094702.1018879621
 20
694826.78815922327
 30
0.0
  0
VERTEX
  5
1243
  8
RIVERS
 10
1094715.966659335
 20
694896.05327296536
 30
0.0
  0
VERTEX
  5
1244
  8
RIVERS
 10
1094705.5680571201
 20
694958.39178960526
 30
0.0
  0
VERTEX
  5
1245
  8
RIVERS
 10
1094702.1018879621
 20
695006.87735697825
 30
0.0
  0
VERTEX
  5
1246
  8
RIVERS
 10
1094702.787921166
 20
695025.38467081822
 30
0.0
  0
VERTEX
  5
1247
  8
RIVERS
 10
1094694.400766996
 20
695049.38504562736
 30
0.0
  0
VERTEX
  5
1248
  8
RIVERS
 10
1094646.134845308
 20
695082.23397277645
 30
0.0
  0
VERTEX
  5
1249
  8
RIVERS
 10
1094591.948224663
 20
695126.99882931216
 30
0.0
  0
VERTEX
  5
124A
  8
RIVERS
 10
1094579.4766733069
 20
695196.20520191023
 30
0.0
  0
VERTEX
  5
124B
  8
RIVERS
 10
1094590.234776583
 20
695333.78469539317
 30
0.0
  0
VERTEX
  5
124C
  8
RIVERS
 10
1094615.7964905361
 20
695442.31817935244
 30
0.0
  0
VERTEX
  5
124D
  8
RIVERS
 10
1094634.5129527641
 20
695490.61950349121
 30
0.0
  0
VERTEX
  5
124E
  8
RIVERS
 10
1094598.300843691
 20
695584.43136139575
 30
0.0
  0
VERTEX
  5
124F
  8
RIVERS
 10
1094612.6308170201
 20
695663.24023692869
 30
0.0
  0
VERTEX
  5
1250
  8
RIVERS
 10
1094689.651712998
 20
695825.94357195043
 30
0.0
  0
VERTEX
  5
1251
  8
RIVERS
 10
1094671.2017007931
 20
695884.00764169462
 30
0.0
  0
VERTEX
  5
1252
  8
RIVERS
 10
1094661.7054052099
 20
695953.20656114526
 30
0.0
  0
VERTEX
  5
1253
  8
RIVERS
 10
1094686.5773405379
 20
696083.31251274538
 30
0.0
  0
VERTEX
  5
1254
  8
RIVERS
 10
1094731.2043138461
 20
696082.45690158976
 30
0.0
  0
VERTEX
  5
1255
  8
RIVERS
 10
1094799.7264976811
 20
696118.73236241646
 30
0.0
  0
VERTEX
  5
1256
  8
RIVERS
 10
1094816.955332021
 20
696167.03741312912
 30
0.0
  0
VERTEX
  5
1257
  8
RIVERS
 10
1094881.0276752049
 20
696208.53075127967
 30
0.0
  0
VERTEX
  5
1258
  8
RIVERS
 10
1094893.040495509
 20
696253.12977528386
 30
0.0
  0
VERTEX
  5
1259
  8
RIVERS
 10
1094999.5251397509
 20
696300.46741762885
 30
0.0
  0
VERTEX
  5
125A
  8
RIVERS
 10
1095179.589602482
 20
696324.56236233329
 30
0.0
  0
VERTEX
  5
125B
  8
RIVERS
 10
1095311.1608225261
 20
696290.760933112
 30
0.0
  0
VERTEX
  5
125C
  8
RIVERS
 10
1095381.161317813
 20
696323.31359764887
 30
0.0
  0
VERTEX
  5
125D
  8
RIVERS
 10
1095616.8851227791
 20
696296.68944769807
 30
0.0
  0
VERTEX
  5
125E
  8
RIVERS
 10
1095764.0578027619
 20
696255.4107500196
 30
0.0
  0
VERTEX
  5
125F
  8
RIVERS
 10
1095951.400162254
 20
696215.519062737
 30
0.0
  0
VERTEX
  5
1260
  8
RIVERS
 10
1096149.841969002
 20
696152.54119391099
 30
0.0
  0
VERTEX
  5
1261
  8
RIVERS
 10
1096201.9219880369
 20
696157.61746143259
 30
0.0
  0
VERTEX
  5
1262
  8
RIVERS
 10
1096265.3175956041
 20
696225.88996482664
 30
0.0
  0
VERTEX
  5
1263
  8
RIVERS
 10
1096327.755111238
 20
696208.62572803535
 30
0.0
  0
VERTEX
  5
1264
  8
RIVERS
 10
1096450.5477636261
 20
696233.60795977188
 30
0.0
  0
VERTEX
  5
1265
  8
RIVERS
 10
1096597.9421747469
 20
696280.8431213391
 30
0.0
  0
VERTEX
  5
1266
  8
RIVERS
 10
1096668.675304255
 20
696308.93103892962
 30
0.0
  0
VERTEX
  5
1267
  8
RIVERS
 10
1096738.541642888
 20
696287.92909955338
 30
0.0
  0
VERTEX
  5
1268
  8
RIVERS
 10
1096844.3048326289
 20
696344.19437250402
 30
0.0
  0
VERTEX
  5
1269
  8
RIVERS
 10
1096968.5403940191
 20
696351.32134302927
 30
0.0
  0
VERTEX
  5
126A
  8
RIVERS
 10
1097057.160460616
 20
696393.49700665637
 30
0.0
  0
VERTEX
  5
126B
  8
RIVERS
 10
1097113.2036399471
 20
696496.00358430797
 30
0.0
  0
VERTEX
  5
126C
  8
RIVERS
 10
1097158.7812520401
 20
696577.70945756545
 30
0.0
  0
VERTEX
  5
126D
  8
RIVERS
 10
1097268.794910738
 20
696549.16876126535
 30
0.0
  0
VERTEX
  5
126E
  8
RIVERS
 10
1097346.3751552589
 20
696638.23265261971
 30
0.0
  0
VERTEX
  5
126F
  8
RIVERS
 10
1097389.033410185
 20
696742.26039732154
 30
0.0
  0
VERTEX
  5
1270
  8
RIVERS
 10
1097440.4255138829
 20
696769.65294642758
 30
0.0
  0
VERTEX
  5
1271
  8
RIVERS
 10
1097487.391999658
 20
696811.93295411917
 30
0.0
  0
VERTEX
  5
1272
  8
RIVERS
 10
1097494.966159032
 20
696866.2127391072
 30
0.0
  0
VERTEX
  5
1273
  8
RIVERS
 10
1097524.808154532
 20
696901.84127690771
 30
0.0
  0
VERTEX
  5
1274
  8
RIVERS
 10
1097453.7262278961
 20
697031.44377857074
 30
0.0
  0
VERTEX
  5
1275
  8
RIVERS
 10
1097479.8156145159
 20
697053.69298182731
 30
0.0
  0
VERTEX
  5
1276
  8
RIVERS
 10
1097539.33563627
 20
697059.49443042348
 30
0.0
  0
VERTEX
  5
1277
  8
RIVERS
 10
1097584.167571133
 20
697140.45835302456
 30
0.0
  0
VERTEX
  5
1278
  8
RIVERS
 10
1097667.5436743901
 20
697167.77078079502
 30
0.0
  0
VERTEX
  5
1279
  8
RIVERS
 10
1097712.330890368
 20
697230.88316875813
 30
0.0
  0
VERTEX
  5
127A
  8
RIVERS
 10
1097766.737378862
 20
697273.88835752453
 30
0.0
  0
VERTEX
  5
127B
  8
RIVERS
 10
1097800.8205268839
 20
697220.99185635871
 30
0.0
  0
VERTEX
  5
127C
  8
RIVERS
 10
1097857.9991728831
 20
697182.91387216456
 30
0.0
  0
VERTEX
  5
127D
  8
RIVERS
 10
1097918.3841222271
 20
697237.0613637846
 30
0.0
  0
VERTEX
  5
127E
  8
RIVERS
 10
1097917.1424482069
 20
697335.24853086576
 30
0.0
  0
VERTEX
  5
127F
  8
RIVERS
 10
1097882.4011974379
 20
697422.36233670753
 30
0.0
  0
VERTEX
  5
1280
  8
RIVERS
 10
1097905.5824066121
 20
697471.39629506855
 30
0.0
  0
VERTEX
  5
1281
  8
RIVERS
 10
1098009.8113862961
 20
697509.06994601176
 30
0.0
  0
VERTEX
  5
1282
  8
RIVERS
 10
1098094.833496823
 20
697599.60283238371
 30
0.0
  0
VERTEX
  5
1283
  8
RIVERS
 10
1098129.952994826
 20
697663.48325701943
 30
0.0
  0
VERTEX
  5
1284
  8
RIVERS
 10
1098208.0609120131
 20
697666.2628676712
 30
0.0
  0
VERTEX
  5
1285
  8
RIVERS
 10
1098316.667064161
 20
697669.7098975043
 30
0.0
  0
VERTEX
  5
1286
  8
RIVERS
 10
1098429.9485146699
 20
697757.94053714571
 30
0.0
  0
VERTEX
  5
1287
  8
RIVERS
 10
1098605.020557788
 20
697867.5871283306
 30
0.0
  0
VERTEX
  5
1288
  8
RIVERS
 10
1098817.8165605951
 20
697893.08771629934
 30
0.0
  0
VERTEX
  5
1289
  8
RIVERS
 10
1099108.8322778009
 20
697965.99675151426
 30
0.0
  0
VERTEX
  5
128A
  8
RIVERS
 10
1099347.7064875059
 20
698009.28365908028
 30
0.0
  0
VERTEX
  5
128B
  8
RIVERS
 10
1099603.664195176
 20
698042.85812978621
 30
0.0
  0
VERTEX
  5
128C
  8
RIVERS
 10
1100056.945012507
 20
698160.73361900111
 30
0.0
  0
VERTEX
  5
128D
  8
RIVERS
 10
1100220.0675870739
 20
698251.07086025178
 30
0.0
  0
VERTEX
  5
128E
  8
RIVERS
 10
1100186.3645495749
 20
698455.70540583855
 30
0.0
  0
VERTEX
  5
128F
  8
RIVERS
 10
1100205.83973204
 20
698509.95537823625
 30
0.0
  0
VERTEX
  5
1290
  8
RIVERS
 10
1100260.199638363
 20
698534.36521842156
 30
0.0
  0
VERTEX
  5
1291
  8
RIVERS
 10
1100329.318436478
 20
698511.87751444569
 30
0.0
  0
VERTEX
  5
1292
  8
RIVERS
 10
1100454.0835338209
 20
698433.46401821158
 30
0.0
  0
VERTEX
  5
1293
  8
RIVERS
 10
1100608.1704071439
 20
698479.93859625363
 30
0.0
  0
VERTEX
  5
1294
  8
RIVERS
 10
1100884.1086105041
 20
698472.5529913361
 30
0.0
  0
VERTEX
  5
1295
  8
RIVERS
 10
1100923.974574253
 20
698352.69832898362
 30
0.0
  0
VERTEX
  5
1296
  8
RIVERS
 10
1101056.066013816
 20
698229.63736328657
 30
0.0
  0
VERTEX
  5
1297
  8
RIVERS
 10
1101214.304601891
 20
698151.88383308682
 30
0.0
  0
VERTEX
  5
1298
  8
RIVERS
 10
1101293.2550872259
 20
698194.08371944295
 30
0.0
  0
VERTEX
  5
1299
  8
RIVERS
 10
1101405.917564013
 20
698332.15175656835
 30
0.0
  0
VERTEX
  5
129A
  8
RIVERS
 10
1101515.114378097
 20
698571.38780640822
 30
0.0
  0
VERTEX
  5
129B
  8
RIVERS
 10
1101567.911762577
 20
698862.83244207688
 30
0.0
  0
VERTEX
  5
129C
  8
RIVERS
 10
1101568.181939173
 20
698970.68546384631
 30
0.0
  0
VERTEX
  5
129D
  8
RIVERS
 10
1101585.584059193
 20
699088.16521127999
 30
0.0
  0
VERTEX
  5
129E
  8
RIVERS
 10
1101716.2676297219
 20
699293.87559835496
 30
0.0
  0
VERTEX
  5
129F
  8
RIVERS
 10
1101797.5445845169
 20
699374.00440595613
 30
0.0
  0
VERTEX
  5
12A0
  8
RIVERS
 10
1101916.4784206741
 20
699343.20990838401
 30
0.0
  0
VERTEX
  5
12A1
  8
RIVERS
 10
1101942.6072988
 20
699084.29557780991
 30
0.0
  0
VERTEX
  5
12A2
  8
RIVERS
 10
1101955.761175632
 20
698990.54148179805
 30
0.0
  0
VERTEX
  5
12A3
  8
RIVERS
 10
1102009.8732648019
 20
698916.02406753285
 30
0.0
  0
VERTEX
  5
12A4
  8
RIVERS
 10
1102180.264419697
 20
698938.6556070802
 30
0.0
  0
VERTEX
  5
12A5
  8
RIVERS
 10
1102345.9616433601
 20
698869.06539738725
 30
0.0
  0
VERTEX
  5
12A6
  8
RIVERS
 10
1102513.901488574
 20
698803.9324814931
 30
0.0
  0
VERTEX
  5
12A7
  8
RIVERS
 10
1102658.1604012509
 20
698787.20709708927
 30
0.0
  0
VERTEX
  5
12A8
  8
RIVERS
 10
1102760.8346747209
 20
698798.10717264982
 30
0.0
  0
VERTEX
  5
12A9
  8
RIVERS
 10
1102900.5897114279
 20
698765.02906121605
 30
0.0
  0
VERTEX
  5
12AA
  8
RIVERS
 10
1102995.0783049481
 20
698774.46200504561
 30
0.0
  0
VERTEX
  5
12AB
  8
RIVERS
 10
1103045.5365394419
 20
698725.987395228
 30
0.0
  0
VERTEX
  5
12AC
  8
RIVERS
 10
1103106.492017051
 20
698710.95832683996
 30
0.0
  0
VERTEX
  5
12AD
  8
RIVERS
 10
1103165.1582909359
 20
698672.87661607214
 30
0.0
  0
VERTEX
  5
12AE
  8
RIVERS
 10
1103162.6678522311
 20
698569.4920678226
 30
0.0
  0
VERTEX
  5
12AF
  8
RIVERS
 10
1103271.2069260511
 20
698546.16179569927
 30
0.0
  0
VERTEX
  5
12B0
  8
RIVERS
 10
1103368.715494229
 20
698573.43882101926
 30
0.0
  0
VERTEX
  5
12B1
  8
RIVERS
 10
1103412.059801206
 20
698654.40647019399
 30
0.0
  0
VERTEX
  5
12B2
  8
RIVERS
 10
1103430.125613834
 20
698739.90035478142
 30
0.0
  0
VERTEX
  5
12B3
  8
RIVERS
 10
1103471.0726464491
 20
698754.67415286833
 30
0.0
  0
VERTEX
  5
12B4
  8
RIVERS
 10
1103609.9646188531
 20
698673.99381235405
 30
0.0
  0
VERTEX
  5
12B5
  8
RIVERS
 10
1103639.484265724
 20
698580.94253797457
 30
0.0
  0
VERTEX
  5
12B6
  8
RIVERS
 10
1103642.879123525
 20
698451.50959541672
 30
0.0
  0
VERTEX
  5
12B7
  8
RIVERS
 10
1103671.708991772
 20
698380.03078867774
 30
0.0
  0
VERTEX
  5
12B8
  8
RIVERS
 10
1103708.8847826391
 20
698373.98711278848
 30
0.0
  0
VERTEX
  5
12B9
  8
RIVERS
 10
1103792.2627491821
 20
698402.0433545023
 30
0.0
  0
VERTEX
  5
12BA
  8
RIVERS
 10
1103879.9619895839
 20
698373.55855680851
 30
0.0
  0
VERTEX
  5
12BB
  8
RIVERS
 10
1103957.3260928281
 20
698376.34003074712
 30
0.0
  0
VERTEX
  5
12BC
  8
RIVERS
 10
1104053.378708997
 20
698416.26561967575
 30
0.0
  0
VERTEX
  5
12BD
  8
RIVERS
 10
1104167.9968611561
 20
698444.24360334105
 30
0.0
  0
VERTEX
  5
12BE
  8
RIVERS
 10
1104210.2004740869
 20
698366.78074589279
 30
0.0
  0
VERTEX
  5
12BF
  8
RIVERS
 10
1104264.3069733949
 20
698290.03188979789
 30
0.0
  0
VERTEX
  5
12C0
  8
RIVERS
 10
1104352.142233738
 20
698315.84550996067
 30
0.0
  0
VERTEX
  5
12C1
  8
RIVERS
 10
1104442.177260034
 20
698329.00870322762
 30
0.0
  0
VERTEX
  5
12C2
  8
RIVERS
 10
1104506.0781808251
 20
698302.07115860051
 30
0.0
  0
VERTEX
  5
12C3
  8
RIVERS
 10
1104505.0902763021
 20
698204.63339532295
 30
0.0
  0
VERTEX
  5
12C4
  8
RIVERS
 10
1104518.331727617
 20
698145.83855464344
 30
0.0
  0
VERTEX
  5
12C5
  8
RIVERS
 10
1104607.613623535
 20
698155.28454148117
 30
0.0
  0
VERTEX
  5
12C6
  8
RIVERS
 10
1104675.996060855
 20
698135.77395656495
 30
0.0
  0
VERTEX
  5
12C7
  8
RIVERS
 10
1104686.989300759
 20
698070.29038025695
 30
0.0
  0
VERTEX
  5
12C8
  8
RIVERS
 10
1104644.4242101761
 20
698003.45333271718
 30
0.0
  0
VERTEX
  5
12C9
  8
RIVERS
 10
1104641.2905750191
 20
697940.23660068936
 30
0.0
  0
VERTEX
  5
12CA
  8
RIVERS
 10
1104791.20373663
 20
697805.22989301558
 30
0.0
  0
VERTEX
  5
12CB
  8
RIVERS
 10
1104842.3536130351
 20
697735.92662950046
 30
0.0
  0
VERTEX
  5
12CC
  8
RIVERS
 10
1104841.4141539701
 20
697657.82802874746
 30
0.0
  0
VERTEX
  5
12CD
  8
RIVERS
 10
1104853.227602578
 20
697622.83896082523
 30
0.0
  0
VERTEX
  5
12CE
  8
RIVERS
 10
1104987.86434288
 20
697613.93739340815
 30
0.0
  0
SEQEND
  5
12CF
  8
RIVERS
  0
POLYLINE
  5
8A
  8
RIVERS
 66
     1
 10
0.0
 20
0.0
 30
0.0
 40
10.0
 41
10.0
  0
VERTEX
  5
12D0
  8
RIVERS
 10
1102855.2957629131
 20
701392.30762187066
 30
0.0
  0
VERTEX
  5
12D1
  8
RIVERS
 10
1102889.6157629129
 20
701420.38762187073
 30
0.0
  0
VERTEX
  5
12D2
  8
RIVERS
 10
1102908.3357629131
 20
701479.66762187076
 30
0.0
  0
VERTEX
  5
12D3
  8
RIVERS
 10
1102911.4557629139
 20
701542.06762187043
 30
0.0
  0
VERTEX
  5
12D4
  8
RIVERS
 10
1102905.215762913
 20
701560.78762187052
 30
0.0
  0
VERTEX
  5
12D5
  8
RIVERS
 10
1102898.975762913
 20
701616.94762187055
 30
0.0
  0
VERTEX
  5
12D6
  8
RIVERS
 10
1102880.255762913
 20
701660.62762187095
 30
0.0
  0
VERTEX
  5
12D7
  8
RIVERS
 10
1102839.695762913
 20
701682.46762187069
 30
0.0
  0
VERTEX
  5
12D8
  8
RIVERS
 10
1102796.015762914
 20
701691.82762187067
 30
0.0
  0
VERTEX
  5
12D9
  8
RIVERS
 10
1102771.0557629131
 20
701710.54762187065
 30
0.0
  0
VERTEX
  5
12DA
  8
RIVERS
 10
1102727.3757629129
 20
701769.82762187056
 30
0.0
  0
VERTEX
  5
12DB
  8
RIVERS
 10
1102705.5357629131
 20
701841.58762187045
 30
0.0
  0
VERTEX
  5
12DC
  8
RIVERS
 10
1102702.4157629129
 20
701897.74762187048
 30
0.0
  0
VERTEX
  5
12DD
  8
RIVERS
 10
1102739.8557629141
 20
701910.22762187035
 30
0.0
  0
VERTEX
  5
12DE
  8
RIVERS
 10
1102755.455762913
 20
701903.98762187071
 30
0.0
  0
VERTEX
  5
12DF
  8
RIVERS
 10
1102777.295762914
 20
701907.1076218707
 30
0.0
  0
VERTEX
  5
12E0
  8
RIVERS
 10
1102830.3357629131
 20
701922.7076218708
 30
0.0
  0
VERTEX
  5
12E1
  8
RIVERS
 10
1102867.7757629131
 20
701925.82762187067
 30
0.0
  0
VERTEX
  5
12E2
  8
RIVERS
 10
1102886.495762913
 20
701932.0676218709
 30
0.0
  0
VERTEX
  5
12E3
  8
RIVERS
 10
1102939.535762914
 20
701975.7476218706
 30
0.0
  0
VERTEX
  5
12E4
  8
RIVERS
 10
1102945.7757629131
 20
701985.10762187059
 30
0.0
  0
VERTEX
  5
12E5
  8
RIVERS
 10
1102998.815762914
 20
702053.7476218706
 30
0.0
  0
VERTEX
  5
12E6
  8
RIVERS
 10
1103014.4157629129
 20
702097.42762187077
 30
0.0
  0
VERTEX
  5
12E7
  8
RIVERS
 10
1103014.4157629129
 20
702125.50762187084
 30
0.0
  0
VERTEX
  5
12E8
  8
RIVERS
 10
1102983.215762913
 20
702172.30762187042
 30
0.0
  0
VERTEX
  5
12E9
  8
RIVERS
 10
1102955.1357629129
 20
702194.14762187074
 30
0.0
  0
VERTEX
  5
12EA
  8
RIVERS
 10
1102942.655762912
 20
702215.98762187071
 30
0.0
  0
VERTEX
  5
12EB
  8
RIVERS
 10
1102930.175762913
 20
702290.86762187083
 30
0.0
  0
VERTEX
  5
12EC
  8
RIVERS
 10
1102920.815762914
 20
702325.18762187066
 30
0.0
  0
VERTEX
  5
12ED
  8
RIVERS
 10
1102908.3357629131
 20
702347.02762187074
 30
0.0
  0
VERTEX
  5
12EE
  8
RIVERS
 10
1102905.215762913
 20
702359.50762187096
 30
0.0
  0
VERTEX
  5
12EF
  8
RIVERS
 10
1102895.8557629129
 20
702375.10762187047
 30
0.0
  0
VERTEX
  5
12F0
  8
RIVERS
 10
1102892.7357629139
 20
702387.58762187092
 30
0.0
  0
VERTEX
  5
12F1
  8
RIVERS
 10
1102870.895762912
 20
702431.26762187062
 30
0.0
  0
VERTEX
  5
12F2
  8
RIVERS
 10
1102852.175762913
 20
702459.34762187058
 30
0.0
  0
VERTEX
  5
12F3
  8
RIVERS
 10
1102796.015762914
 20
702509.26762187039
 30
0.0
  0
VERTEX
  5
12F4
  8
RIVERS
 10
1102761.695762913
 20
702546.70762187068
 30
0.0
  0
VERTEX
  5
12F5
  8
RIVERS
 10
1102736.735762913
 20
702577.90762187075
 30
0.0
  0
VERTEX
  5
12F6
  8
RIVERS
 10
1102711.7757629131
 20
702627.82762187102
 30
0.0
  0
VERTEX
  5
12F7
  8
RIVERS
 10
1102677.455762913
 20
702687.10762187082
 30
0.0
  0
VERTEX
  5
12F8
  8
RIVERS
 10
1102674.335762914
 20
702708.94762187067
 30
0.0
  0
VERTEX
  5
12F9
  8
RIVERS
 10
1102696.175762913
 20
702790.06762187055
 30
0.0
  0
VERTEX
  5
12FA
  8
RIVERS
 10
1102733.6157629129
 20
702877.42762187053
 30
0.0
  0
VERTEX
  5
12FB
  8
RIVERS
 10
1102739.8557629141
 20
702899.26762187097
 30
0.0
  0
VERTEX
  5
12FC
  8
RIVERS
 10
1102746.095762914
 20
702914.8676218706
 30
0.0
  0
VERTEX
  5
12FD
  8
RIVERS
 10
1102761.695762913
 20
702961.66762187076
 30
0.0
  0
VERTEX
  5
12FE
  8
RIVERS
 10
1102767.935762913
 20
703017.82762187091
 30
0.0
  0
VERTEX
  5
12FF
  8
RIVERS
 10
1102761.695762913
 20
703073.98762187094
 30
0.0
  0
VERTEX
  5
1300
  8
RIVERS
 10
1102749.215762913
 20
703108.30762187066
 30
0.0
  0
VERTEX
  5
1301
  8
RIVERS
 10
1102746.095762914
 20
703148.8676218706
 30
0.0
  0
VERTEX
  5
1302
  8
RIVERS
 10
1102746.095762914
 20
703161.34762187093
 30
0.0
  0
VERTEX
  5
1303
  8
RIVERS
 10
1102739.8557629141
 20
703176.94762187067
 30
0.0
  0
VERTEX
  5
1304
  8
RIVERS
 10
1102749.215762913
 20
703208.14762187039
 30
0.0
  0
VERTEX
  5
1305
  8
RIVERS
 10
1102752.335762914
 20
703267.42762187112
 30
0.0
  0
VERTEX
  5
1306
  8
RIVERS
 10
1102774.175762913
 20
703345.42762187088
 30
0.0
  0
VERTEX
  5
1307
  8
RIVERS
 10
1102799.1357629129
 20
703404.7076218708
 30
0.0
  0
VERTEX
  5
1308
  8
RIVERS
 10
1102849.055762914
 20
703495.18762187066
 30
0.0
  0
VERTEX
  5
1309
  8
RIVERS
 10
1102864.655762912
 20
703513.90762187063
 30
0.0
  0
VERTEX
  5
130A
  8
RIVERS
 10
1102870.895762912
 20
703523.26762187062
 30
0.0
  0
VERTEX
  5
130B
  8
RIVERS
 10
1102874.015762913
 20
703538.86762187083
 30
0.0
  0
VERTEX
  5
130C
  8
RIVERS
 10
1102902.095762914
 20
703601.26762187085
 30
0.0
  0
VERTEX
  5
130D
  8
RIVERS
 10
1102920.815762914
 20
703648.06762187066
 30
0.0
  0
VERTEX
  5
130E
  8
RIVERS
 10
1102952.015762914
 20
703688.6276218706
 30
0.0
  0
VERTEX
  5
130F
  8
RIVERS
 10
1102976.975762913
 20
703697.98762187059
 30
0.0
  0
VERTEX
  5
1310
  8
RIVERS
 10
1103036.255762914
 20
703744.78762187075
 30
0.0
  0
VERTEX
  5
1311
  8
RIVERS
 10
1103051.8557629129
 20
703757.26762187073
 30
0.0
  0
VERTEX
  5
1312
  8
RIVERS
 10
1103098.655762912
 20
703782.22762187081
 30
0.0
  0
VERTEX
  5
1313
  8
RIVERS
 10
1103157.935762913
 20
703779.10762187059
 30
0.0
  0
VERTEX
  5
1314
  8
RIVERS
 10
1103220.335762914
 20
703754.14762187097
 30
0.0
  0
VERTEX
  5
1315
  8
RIVERS
 10
1103292.0957629131
 20
703754.14762187097
 30
0.0
  0
VERTEX
  5
1316
  8
RIVERS
 10
1103332.6557629129
 20
703732.30762187089
 30
0.0
  0
VERTEX
  5
1317
  8
RIVERS
 10
1103395.055762914
 20
703722.94762187079
 30
0.0
  0
VERTEX
  5
1318
  8
RIVERS
 10
1103498.015762914
 20
703769.74762187048
 30
0.0
  0
VERTEX
  5
1319
  8
RIVERS
 10
1103522.975762913
 20
703775.98762187059
 30
0.0
  0
VERTEX
  5
131A
  8
RIVERS
 10
1103554.175762913
 20
703794.70762187056
 30
0.0
  0
VERTEX
  5
131B
  8
RIVERS
 10
1103579.1357629141
 20
703800.94762187079
 30
0.0
  0
VERTEX
  5
131C
  8
RIVERS
 10
1103657.1357629129
 20
703832.14762187086
 30
0.0
  0
VERTEX
  5
131D
  8
RIVERS
 10
1103691.4557629139
 20
703838.38762187085
 30
0.0
  0
VERTEX
  5
131E
  8
RIVERS
 10
1103760.0957629131
 20
703844.6276218706
 30
0.0
  0
VERTEX
  5
131F
  8
RIVERS
 10
1103897.3757629141
 20
703863.34762187058
 30
0.0
  0
VERTEX
  5
1320
  8
RIVERS
 10
1103956.6557629129
 20
703860.2276218707
 30
0.0
  0
VERTEX
  5
1321
  8
RIVERS
 10
1103972.255762913
 20
703866.46762187046
 30
0.0
  0
VERTEX
  5
1322
  8
RIVERS
 10
1104165.6957629139
 20
703866.46762187046
 30
0.0
  0
VERTEX
  5
1323
  8
RIVERS
 10
1104196.895762912
 20
703853.98762187059
 30
0.0
  0
VERTEX
  5
1324
  8
RIVERS
 10
1104224.9757629139
 20
703860.2276218707
 30
0.0
  0
VERTEX
  5
1325
  8
RIVERS
 10
1104259.2957629131
 20
703860.2276218707
 30
0.0
  0
VERTEX
  5
1326
  8
RIVERS
 10
1104293.6157629129
 20
703869.58762187068
 30
0.0
  0
VERTEX
  5
1327
  8
RIVERS
 10
1104318.5757629131
 20
703875.82762187067
 30
0.0
  0
VERTEX
  5
1328
  8
RIVERS
 10
1104362.255762913
 20
703894.54762187065
 30
0.0
  0
VERTEX
  5
1329
  8
RIVERS
 10
1104393.4557629139
 20
703919.50762187084
 30
0.0
  0
VERTEX
  5
132A
  8
RIVERS
 10
1104437.1357629129
 20
703963.18762187054
 30
0.0
  0
VERTEX
  5
132B
  8
RIVERS
 10
1104458.975762913
 20
704006.86762187094
 30
0.0
  0
VERTEX
  5
132C
  8
RIVERS
 10
1104508.8957629129
 20
704041.18762187043
 30
0.0
  0
VERTEX
  5
132D
  8
RIVERS
 10
1104552.5757629131
 20
704087.98762187047
 30
0.0
  0
VERTEX
  5
132E
  8
RIVERS
 10
1104583.7757629131
 20
704125.42762187065
 30
0.0
  0
VERTEX
  5
132F
  8
RIVERS
 10
1104590.015762913
 20
704134.78762187052
 30
0.0
  0
VERTEX
  5
1330
  8
RIVERS
 10
1104664.8957629129
 20
704203.42762187065
 30
0.0
  0
VERTEX
  5
1331
  8
RIVERS
 10
1104758.495762913
 20
704300.14762187051
 30
0.0
  0
VERTEX
  5
1332
  8
RIVERS
 10
1104833.3757629129
 20
704328.22762187058
 30
0.0
  0
VERTEX
  5
1333
  8
RIVERS
 10
1104870.8157629131
 20
704340.70762187045
 30
0.0
  0
VERTEX
  5
1334
  8
RIVERS
 10
1104902.015762914
 20
704343.82762187079
 30
0.0
  0
VERTEX
  5
1335
  8
RIVERS
 10
1104964.4157629129
 20
704343.82762187079
 30
0.0
  0
VERTEX
  5
1336
  8
RIVERS
 10
1104987.86434288
 20
704282.71038548811
 30
0.0
  0
VERTEX
  5
1337
  8
RIVERS
 10
1104967.5357629131
 20
704281.42762187053
 30
0.0
  0
VERTEX
  5
1338
  8
RIVERS
 10
1104955.0557629131
 20
704284.54762187065
 30
0.0
  0
VERTEX
  5
1339
  8
RIVERS
 10
1104945.6957629139
 20
704278.30762187066
 30
0.0
  0
VERTEX
  5
133A
  8
RIVERS
 10
1104855.215762913
 20
704278.30762187066
 30
0.0
  0
VERTEX
  5
133B
  8
RIVERS
 10
1104830.255762914
 20
704259.58762187057
 30
0.0
  0
VERTEX
  5
133C
  8
RIVERS
 10
1104733.5357629131
 20
704147.26762187062
 30
0.0
  0
VERTEX
  5
133D
  8
RIVERS
 10
1104692.9757629139
 20
704119.18762187101
 30
0.0
  0
VERTEX
  5
133E
  8
RIVERS
 10
1104655.535762914
 20
704112.94762187055
 30
0.0
  0
VERTEX
  5
133F
  8
RIVERS
 10
1104643.0557629131
 20
704100.4676218708
 30
0.0
  0
VERTEX
  5
1340
  8
RIVERS
 10
1104543.2157629139
 20
704028.70762187068
 30
0.0
  0
VERTEX
  5
1341
  8
RIVERS
 10
1104518.255762914
 20
703969.42762187065
 30
0.0
  0
VERTEX
  5
1342
  8
RIVERS
 10
1104502.6557629141
 20
703900.78762187075
 30
0.0
  0
VERTEX
  5
1343
  8
RIVERS
 10
1104483.935762913
 20
703878.9476218709
 30
0.0
  0
VERTEX
  5
1344
  8
RIVERS
 10
1104468.3357629131
 20
703853.98762187059
 30
0.0
  0
VERTEX
  5
1345
  8
RIVERS
 10
1104437.1357629129
 20
703825.90762187052
 30
0.0
  0
VERTEX
  5
1346
  8
RIVERS
 10
1104374.7357629139
 20
703816.54762187041
 30
0.0
  0
VERTEX
  5
1347
  8
RIVERS
 10
1104262.4157629129
 20
703779.10762187059
 30
0.0
  0
VERTEX
  5
1348
  8
RIVERS
 10
1104243.6957629139
 20
703779.10762187059
 30
0.0
  0
VERTEX
  5
1349
  8
RIVERS
 10
1104028.415762912
 20
703813.42762187065
 30
0.0
  0
VERTEX
  5
134A
  8
RIVERS
 10
1103994.0957629131
 20
703810.30762187077
 30
0.0
  0
VERTEX
  5
134B
  8
RIVERS
 10
1103950.4157629141
 20
703813.42762187065
 30
0.0
  0
VERTEX
  5
134C
  8
RIVERS
 10
1103894.255762913
 20
703800.94762187079
 30
0.0
  0
VERTEX
  5
134D
  8
RIVERS
 10
1103875.5357629131
 20
703785.34762187058
 30
0.0
  0
VERTEX
  5
134E
  8
RIVERS
 10
1103819.3757629129
 20
703757.26762187073
 30
0.0
  0
VERTEX
  5
134F
  8
RIVERS
 10
1103756.975762913
 20
703701.10762187047
 30
0.0
  0
VERTEX
  5
1350
  8
RIVERS
 10
1103697.6957629139
 20
703673.02762187039
 30
0.0
  0
VERTEX
  5
1351
  8
RIVERS
 10
1103644.6557629129
 20
703651.18762187066
 30
0.0
  0
VERTEX
  5
1352
  8
RIVERS
 10
1103619.6957629139
 20
703638.7076218708
 30
0.0
  0
VERTEX
  5
1353
  8
RIVERS
 10
1103529.215762913
 20
703607.50762187084
 30
0.0
  0
VERTEX
  5
1354
  8
RIVERS
 10
1103473.0557629131
 20
703616.86762187094
 30
0.0
  0
VERTEX
  5
1355
  8
RIVERS
 10
1103435.6157629129
 20
703610.6276218706
 30
0.0
  0
VERTEX
  5
1356
  8
RIVERS
 10
1103413.7757629131
 20
703616.86762187094
 30
0.0
  0
VERTEX
  5
1357
  8
RIVERS
 10
1103351.3757629129
 20
703616.86762187094
 30
0.0
  0
VERTEX
  5
1358
  8
RIVERS
 10
1103313.9357629139
 20
703638.7076218708
 30
0.0
  0
VERTEX
  5
1359
  8
RIVERS
 10
1103273.3757629129
 20
703673.02762187039
 30
0.0
  0
VERTEX
  5
135A
  8
RIVERS
 10
1103229.695762913
 20
703685.50762187061
 30
0.0
  0
VERTEX
  5
135B
  8
RIVERS
 10
1103176.6557629129
 20
703691.7476218706
 30
0.0
  0
VERTEX
  5
135C
  8
RIVERS
 10
1103070.5757629131
 20
703691.7476218706
 30
0.0
  0
VERTEX
  5
135D
  8
RIVERS
 10
1103045.6157629129
 20
703679.26762187062
 30
0.0
  0
VERTEX
  5
135E
  8
RIVERS
 10
1103023.7757629131
 20
703663.66762187099
 30
0.0
  0
VERTEX
  5
135F
  8
RIVERS
 10
1103005.0557629131
 20
703632.46762187057
 30
0.0
  0
VERTEX
  5
1360
  8
RIVERS
 10
1102986.3357629131
 20
703613.74762187048
 30
0.0
  0
VERTEX
  5
1361
  8
RIVERS
 10
1102927.055762914
 20
703526.38762187061
 30
0.0
  0
VERTEX
  5
1362
  8
RIVERS
 10
1102917.695762913
 20
703513.90762187063
 30
0.0
  0
VERTEX
  5
1363
  8
RIVERS
 10
1102914.5757629131
 20
703498.30762187042
 30
0.0
  0
VERTEX
  5
1364
  8
RIVERS
 10
1102908.3357629131
 20
703485.82762187056
 30
0.0
  0
VERTEX
  5
1365
  8
RIVERS
 10
1102880.255762913
 20
703404.7076218708
 30
0.0
  0
VERTEX
  5
1366
  8
RIVERS
 10
1102877.1357629129
 20
703376.62762187095
 30
0.0
  0
VERTEX
  5
1367
  8
RIVERS
 10
1102864.655762912
 20
703323.58762187045
 30
0.0
  0
VERTEX
  5
1368
  8
RIVERS
 10
1102839.695762913
 20
703245.58762187045
 30
0.0
  0
VERTEX
  5
1369
  8
RIVERS
 10
1102833.4557629139
 20
703220.62762187072
 30
0.0
  0
VERTEX
  5
136A
  8
RIVERS
 10
1102808.495762913
 20
703173.82762187067
 30
0.0
  0
VERTEX
  5
136B
  8
RIVERS
 10
1102811.6157629129
 20
703148.8676218706
 30
0.0
  0
VERTEX
  5
136C
  8
RIVERS
 10
1102817.8557629141
 20
703120.7876218704
 30
0.0
  0
VERTEX
  5
136D
  8
RIVERS
 10
1102814.7357629139
 20
703080.2276218707
 30
0.0
  0
VERTEX
  5
136E
  8
RIVERS
 10
1102820.975762913
 20
703052.14762187051
 30
0.0
  0
VERTEX
  5
136F
  8
RIVERS
 10
1102820.975762913
 20
703039.66762187076
 30
0.0
  0
VERTEX
  5
1370
  8
RIVERS
 10
1102802.255762914
 20
703002.22762187058
 30
0.0
  0
VERTEX
  5
1371
  8
RIVERS
 10
1102783.5357629131
 20
702955.4276218703
 30
0.0
  0
VERTEX
  5
1372
  8
RIVERS
 10
1102777.295762914
 20
702908.62762187095
 30
0.0
  0
VERTEX
  5
1373
  8
RIVERS
 10
1102761.695762913
 20
702849.34762187046
 30
0.0
  0
VERTEX
  5
1374
  8
RIVERS
 10
1102742.975762913
 20
702815.02762187074
 30
0.0
  0
VERTEX
  5
1375
  8
RIVERS
 10
1102736.735762913
 20
702796.30762187066
 30
0.0
  0
VERTEX
  5
1376
  8
RIVERS
 10
1102746.095762914
 20
702755.74762187072
 30
0.0
  0
VERTEX
  5
1377
  8
RIVERS
 10
1102755.455762913
 20
702665.26762187073
 30
0.0
  0
VERTEX
  5
1378
  8
RIVERS
 10
1102771.0557629131
 20
702637.18762187031
 30
0.0
  0
VERTEX
  5
1379
  8
RIVERS
 10
1102836.5757629131
 20
702559.18762187054
 30
0.0
  0
VERTEX
  5
137A
  8
RIVERS
 10
1102877.1357629129
 20
702490.54762187041
 30
0.0
  0
VERTEX
  5
137B
  8
RIVERS
 10
1102930.175762913
 20
702409.42762187077
 30
0.0
  0
VERTEX
  5
137C
  8
RIVERS
 10
1103017.5357629131
 20
702240.94762187079
 30
0.0
  0
VERTEX
  5
137D
  8
RIVERS
 10
1103036.255762914
 20
702169.18762187066
 30
0.0
  0
VERTEX
  5
137E
  8
RIVERS
 10
1103036.255762914
 20
702094.30762187042
 30
0.0
  0
VERTEX
  5
137F
  8
RIVERS
 10
1103026.8957629141
 20
702050.62762187072
 30
0.0
  0
VERTEX
  5
1380
  8
RIVERS
 10
1102983.215762913
 20
701963.26762187073
 30
0.0
  0
VERTEX
  5
1381
  8
RIVERS
 10
1102958.255762913
 20
701935.18762187054
 30
0.0
  0
VERTEX
  5
1382
  8
RIVERS
 10
1102849.055762914
 20
701872.7876218711
 30
0.0
  0
SEQEND
  5
1383
  8
RIVERS
  0
POLYLINE
  5
8B
  8
RIVERS
 66
     1
 10
0.0
 20
0.0
 30
0.0
 40
10.0
 41
10.0
  0
VERTEX
  5
1384
  8
RIVERS
 10
1086019.9312101749
 20
692000.48978873005
 30
0.0
  0
VERTEX
  5
1385
  8
RIVERS
 10
1086101.688184479
 20
692032.95693677268
 30
0.0
  0
VERTEX
  5
1386
  8
RIVERS
 10
1086148.8282387301
 20
692052.80449813255
 30
0.0
  0
VERTEX
  5
1387
  8
RIVERS
 10
1086272.8460202389
 20
692093.75475321955
 30
0.0
  0
VERTEX
  5
1388
  8
RIVERS
 10
1086276.088486938
 20
692104.6722010657
 30
0.0
  0
VERTEX
  5
1389
  8
RIVERS
 10
1086318.438061337
 20
692115.18287004228
 30
0.0
  0
VERTEX
  5
138A
  8
RIVERS
 10
1086365.155065564
 20
692094.35903939477
 30
0.0
  0
VERTEX
  5
138B
  8
RIVERS
 10
1086381.906600618
 20
692050.38009606884
 30
0.0
  0
VERTEX
  5
138C
  8
RIVERS
 10
1086384.88872884
 20
692036.26899498748
 30
0.0
  0
VERTEX
  5
138D
  8
RIVERS
 10
1086419.0426451401
 20
692010.8824806544
 30
0.0
  0
VERTEX
  5
138E
  8
RIVERS
 10
1086433.1374750659
 20
692012.30032456957
 30
0.0
  0
VERTEX
  5
138F
  8
RIVERS
 10
1086450.312060144
 20
692008.99277325056
 30
0.0
  0
VERTEX
  5
1390
  8
RIVERS
 10
1086477.083876082
 20
692025.92329100706
 30
0.0
  0
VERTEX
  5
1391
  8
RIVERS
 10
1086505.7779417341
 20
692077.2517923842
 30
0.0
  0
VERTEX
  5
1392
  8
RIVERS
 10
1086523.961338409
 20
692170.92986815982
 30
0.0
  0
VERTEX
  5
1393
  8
RIVERS
 10
1086516.676864977
 20
692222.6326060968
 30
0.0
  0
VERTEX
  5
1394
  8
RIVERS
 10
1086510.84277777
 20
692263.36908272316
 30
0.0
  0
VERTEX
  5
1395
  8
RIVERS
 10
1086517.6043207999
 20
692311.79681165097
 30
0.0
  0
VERTEX
  5
1396
  8
RIVERS
 10
1086582.716246715
 20
692404.98675278306
 30
0.0
  0
VERTEX
  5
1397
  8
RIVERS
 10
1086579.7992031111
 20
692425.35499109607
 30
0.0
  0
VERTEX
  5
1398
  8
RIVERS
 10
1086658.599430785
 20
692466.50278752961
 30
0.0
  0
VERTEX
  5
1399
  8
RIVERS
 10
1086760.199502229
 20
692498.13566540577
 30
0.0
  0
VERTEX
  5
139A
  8
RIVERS
 10
1086788.6951161199
 20
692504.53371152363
 30
0.0
  0
VERTEX
  5
139B
  8
RIVERS
 10
1086859.462146539
 20
692539.78004864161
 30
0.0
  0
VERTEX
  5
139C
  8
RIVERS
 10
1086873.801043787
 20
692564.66215717583
 30
0.0
  0
VERTEX
  5
139D
  8
RIVERS
 10
1086871.062982887
 20
692602.23752287717
 30
0.0
  0
VERTEX
  5
139E
  8
RIVERS
 10
1086871.567388685
 20
692650.73033642385
 30
0.0
  0
VERTEX
  5
139F
  8
RIVERS
 10
1086879.9257583329
 20
692702.27036281314
 30
0.0
  0
VERTEX
  5
13A0
  8
RIVERS
 10
1086926.0710186949
 20
692776.88414610724
 30
0.0
  0
VERTEX
  5
13A1
  8
RIVERS
 10
1086945.1353111761
 20
692804.84600979288
 30
0.0
  0
VERTEX
  5
13A2
  8
RIVERS
 10
1086974.9380688011
 20
692812.35827939201
 30
0.0
  0
VERTEX
  5
13A3
  8
RIVERS
 10
1087032.5237074101
 20
692783.5991291214
 30
0.0
  0
VERTEX
  5
13A4
  8
RIVERS
 10
1087149.3406247101
 20
692733.88597896474
 30
0.0
  0
VERTEX
  5
13A5
  8
RIVERS
 10
1087256.5277688401
 20
692660.80619111762
 30
0.0
  0
VERTEX
  5
13A6
  8
RIVERS
 10
1087272.170611918
 20
692660.64347956947
 30
0.0
  0
VERTEX
  5
13A7
  8
RIVERS
 10
1087313.346409725
 20
692708.71324309206
 30
0.0
  0
VERTEX
  5
13A8
  8
RIVERS
 10
1087337.868299406
 20
692810.14765578834
 30
0.0
  0
VERTEX
  5
13A9
  8
RIVERS
 10
1087339.936989513
 20
692858.62419818097
 30
0.0
  0
VERTEX
  5
13AA
  8
RIVERS
 10
1087344.9715366871
 20
692891.42535518412
 30
0.0
  0
VERTEX
  5
13AB
  8
RIVERS
 10
1087345.134248235
 20
692907.06819826341
 30
0.0
  0
VERTEX
  5
13AC
  8
RIVERS
 10
1087346.942599864
 20
692930.51619172865
 30
0.0
  0
VERTEX
  5
13AD
  8
RIVERS
 10
1087344.0418274151
 20
692952.44871434965
 30
0.0
  0
VERTEX
  5
13AE
  8
RIVERS
 10
1087358.478351593
 20
692986.71652873186
 30
0.0
  0
VERTEX
  5
13AF
  8
RIVERS
 10
1087407.3454017011
 20
693022.19066201663
 30
0.0
  0
VERTEX
  5
13B0
  8
RIVERS
 10
1087473.826358065
 20
693096.59292029869
 30
0.0
  0
VERTEX
  5
13B1
  8
RIVERS
 10
1087528.541513087
 20
693243.08242598479
 30
0.0
  0
VERTEX
  5
13B2
  8
RIVERS
 10
1087530.252237787
 20
693257.14471360168
 30
0.0
  0
VERTEX
  5
13B3
  8
RIVERS
 10
1087593.8486928579
 20
693355.0437788124
 30
0.0
  0
VERTEX
  5
13B4
  8
RIVERS
 10
1087614.2657446361
 20
693362.65367534
 30
0.0
  0
VERTEX
  5
13B5
  8
RIVERS
 10
1087675.061307634
 20
693341.68340429966
 30
0.0
  0
VERTEX
  5
13B6
  8
RIVERS
 10
1087709.4267489449
 20
693336.63258597045
 30
0.0
  0
VERTEX
  5
13B7
  8
RIVERS
 10
1087726.698960952
 20
693342.71074049955
 30
0.0
  0
VERTEX
  5
13B8
  8
RIVERS
 10
1087734.7969921229
 20
693369.22221796075
 30
0.0
  0
VERTEX
  5
13B9
  8
RIVERS
 10
1087727.577603311
 20
693427.18209313054
 30
0.0
  0
VERTEX
  5
13BA
  8
RIVERS
 10
1087731.0315950231
 20
693458.43523697997
 30
0.0
  0
VERTEX
  5
13BB
  8
RIVERS
 10
1087763.7003293389
 20
693591.07398006157
 30
0.0
  0
VERTEX
  5
13BC
  8
RIVERS
 10
1087793.6007138931
 20
693607.97195550846
 30
0.0
  0
VERTEX
  5
13BD
  8
RIVERS
 10
1087849.768508587
 20
693593.307635164
 30
0.0
  0
VERTEX
  5
13BE
  8
RIVERS
 10
1087920.5029966959
 20
693625.4254036661
 30
0.0
  0
VERTEX
  5
13BF
  8
RIVERS
 10
1087949.4248585149
 20
693698.65388535452
 30
0.0
  0
VERTEX
  5
13C0
  8
RIVERS
 10
1087969.858181447
 20
693707.82806618966
 30
0.0
  0
VERTEX
  5
13C1
  8
RIVERS
 10
1088041.489836518
 20
693675.79390691023
 30
0.0
  0
VERTEX
  5
13C2
  8
RIVERS
 10
1088081.494111178
 20
693611.23520025902
 30
0.0
  0
VERTEX
  5
13C3
  8
RIVERS
 10
1088095.4750430221
 20
693601.70305401785
 30
0.0
  0
VERTEX
  5
13C4
  8
RIVERS
 10
1088108.00558864
 20
693603.13716908765
 30
0.0
  0
VERTEX
  5
13C5
  8
RIVERS
 10
1088186.87065023
 20
693664.89498366718
 30
0.0
  0
VERTEX
  5
13C6
  8
RIVERS
 10
1088212.208351098
 20
693694.35604704206
 30
0.0
  0
VERTEX
  5
13C7
  8
RIVERS
 10
1088225.080590969
 20
693728.6401325789
 30
0.0
  0
VERTEX
  5
13C8
  8
RIVERS
 10
1088200.163686676
 20
693890.03802593122
 30
0.0
  0
VERTEX
  5
13C9
  8
RIVERS
 10
1088217.5497967671
 20
693907.06617061677
 30
0.0
  0
VERTEX
  5
13CA
  8
RIVERS
 10
1088241.030332542
 20
693908.38638760278
 30
0.0
  0
VERTEX
  5
13CB
  8
RIVERS
 10
1088256.705717931
 20
693911.35224467097
 30
0.0
  0
VERTEX
  5
13CC
  8
RIVERS
 10
1088270.7680055471
 20
693909.64151996979
 30
0.0
  0
VERTEX
  5
13CD
  8
RIVERS
 10
1088295.7802833209
 20
693907.81689718505
 30
0.0
  0
VERTEX
  5
13CE
  8
RIVERS
 10
1088327.3751214209
 20
693937.21287594049
 30
0.0
  0
VERTEX
  5
13CF
  8
RIVERS
 10
1088326.00609097
 20
693956.00055879075
 30
0.0
  0
VERTEX
  5
13D0
  8
RIVERS
 10
1088330.9755535261
 20
693982.54457856261
 30
0.0
  0
VERTEX
  5
13D1
  8
RIVERS
 10
1088323.788707023
 20
694043.63302234688
 30
0.0
  0
VERTEX
  5
13D2
  8
RIVERS
 10
1088380.363280586
 20
694068.07580970228
 30
0.0
  0
VERTEX
  5
13D3
  8
RIVERS
 10
1088439.985066992
 20
694084.66463320795
 30
0.0
  0
VERTEX
  5
13D4
  8
RIVERS
 10
1088532.7497046511
 20
694129.06888000655
 30
0.0
  0
VERTEX
  5
13D5
  8
RIVERS
 10
1088548.3600054211
 20
694125.7775998424
 30
0.0
  0
VERTEX
  5
13D6
  8
RIVERS
 10
1088557.794524733
 20
694130.37282583816
 30
0.0
  0
VERTEX
  5
13D7
  8
RIVERS
 10
1088578.016322654
 20
694119.21131066978
 30
0.0
  0
VERTEX
  5
13D8
  8
RIVERS
 10
1088588.6897031779
 20
694092.50457935105
 30
0.0
  0
VERTEX
  5
13D9
  8
RIVERS
 10
1088630.8277525641
 20
694082.67955232365
 30
0.0
  0
VERTEX
  5
13DA
  8
RIVERS
 10
1088701.7249522209
 20
694130.4401639055
 30
0.0
  0
VERTEX
  5
13DB
  8
RIVERS
 10
1088712.8213827701
 20
694144.40482459345
 30
0.0
  0
VERTEX
  5
13DC
  8
RIVERS
 10
1088717.8722011
 20
694178.77026590402
 30
0.0
  0
VERTEX
  5
13DD
  8
RIVERS
 10
1088784.3856997751
 20
694256.30109280196
 30
0.0
  0
VERTEX
  5
13DE
  8
RIVERS
 10
1088798.561885474
 20
694265.54035825667
 30
0.0
  0
VERTEX
  5
13DF
  8
RIVERS
 10
1088878.7634352059
 20
694305.38192136982
 30
0.0
  0
VERTEX
  5
13E0
  8
RIVERS
 10
1088892.8582651319
 20
694306.79976528429
 30
0.0
  0
VERTEX
  5
13E1
  8
RIVERS
 10
1088973.189984102
 20
694359.15560286131
 30
0.0
  0
VERTEX
  5
13E2
  8
RIVERS
 10
1088988.9467252649
 20
694369.94288146892
 30
0.0
  0
VERTEX
  5
13E3
  8
RIVERS
 10
1088996.8820448881
 20
694380.81151585083
 30
0.0
  0
VERTEX
  5
13E4
  8
RIVERS
 10
1089022.6427957821
 20
694450.94397123298
 30
0.0
  0
VERTEX
  5
13E5
  8
RIVERS
 10
1089047.931683186
 20
694475.7121816841
 30
0.0
  0
VERTEX
  5
13E6
  8
RIVERS
 10
1089089.253921384
 20
694537.8605039781
 30
0.0
  0
VERTEX
  5
13E7
  8
RIVERS
 10
1089084.870220402
 20
694567.63071929407
 30
0.0
  0
VERTEX
  5
13E8
  8
RIVERS
 10
1089153.192070706
 20
694668.60953965608
 30
0.0
  0
VERTEX
  5
13E9
  8
RIVERS
 10
1089208.6904946051
 20
694739.99712740525
 30
0.0
  0
VERTEX
  5
13EA
  8
RIVERS
 10
1089181.314392491
 20
694815.37565497425
 30
0.0
  0
VERTEX
  5
13EB
  8
RIVERS
 10
1089150.6470102139
 20
694875.14388177264
 30
0.0
  0
VERTEX
  5
13EC
  8
RIVERS
 10
1089294.379930397
 20
695006.62737286487
 30
0.0
  0
VERTEX
  5
13ED
  8
RIVERS
 10
1089311.9612943439
 20
695042.42692924535
 30
0.0
  0
VERTEX
  5
13EE
  8
RIVERS
 10
1089387.8767700221
 20
695121.42441352212
 30
0.0
  0
VERTEX
  5
13EF
  8
RIVERS
 10
1089438.649798688
 20
695189.73224611918
 30
0.0
  0
VERTEX
  5
13F0
  8
RIVERS
 10
1089486.245445274
 20
695253.3797681029
 30
0.0
  0
VERTEX
  5
13F1
  8
RIVERS
 10
1089533.466855299
 20
695281.04875100276
 30
0.0
  0
VERTEX
  5
13F2
  8
RIVERS
 10
1089600.029167437
 20
695363.27243082388
 30
0.0
  0
VERTEX
  5
13F3
  8
RIVERS
 10
1089655.1696259319
 20
695400.24576379778
 30
0.0
  0
VERTEX
  5
13F4
  8
RIVERS
 10
1089722.970799282
 20
695451.16748630488
 30
0.0
  0
VERTEX
  5
13F5
  8
RIVERS
 10
1089751.502153385
 20
695486.85314460215
 30
0.0
  0
VERTEX
  5
13F6
  8
RIVERS
 10
1089767.5843176451
 20
695528.92610936926
 30
0.0
  0
VERTEX
  5
13F7
  8
RIVERS
 10
1089761.7665015929
 20
695571.22687030374
 30
0.0
  0
VERTEX
  5
13F8
  8
RIVERS
 10
1089770.0109731569
 20
695611.81690653693
 30
0.0
  0
VERTEX
  5
13F9
  8
RIVERS
 10
1089785.7677143191
 20
695622.60418514512
 30
0.0
  0
VERTEX
  5
13FA
  8
RIVERS
 10
1089803.0399263271
 20
695628.68233967386
 30
0.0
  0
VERTEX
  5
13FB
  8
RIVERS
 10
1089826.3902928629
 20
695617.48828219646
 30
0.0
  0
VERTEX
  5
13FC
  8
RIVERS
 10
1089871.429114698
 20
695585.73073254817
 30
0.0
  0
VERTEX
  5
13FD
  8
RIVERS
 10
1089925.281898516
 20
695649.31316991232
 30
0.0
  0
VERTEX
  5
13FE
  8
RIVERS
 10
1089939.4580842161
 20
695658.5524353669
 30
0.0
  0
VERTEX
  5
13FF
  8
RIVERS
 10
1089958.39220746
 20
695674.00002458913
 30
0.0
  0
VERTEX
  5
1400
  8
RIVERS
 10
1090042.01897604
 20
695724.52566893678
 30
0.0
  0
VERTEX
  5
1401
  8
RIVERS
 10
1090046.6570086649
 20
695794.43299988005
 30
0.0
  0
VERTEX
  5
1402
  8
RIVERS
 10
1089997.788882836
 20
695883.813650002
 30
0.0
  0
VERTEX
  5
1403
  8
RIVERS
 10
1089985.717816849
 20
695893.21047688904
 30
0.0
  0
VERTEX
  5
1404
  8
RIVERS
 10
1089979.650593661
 20
695903.31396007643
 30
0.0
  0
VERTEX
  5
1405
  8
RIVERS
 10
1089980.998883964
 20
695920.1530449636
 30
0.0
  0
VERTEX
  5
1406
  8
RIVERS
 10
1089985.717816849
 20
695930.25647439214
 30
0.0
  0
VERTEX
  5
1407
  8
RIVERS
 10
1090053.820882445
 20
695981.85734399431
 30
0.0
  0
VERTEX
  5
1408
  8
RIVERS
 10
1090141.775393147
 20
696055.27505652432
 30
0.0
  0
VERTEX
  5
1409
  8
RIVERS
 10
1090210.4466399311
 20
696151.05563281022
 30
0.0
  0
VERTEX
  5
140A
  8
RIVERS
 10
1090223.285258801
 20
696228.38060703035
 30
0.0
  0
VERTEX
  5
140B
  8
RIVERS
 10
1090230.986121682
 20
696333.23974015808
 30
0.0
  0
VERTEX
  5
140C
  8
RIVERS
 10
1090292.8791950671
 20
696395.56545858015
 30
0.0
  0
VERTEX
  5
140D
  8
RIVERS
 10
1090334.7414640179
 20
696478.76827615802
 30
0.0
  0
VERTEX
  5
140E
  8
RIVERS
 10
1090368.446002322
 20
696571.66117115389
 30
0.0
  0
VERTEX
  5
140F
  8
RIVERS
 10
1090425.861285754
 20
696628.04755775107
 30
0.0
  0
VERTEX
  5
1410
  8
RIVERS
 10
1090559.973253248
 20
696717.71365324641
 30
0.0
  0
VERTEX
  5
1411
  8
RIVERS
 10
1090612.18556565
 20
696775.6007107381
 30
0.0
  0
VERTEX
  5
1412
  8
RIVERS
 10
1090660.031885311
 20
696872.17727299954
 30
0.0
  0
VERTEX
  5
1413
  8
RIVERS
 10
1090677.39301302
 20
696973.29311368207
 30
0.0
  0
VERTEX
  5
1414
  8
RIVERS
 10
1090683.5335798259
 20
697049.14722959744
 30
0.0
  0
VERTEX
  5
1415
  8
RIVERS
 10
1090749.1662190841
 20
697119.64558496047
 30
0.0
  0
VERTEX
  5
1416
  8
RIVERS
 10
1090837.2842433241
 20
697189.54959396156
 30
0.0
  0
VERTEX
  5
1417
  8
RIVERS
 10
1090854.615278597
 20
697231.10862546635
 30
0.0
  0
VERTEX
  5
1418
  8
RIVERS
 10
1090853.8163016001
 20
697325.4211870759
 30
0.0
  0
VERTEX
  5
1419
  8
RIVERS
 10
1090906.7947873881
 20
697392.23214859958
 30
0.0
  0
VERTEX
  5
141A
  8
RIVERS
 10
1090986.325822121
 20
697473.53633986111
 30
0.0
  0
VERTEX
  5
141B
  8
RIVERS
 10
1091000.1423243801
 20
697540.0182124452
 30
0.0
  0
VERTEX
  5
141C
  8
RIVERS
 10
1090955.5805661131
 20
697566.90731161402
 30
0.0
  0
VERTEX
  5
141D
  8
RIVERS
 10
1090891.030859008
 20
697631.78123063338
 30
0.0
  0
VERTEX
  5
141E
  8
RIVERS
 10
1090917.2655820041
 20
697712.0479214628
 30
0.0
  0
VERTEX
  5
141F
  8
RIVERS
 10
1090979.242503298
 20
697807.8452673303
 30
0.0
  0
VERTEX
  5
1420
  8
RIVERS
 10
1090974.1904585061
 20
697869.59486762737
 30
0.0
  0
VERTEX
  5
1421
  8
RIVERS
 10
1090913.523790363
 20
697999.91509721731
 30
0.0
  0
VERTEX
  5
1422
  8
RIVERS
 10
1090934.540636034
 20
698075.73194739548
 30
0.0
  0
VERTEX
  5
1423
  8
RIVERS
 10
1090981.663637907
 20
698180.49232631922
 30
0.0
  0
VERTEX
  5
1424
  8
RIVERS
 10
1091055.5900277521
 20
698295.59902212105
 30
0.0
  0
VERTEX
  5
1425
  8
RIVERS
 10
1091148.7139703201
 20
698354.12741277844
 30
0.0
  0
VERTEX
  5
1426
  8
RIVERS
 10
1091221.764252854
 20
698416.42518189736
 30
0.0
  0
VERTEX
  5
1427
  8
RIVERS
 10
1091246.5840161501
 20
698525.70434308657
 30
0.0
  0
VERTEX
  5
1428
  8
RIVERS
 10
1091268.251511422
 20
698564.32863281586
 30
0.0
  0
VERTEX
  5
1429
  8
RIVERS
 10
1091430.043336682
 20
698420.36634523328
 30
0.0
  0
VERTEX
  5
142A
  8
RIVERS
 10
1091499.8630931419
 20
698380.76905727573
 30
0.0
  0
VERTEX
  5
142B
  8
RIVERS
 10
1091583.9308383099
 20
698387.25283134868
 30
0.0
  0
VERTEX
  5
142C
  8
RIVERS
 10
1091658.351361658
 20
698402.68659546995
 30
0.0
  0
VERTEX
  5
142D
  8
RIVERS
 10
1091755.714593461
 20
698371.94613321731
 30
0.0
  0
VERTEX
  5
142E
  8
RIVERS
 10
1091825.6703698621
 20
698386.6472631162
 30
0.0
  0
VERTEX
  5
142F
  8
RIVERS
 10
1091874.7602268299
 20
698385.78047223971
 30
0.0
  0
VERTEX
  5
1430
  8
RIVERS
 10
1091947.6539932671
 20
698385.59787012648
 30
0.0
  0
VERTEX
  5
1431
  8
RIVERS
 10
1092050.453106957
 20
698446.3334798842
 30
0.0
  0
VERTEX
  5
1432
  8
RIVERS
 10
1092112.308914606
 20
698493.78291944123
 30
0.0
  0
VERTEX
  5
1433
  8
RIVERS
 10
1092177.647154538
 20
698446.7586717729
 30
0.0
  0
VERTEX
  5
1434
  8
RIVERS
 10
1092285.565391348
 20
698472.52198319009
 30
0.0
  0
VERTEX
  5
1435
  8
RIVERS
 10
1092391.9978635579
 20
698499.03283512418
 30
0.0
  0
VERTEX
  5
1436
  8
RIVERS
 10
1092531.874013911
 20
698514.30263000098
 30
0.0
  0
VERTEX
  5
1437
  8
RIVERS
 10
1092658.3857360149
 20
698539.27554530324
 30
0.0
  0
VERTEX
  5
1438
  8
RIVERS
 10
1092755.9502028001
 20
698588.86698892049
 30
0.0
  0
VERTEX
  5
1439
  8
RIVERS
 10
1092807.060274902
 20
698518.56032586424
 30
0.0
  0
VERTEX
  5
143A
  8
RIVERS
 10
1092855.938392444
 20
698418.28205219144
 30
0.0
  0
VERTEX
  5
143B
  8
RIVERS
 10
1092866.2753928881
 20
698387.75959450263
 30
0.0
  0
VERTEX
  5
143C
  8
RIVERS
 10
1092990.9883181979
 20
698288.51930785773
 30
0.0
  0
VERTEX
  5
143D
  8
RIVERS
 10
1093098.254042122
 20
698350.7313657807
 30
0.0
  0
VERTEX
  5
143E
  8
RIVERS
 10
1093118.474901817
 20
698405.72328883479
 30
0.0
  0
VERTEX
  5
143F
  8
RIVERS
 10
1093155.9152794201
 20
698505.30119288538
 30
0.0
  0
VERTEX
  5
1440
  8
RIVERS
 10
1093224.49336186
 20
698563.89107200911
 30
0.0
  0
VERTEX
  5
1441
  8
RIVERS
 10
1093282.0073994959
 20
698659.69959759794
 30
0.0
  0
VERTEX
  5
1442
  8
RIVERS
 10
1093401.727905194
 20
698646.01095743384
 30
0.0
  0
VERTEX
  5
1443
  8
RIVERS
 10
1093482.676921499
 20
698595.22851102496
 30
0.0
  0
VERTEX
  5
1444
  8
RIVERS
 10
1093695.241876734
 20
698528.49617003219
 30
0.0
  0
VERTEX
  5
1445
  8
RIVERS
 10
1093841.66142634
 20
698483.50026592449
 30
0.0
  0
VERTEX
  5
1446
  8
RIVERS
 10
1094014.1573195569
 20
698455.54686747096
 30
0.0
  0
VERTEX
  5
1447
  8
RIVERS
 10
1094102.537022148
 20
698401.77053242037
 30
0.0
  0
VERTEX
  5
1448
  8
RIVERS
 10
1094157.3649759579
 20
698316.0940457196
 30
0.0
  0
VERTEX
  5
1449
  8
RIVERS
 10
1094287.2529229941
 20
698204.19587903179
 30
0.0
  0
VERTEX
  5
144A
  8
RIVERS
 10
1094428.3521144979
 20
698113.84036739485
 30
0.0
  0
VERTEX
  5
144B
  8
RIVERS
 10
1094470.63212219
 20
698066.87388161896
 30
0.0
  0
VERTEX
  5
144C
  8
RIVERS
 10
1094416.044894869
 20
697951.71874035872
 30
0.0
  0
VERTEX
  5
144D
  8
RIVERS
 10
1094403.072119345
 20
697820.83916222549
 30
0.0
  0
VERTEX
  5
144E
  8
RIVERS
 10
1094434.860473783
 20
697742.65857685008
 30
0.0
  0
VERTEX
  5
144F
  8
RIVERS
 10
1094529.060257839
 20
697636.80035947775
 30
0.0
  0
VERTEX
  5
1450
  8
RIVERS
 10
1094688.987708783
 20
697639.37500857399
 30
0.0
  0
VERTEX
  5
1451
  8
RIVERS
 10
1094799.868158357
 20
697659.9241692411
 30
0.0
  0
VERTEX
  5
1452
  8
RIVERS
 10
1094862.1342515999
 20
697574.22904967167
 30
0.0
  0
VERTEX
  5
1453
  8
RIVERS
 10
1094840.17422029
 20
697418.82597085391
 30
0.0
  0
VERTEX
  5
1454
  8
RIVERS
 10
1094758.023021471
 20
697286.63205051317
 30
0.0
  0
VERTEX
  5
1455
  8
RIVERS
 10
1094615.5968072331
 20
697144.17566120345
 30
0.0
  0
VERTEX
  5
1456
  8
RIVERS
 10
1094569.9129877889
 20
697020.0723931815
 30
0.0
  0
VERTEX
  5
1457
  8
RIVERS
 10
1094525.709343083
 20
696892.99014281295
 30
0.0
  0
VERTEX
  5
1458
  8
RIVERS
 10
1094613.84122852
 20
696740.28655331174
 30
0.0
  0
VERTEX
  5
1459
  8
RIVERS
 10
1094700.9009990429
 20
696753.45719972637
 30
0.0
  0
VERTEX
  5
145A
  8
RIVERS
 10
1094845.8999990891
 20
696735.24232414935
 30
0.0
  0
VERTEX
  5
145B
  8
RIVERS
 10
1094999.9142042249
 20
696752.7081584048
 30
0.0
  0
VERTEX
  5
145C
  8
RIVERS
 10
1095161.582690069
 20
696856.4377772077
 30
0.0
  0
VERTEX
  5
145D
  8
RIVERS
 10
1095260.6217417319
 20
696900.81879664841
 30
0.0
  0
VERTEX
  5
145E
  8
RIVERS
 10
1095523.6859237719
 20
696801.97575258894
 30
0.0
  0
VERTEX
  5
145F
  8
RIVERS
 10
1095589.13968749
 20
696801.06796940148
 30
0.0
  0
VERTEX
  5
1460
  8
RIVERS
 10
1095626.5148500521
 20
696874.61238543864
 30
0.0
  0
VERTEX
  5
1461
  8
RIVERS
 10
1095707.13929196
 20
696991.18993954523
 30
0.0
  0
VERTEX
  5
1462
  8
RIVERS
 10
1095816.610371697
 20
697042.98301240231
 30
0.0
  0
VERTEX
  5
1463
  8
RIVERS
 10
1095936.068624479
 20
697082.18874726573
 30
0.0
  0
VERTEX
  5
1464
  8
RIVERS
 10
1095976.054868859
 20
697149.69347683864
 30
0.0
  0
VERTEX
  5
1465
  8
RIVERS
 10
1095952.5863510249
 20
697282.8957978579
 30
0.0
  0
VERTEX
  5
1466
  8
RIVERS
 10
1095981.0525158499
 20
697363.15689882659
 30
0.0
  0
VERTEX
  5
1467
  8
RIVERS
 10
1096096.498329862
 20
697424.60464665073
 30
0.0
  0
VERTEX
  5
1468
  8
RIVERS
 10
1096280.503593446
 20
697537.20413416636
 30
0.0
  0
VERTEX
  5
1469
  8
RIVERS
 10
1096565.00572399
 20
697682.27989145718
 30
0.0
  0
VERTEX
  5
146A
  8
RIVERS
 10
1096616.0587094771
 20
697574.29830289341
 30
0.0
  0
VERTEX
  5
146B
  8
RIVERS
 10
1096726.3654246121
 20
697504.70565941557
 30
0.0
  0
VERTEX
  5
146C
  8
RIVERS
 10
1096810.099121032
 20
697535.87747391535
 30
0.0
  0
VERTEX
  5
146D
  8
RIVERS
 10
1096941.2824149251
 20
697644.14637113933
 30
0.0
  0
VERTEX
  5
146E
  8
RIVERS
 10
1097145.3073032231
 20
697731.40587583941
 30
0.0
  0
VERTEX
  5
146F
  8
RIVERS
 10
1097459.4930498819
 20
697848.88598575525
 30
0.0
  0
VERTEX
  5
1470
  8
RIVERS
 10
1097663.27943746
 20
697840.93730572099
 30
0.0
  0
VERTEX
  5
1471
  8
RIVERS
 10
1097898.0954592391
 20
697748.85939205193
 30
0.0
  0
VERTEX
  5
1472
  8
RIVERS
 10
1098100.2339762601
 20
697676.94643947249
 30
0.0
  0
VERTEX
  5
1473
  8
RIVERS
 10
1098036.016296701
 20
697577.43561374955
 30
0.0
  0
VERTEX
  5
1474
  8
RIVERS
 10
1097956.275415251
 20
697516.64224209893
 30
0.0
  0
VERTEX
  5
1475
  8
RIVERS
 10
1097892.231021371
 20
697486.30611309665
 30
0.0
  0
VERTEX
  5
1476
  8
RIVERS
 10
1097844.5151317921
 20
697441.79652686208
 30
0.0
  0
VERTEX
  5
1477
  8
RIVERS
 10
1097865.901270746
 20
697368.10491116229
 30
0.0
  0
VERTEX
  5
1478
  8
RIVERS
 10
1097888.745224996
 20
697282.50854579685
 30
0.0
  0
VERTEX
  5
1479
  8
RIVERS
 10
1097874.4804667069
 20
697229.73315827735
 30
0.0
  0
VERTEX
  5
147A
  8
RIVERS
 10
1097826.160509699
 20
697241.01148107252
 30
0.0
  0
VERTEX
  5
147B
  8
RIVERS
 10
1097797.3101452971
 20
697304.30833443569
 30
0.0
  0
VERTEX
  5
147C
  8
RIVERS
 10
1097719.9497686259
 20
697303.01448838355
 30
0.0
  0
VERTEX
  5
147D
  8
RIVERS
 10
1097690.79755175
 20
697245.81348294206
 30
0.0
  0
VERTEX
  5
147E
  8
RIVERS
 10
1097657.9393081679
 20
697193.82849153795
 30
0.0
  0
VERTEX
  5
147F
  8
RIVERS
 10
1097580.575204924
 20
697191.04701759911
 30
0.0
  0
VERTEX
  5
1480
  8
RIVERS
 10
1097544.8516394929
 20
697182.95450199326
 30
0.0
  0
VERTEX
  5
1481
  8
RIVERS
 10
1097540.959284097
 20
697113.78912170662
 30
0.0
  0
VERTEX
  5
1482
  8
RIVERS
 10
1097527.4923750709
 20
697082.58247525408
 30
0.0
  0
VERTEX
  5
1483
  8
RIVERS
 10
1097456.0769200849
 20
697079.04228107724
 30
0.0
  0
VERTEX
  5
1484
  8
RIVERS
 10
1097438.1434008251
 20
697046.35918645968
 30
0.0
  0
VERTEX
  5
1485
  8
RIVERS
 10
1097500.2716108391
 20
696905.62183509045
 30
0.0
  0
VERTEX
  5
1486
  8
RIVERS
 10
1097458.493189797
 20
696855.89064495813
 30
0.0
  0
VERTEX
  5
1487
  8
RIVERS
 10
1097466.5670725349
 20
696812.72894009482
 30
0.0
  0
VERTEX
  5
1488
  8
RIVERS
 10
1097429.365195652
 20
696808.35922077892
 30
0.0
  0
VERTEX
  5
1489
  8
RIVERS
 10
1097384.7214527619
 20
696802.52050644485
 30
0.0
  0
VERTEX
  5
148A
  8
RIVERS
 10
1097345.864252175
 20
696731.21125881141
 30
0.0
  0
VERTEX
  5
148B
  8
RIVERS
 10
1097315.1610556589
 20
696648.72430587362
 30
0.0
  0
VERTEX
  5
148C
  8
RIVERS
 10
1097243.624487028
 20
696596.83620538632
 30
0.0
  0
VERTEX
  5
148D
  8
RIVERS
 10
1097144.732635028
 20
696611.21648746135
 30
0.0
  0
VERTEX
  5
148E
  8
RIVERS
 10
1097091.7317897971
 20
696535.47975861875
 30
0.0
  0
VERTEX
  5
148F
  8
RIVERS
 10
1097047.5914968441
 20
696433.6871823204
 30
0.0
  0
VERTEX
  5
1490
  8
RIVERS
 10
1096982.0501586441
 20
696399.63571017596
 30
0.0
  0
VERTEX
  5
1491
  8
RIVERS
 10
1096844.4054501201
 20
696384.36032543879
 30
0.0
  0
VERTEX
  5
1492
  8
RIVERS
 10
1096704.469674587
 20
696345.28848437849
 30
0.0
  0
VERTEX
  5
1493
  8
RIVERS
 10
1096574.225839759
 20
696315.11818790785
 30
0.0
  0
VERTEX
  5
1494
  8
RIVERS
 10
1096403.025655881
 20
696266.45502363401
 30
0.0
  0
VERTEX
  5
1495
  8
RIVERS
 10
1096277.3136463261
 20
696263.79466334207
 30
0.0
  0
VERTEX
  5
1496
  8
RIVERS
 10
1096216.2556879399
 20
696237.91396485164
 30
0.0
  0
VERTEX
  5
1497
  8
RIVERS
 10
1096153.6579296349
 20
696191.21020252479
 30
0.0
  0
VERTEX
  5
1498
  8
RIVERS
 10
1095799.084136422
 20
696282.10047749348
 30
0.0
  0
VERTEX
  5
1499
  8
RIVERS
 10
1095600.5901576411
 20
696324.25155590882
 30
0.0
  0
VERTEX
  5
149A
  8
RIVERS
 10
1095404.288491667
 20
696350.77695165575
 30
0.0
  0
VERTEX
  5
149B
  8
RIVERS
 10
1095303.0366310431
 20
696313.83966150787
 30
0.0
  0
VERTEX
  5
149C
  8
RIVERS
 10
1095227.989680825
 20
696345.26803909754
 30
0.0
  0
VERTEX
  5
149D
  8
RIVERS
 10
1095082.209601097
 20
696348.60849909717
 30
0.0
  0
VERTEX
  5
149E
  8
RIVERS
 10
1094929.6532112591
 20
696319.23791517562
 30
0.0
  0
VERTEX
  5
149F
  8
RIVERS
 10
1094868.5654402829
 20
696281.45619359403
 30
0.0
  0
VERTEX
  5
14A0
  8
RIVERS
 10
1094848.3352641531
 20
696222.74520082341
 30
0.0
  0
VERTEX
  5
14A1
  8
RIVERS
 10
1094782.0557018691
 20
696190.92703379551
 30
0.0
  0
VERTEX
  5
14A2
  8
RIVERS
 10
1094767.002410752
 20
696120.30197492533
 30
0.0
  0
VERTEX
  5
14A3
  8
RIVERS
 10
1094688.171175777
 20
696125.70618093607
 30
0.0
  0
VERTEX
  5
14A4
  8
RIVERS
 10
1094652.309727117
 20
696062.57143353042
 30
0.0
  0
VERTEX
  5
14A5
  8
RIVERS
 10
1094630.5211181999
 20
695975.59923749079
 30
0.0
  0
VERTEX
  5
14A6
  8
RIVERS
 10
1094648.769895423
 20
695837.20326187671
 30
0.0
  0
VERTEX
  5
14A7
  8
RIVERS
 10
1094624.7237586591
 20
695739.82326049218
 30
0.0
  0
VERTEX
  5
14A8
  8
RIVERS
 10
1094558.8973375671
 20
695591.96825503232
 30
0.0
  0
VERTEX
  5
14A9
  8
RIVERS
 10
1094604.066889836
 20
695510.77887472033
 30
0.0
  0
VERTEX
  5
14AA
  8
RIVERS
 10
1094568.2054411769
 20
695447.64412731479
 30
0.0
  0
VERTEX
  5
14AB
  8
RIVERS
 10
1094571.8369364101
 20
695412.67555554816
 30
0.0
  0
VERTEX
  5
14AC
  8
RIVERS
 10
1094549.3678653031
 20
695350.99489686545
 30
0.0
  0
VERTEX
  5
14AD
  8
RIVERS
 10
1094564.7904497031
 20
695272.1114898579
 30
0.0
  0
VERTEX
  5
14AE
  8
RIVERS
 10
1094545.9416941081
 20
695170.99937574926
 30
0.0
  0
VERTEX
  5
14AF
  8
RIVERS
 10
1094574.022158551
 20
695097.29099046765
 30
0.0
  0
VERTEX
  5
14B0
  8
RIVERS
 10
1094672.748178019
 20
695016.71126744442
 30
0.0
  0
VERTEX
  5
14B1
  8
RIVERS
 10
1094693.334604424
 20
694920.70709673443
 30
0.0
  0
VERTEX
  5
14B2
  8
RIVERS
 10
1094675.951117273
 20
694810.66548873286
 30
0.0
  0
VERTEX
  5
14B3
  8
RIVERS
 10
1094713.621041643
 20
694704.94888116256
 30
0.0
  0
VERTEX
  5
14B4
  8
RIVERS
 10
1094647.181236688
 20
694609.16271501617
 30
0.0
  0
VERTEX
  5
14B5
  8
RIVERS
 10
1094653.001318153
 20
694557.08083269466
 30
0.0
  0
VERTEX
  5
14B6
  8
RIVERS
 10
1094660.35933625
 20
694525.07820026658
 30
0.0
  0
VERTEX
  5
14B7
  8
RIVERS
 10
1094614.8637087799
 20
694476.10014051187
 30
0.0
  0
VERTEX
  5
14B8
  8
RIVERS
 10
1094623.62178028
 20
694409.13452617824
 30
0.0
  0
VERTEX
  5
14B9
  8
RIVERS
 10
1094557.8587109421
 20
694286.56919478811
 30
0.0
  0
VERTEX
  5
14BA
  8
RIVERS
 10
1094584.423598195
 20
694201.70732693176
 30
0.0
  0
VERTEX
  5
14BB
  8
RIVERS
 10
1094612.487293056
 20
694121.30461616104
 30
0.0
  0
VERTEX
  5
14BC
  8
RIVERS
 10
1094668.1596783011
 20
694075.79221910809
 30
0.0
  0
VERTEX
  5
14BD
  8
RIVERS
 10
1094669.9184050851
 20
694000.48978873028
 30
0.0
  0
SEQEND
  5
14BE
  8
RIVERS
  0
POLYLINE
  5
8C
  8
RIVERS
 66
     1
 10
0.0
 20
0.0
 30
0.0
 40
10.0
 41
10.0
  0
VERTEX
  5
14BF
  8
RIVERS
 10
1104987.86434288
 20
698687.9522653945
 30
0.0
  0
VERTEX
  5
14C0
  8
RIVERS
 10
1104946.6634898931
 20
698696.67897386348
 30
0.0
  0
VERTEX
  5
14C1
  8
RIVERS
 10
1104914.869545595
 20
698772.62811740919
 30
0.0
  0
VERTEX
  5
14C2
  8
RIVERS
 10
1104862.140740247
 20
698805.48822427937
 30
0.0
  0
VERTEX
  5
14C3
  8
RIVERS
 10
1104881.845106998
 20
698951.22731169558
 30
0.0
  0
VERTEX
  5
14C4
  8
RIVERS
 10
1104859.6592554939
 20
699002.60637238505
 30
0.0
  0
VERTEX
  5
14C5
  8
RIVERS
 10
1104762.916860702
 20
698984.25325109705
 30
0.0
  0
VERTEX
  5
14C6
  8
RIVERS
 10
1104681.0022993151
 20
698946.52370154765
 30
0.0
  0
VERTEX
  5
14C7
  8
RIVERS
 10
1104619.938751068
 20
698918.41156122787
 30
0.0
  0
VERTEX
  5
14C8
  8
RIVERS
 10
1104575.9661539339
 20
698883.56223982107
 30
0.0
  0
VERTEX
  5
14C9
  8
RIVERS
 10
1104533.386157057
 20
698810.77468073496
 30
0.0
  0
VERTEX
  5
14CA
  8
RIVERS
 10
1104405.347678042
 20
698770.18539919856
 30
0.0
  0
VERTEX
  5
14CB
  8
RIVERS
 10
1104300.2817200711
 20
698695.32291437988
 30
0.0
  0
VERTEX
  5
14CC
  8
RIVERS
 10
1104241.522281843
 20
698696.21392798575
 30
0.0
  0
VERTEX
  5
14CD
  8
RIVERS
 10
1104049.8623750671
 20
698794.1342825623
 30
0.0
  0
VERTEX
  5
14CE
  8
RIVERS
 10
1103953.92155611
 20
698798.83753022784
 30
0.0
  0
VERTEX
  5
14CF
  8
RIVERS
 10
1103918.177494524
 20
698782.56306124618
 30
0.0
  0
VERTEX
  5
14D0
  8
RIVERS
 10
1103844.5436407169
 20
698784.23515453294
 30
0.0
  0
VERTEX
  5
14D1
  8
RIVERS
 10
1103753.7089018719
 20
698748.75940625544
 30
0.0
  0
VERTEX
  5
14D2
  8
RIVERS
 10
1103688.96727622
 20
698737.02048912121
 30
0.0
  0
VERTEX
  5
14D3
  8
RIVERS
 10
1103637.670200153
 20
698747.56245112047
 30
0.0
  0
VERTEX
  5
14D4
  8
RIVERS
 10
1103621.2578479431
 20
698728.26428090734
 30
0.0
  0
VERTEX
  5
14D5
  8
RIVERS
 10
1103667.980243139
 20
698673.10466203501
 30
0.0
  0
VERTEX
  5
14D6
  8
RIVERS
 10
1103666.9587994521
 20
698562.27824777935
 30
0.0
  0
VERTEX
  5
14D7
  8
RIVERS
 10
1103680.7745056059
 20
698435.79447497847
 30
0.0
  0
VERTEX
  5
14D8
  8
RIVERS
 10
1103762.5698166329
 20
698425.91993216064
 30
0.0
  0
VERTEX
  5
14D9
  8
RIVERS
 10
1103833.2526373961
 20
698433.9248732836
 30
0.0
  0
VERTEX
  5
14DA
  8
RIVERS
 10
1103901.5810393961
 20
698392.84368401347
 30
0.0
  0
VERTEX
  5
14DB
  8
RIVERS
 10
1104040.029187043
 20
698431.91925164743
 30
0.0
  0
VERTEX
  5
14DC
  8
RIVERS
 10
1104199.3339376899
 20
698482.84367034107
 30
0.0
  0
VERTEX
  5
14DD
  8
RIVERS
 10
1104231.137198423
 20
698410.61359651166
 30
0.0
  0
VERTEX
  5
14DE
  8
RIVERS
 10
1104281.5413975969
 20
698340.5683823399
 30
0.0
  0
VERTEX
  5
14DF
  8
RIVERS
 10
1104402.108198016
 20
698367.78764576709
 30
0.0
  0
VERTEX
  5
14E0
  8
RIVERS
 10
1104498.060196694
 20
698367.54728176084
 30
0.0
  0
VERTEX
  5
14E1
  8
RIVERS
 10
1104561.098053182
 20
698293.0075080531
 30
0.0
  0
VERTEX
  5
14E2
  8
RIVERS
 10
1104527.3804718701
 20
698194.90791545471
 30
0.0
  0
VERTEX
  5
14E3
  8
RIVERS
 10
1104622.575613596
 20
698189.46271713264
 30
0.0
  0
VERTEX
  5
14E4
  8
RIVERS
 10
1104702.8199449831
 20
698154.30222681875
 30
0.0
  0
VERTEX
  5
14E5
  8
RIVERS
 10
1104719.732020556
 20
698076.15890718065
 30
0.0
  0
VERTEX
  5
14E6
  8
RIVERS
 10
1104660.693089297
 20
697965.47782930068
 30
0.0
  0
VERTEX
  5
14E7
  8
RIVERS
 10
1104712.618455522
 20
697908.81753953395
 30
0.0
  0
VERTEX
  5
14E8
  8
RIVERS
 10
1104810.6435166451
 20
697845.34740049182
 30
0.0
  0
VERTEX
  5
14E9
  8
RIVERS
 10
1104881.084110115
 20
697756.65652899398
 30
0.0
  0
VERTEX
  5
14EA
  8
RIVERS
 10
1104938.091333722
 20
697650.14766202215
 30
0.0
  0
VERTEX
  5
14EB
  8
RIVERS
 10
1104987.86434288
 20
697613.93739340815
 30
0.0
  0
SEQEND
  5
14EC
  8
RIVERS
  0
POLYLINE
  5
8D
  8
RIVERS
 66
     1
 10
0.0
 20
0.0
 30
1953.428572
 40
10.0
 41
10.0
  0
VERTEX
  5
14ED
  8
RIVERS
 10
1084551.064618404
 20
704248.95334752346
 30
1953.428572
  0
VERTEX
  5
14EE
  8
RIVERS
 10
1084648.005387947
 20
704256.05655001628
 30
1953.428572
  0
VERTEX
  5
14EF
  8
RIVERS
 10
1084739.057152489
 20
704239.17055665865
 30
1953.428572
  0
VERTEX
  5
14F0
  8
RIVERS
 10
1084819.423562164
 20
704238.23867072607
 30
1953.428572
  0
VERTEX
  5
14F1
  8
RIVERS
 10
1084872.424711128
 20
704267.90677158849
 30
1953.428572
  0
VERTEX
  5
14F2
  8
RIVERS
 10
1084876.533081668
 20
704354.87704398658
 30
1953.428572
  0
VERTEX
  5
14F3
  8
RIVERS
 10
1084895.9683277151
 20
704431.70855081629
 30
1953.428572
  0
VERTEX
  5
14F4
  8
RIVERS
 10
1084942.5403421039
 20
704495.06799949193
 30
1953.428572
  0
VERTEX
  5
14F5
  8
RIVERS
 10
1085010.4427449191
 20
704500.46668163291
 30
1953.428572
  0
VERTEX
  5
14F6
  8
RIVERS
 10
1085078.914138173
 20
704475.32809942774
 30
1953.428572
  0
VERTEX
  5
14F7
  8
RIVERS
 10
1085120.8401546651
 20
704433.8680296177
 30
1953.428572
  0
VERTEX
  5
14F8
  8
RIVERS
 10
1085180.906632063
 20
704401.53867408133
 30
1953.428572
  0
VERTEX
  5
14F9
  8
RIVERS
 10
1085262.2183705841
 20
704407.27785429149
 30
1953.428572
  0
VERTEX
  5
14FA
  8
RIVERS
 10
1085320.465870966
 20
704462.84169885935
 30
1953.428572
  0
VERTEX
  5
14FB
  8
RIVERS
 10
1085324.0769354559
 20
704558.01527685428
 30
1953.428572
  0
VERTEX
  5
14FC
  8
RIVERS
 10
1085316.577023423
 20
704655.01230912085
 30
1953.428572
  0
VERTEX
  5
14FD
  8
RIVERS
 10
1085301.0619768531
 20
704708.33155501448
 30
1953.428572
  0
VERTEX
  5
14FE
  8
RIVERS
 10
1085271.9315033481
 20
704779.18195006659
 30
1953.428572
  0
VERTEX
  5
14FF
  8
RIVERS
 10
1085264.7093669339
 20
704835.97337635607
 30
1953.428572
  0
VERTEX
  5
1500
  8
RIVERS
 10
1085298.687448595
 20
704876.63596707315
 30
1953.428572
  0
VERTEX
  5
1501
  8
RIVERS
 10
1085338.2344595741
 20
704904.47613269207
 30
1953.428572
  0
VERTEX
  5
1502
  8
RIVERS
 10
1085400.0930281619
 20
704931.64426411514
 30
1953.428572
  0
VERTEX
  5
1503
  8
RIVERS
 10
1085511.7583409389
 20
704956.56780057901
 30
1953.428572
  0
VERTEX
  5
1504
  8
RIVERS
 10
1085645.578403346
 20
704975.61327273794
 30
1953.428572
  0
VERTEX
  5
1505
  8
RIVERS
 10
1085741.831717026
 20
704983.13558591192
 30
1953.428572
  0
VERTEX
  5
1506
  8
RIVERS
 10
1085864.36607476
 20
704973.48964913643
 30
1953.428572
  0
VERTEX
  5
1507
  8
RIVERS
 10
1085992.6037686521
 20
704955.48359878513
 30
1953.428572
  0
VERTEX
  5
1508
  8
RIVERS
 10
1086145.6485086221
 20
704970.22804837232
 30
1953.428572
  0
VERTEX
  5
1509
  8
RIVERS
 10
1086236.9853792631
 20
704929.48066582775
 30
1953.428572
  0
VERTEX
  5
150A
  8
RIVERS
 10
1086283.505264608
 20
704851.43916939956
 30
1953.428572
  0
VERTEX
  5
150B
  8
RIVERS
 10
1086326.873915995
 20
704808.44686013565
 30
1953.428572
  0
VERTEX
  5
150C
  8
RIVERS
 10
1086394.0460431371
 20
704740.17259988503
 30
1953.428572
  0
VERTEX
  5
150D
  8
RIVERS
 10
1086481.2537698471
 20
704669.80607168376
 30
1953.428572
  0
VERTEX
  5
150E
  8
RIVERS
 10
1086579.285735518
 20
704686.95192420878
 30
1953.428572
  0
VERTEX
  5
150F
  8
RIVERS
 10
1086597.7084493011
 20
704754.88120913459
 30
1953.428572
  0
VERTEX
  5
1510
  8
RIVERS
 10
1086643.3754561529
 20
704837.62214335159
 30
1953.428572
  0
VERTEX
  5
1511
  8
RIVERS
 10
1086706.757302253
 20
704915.36313868954
 30
1953.428572
  0
VERTEX
  5
1512
  8
RIVERS
 10
1086748.313511139
 20
704959.54525450128
 30
1953.428572
  0
VERTEX
  5
1513
  8
RIVERS
 10
1086804.560775555
 20
704949.63691985537
 30
1953.428572
  0
VERTEX
  5
1514
  8
RIVERS
 10
1086885.7918714581
 20
704903.27099669666
 30
1953.428572
  0
VERTEX
  5
1515
  8
RIVERS
 10
1086981.91525927
 20
704881.76588383818
 30
1953.428572
  0
VERTEX
  5
1516
  8
RIVERS
 10
1087067.828197123
 20
704867.26785422082
 30
1953.428572
  0
VERTEX
  5
1517
  8
RIVERS
 10
1087156.8907374721
 20
704883.19508325018
 30
1953.428572
  0
VERTEX
  5
1518
  8
RIVERS
 10
1087174.005223199
 20
704957.11891915172
 30
1953.428572
  0
VERTEX
  5
1519
  8
RIVERS
 10
1087128.105239291
 20
705039.64031922549
 30
1953.428572
  0
VERTEX
  5
151A
  8
RIVERS
 10
1087117.844766859
 20
705116.31092027342
 30
1953.428572
  0
VERTEX
  5
151B
  8
RIVERS
 10
1087167.5133587441
 20
705211.15257897298
 30
1953.428572
  0
VERTEX
  5
151C
  8
RIVERS
 10
1087245.5993294071
 20
705233.36557379656
 30
1953.428572
  0
VERTEX
  5
151D
  8
RIVERS
 10
1087326.5526496901
 20
705227.20525661518
 30
1953.428572
  0
VERTEX
  5
151E
  8
RIVERS
 10
1087446.1614163271
 20
705194.57124706265
 30
1953.428572
  0
VERTEX
  5
151F
  8
RIVERS
 10
1087508.8604654521
 20
705139.9330927144
 30
1953.428572
  0
VERTEX
  5
1520
  8
RIVERS
 10
1087513.8174103179
 20
705068.21973360737
 30
1953.428572
  0
VERTEX
  5
1521
  8
RIVERS
 10
1087502.7915610969
 20
704974.01388559816
 30
1953.428572
  0
VERTEX
  5
1522
  8
RIVERS
 10
1087529.601274282
 20
704900.255819618
 30
1953.428572
  0
VERTEX
  5
1523
  8
RIVERS
 10
1087598.9955952419
 20
704881.04458496894
 30
1953.428572
  0
VERTEX
  5
1524
  8
RIVERS
 10
1087660.4016600619
 20
704917.90345916245
 30
1953.428572
  0
VERTEX
  5
1525
  8
RIVERS
 10
1087692.412918668
 20
704992.12299085327
 30
1953.428572
  0
VERTEX
  5
1526
  8
RIVERS
 10
1087721.6509131871
 20
705073.12559438671
 30
1953.428572
  0
VERTEX
  5
1527
  8
RIVERS
 10
1087738.832602334
 20
705149.28058604896
 30
1953.428572
  0
VERTEX
  5
1528
  8
RIVERS
 10
1087780.0014573261
 20
705181.53826091054
 30
1953.428572
  0
VERTEX
  5
1529
  8
RIVERS
 10
1087857.276505982
 20
705201.54250111291
 30
1953.428572
  0
VERTEX
  5
152A
  8
RIVERS
 10
1087955.735447431
 20
705150.67049392487
 30
1953.428572
  0
VERTEX
  5
152B
  8
RIVERS
 10
1087982.8708653681
 20
705095.77765749674
 30
1953.428572
  0
VERTEX
  5
152C
  8
RIVERS
 10
1087956.603264227
 20
705039.25056391454
 30
1953.428572
  0
VERTEX
  5
152D
  8
RIVERS
 10
1087928.1537905759
 20
704959.71299641521
 30
1953.428572
  0
VERTEX
  5
152E
  8
RIVERS
 10
1087901.3037597979
 20
704883.84921957098
 30
1953.428572
  0
VERTEX
  5
152F
  8
RIVERS
 10
1087913.2794225509
 20
704836.59172807296
 30
1953.428572
  0
VERTEX
  5
1530
  8
RIVERS
 10
1087978.9327494369
 20
704816.74878053623
 30
1953.428572
  0
VERTEX
  5
1531
  8
RIVERS
 10
1088062.699655117
 20
704829.85794319701
 30
1953.428572
  0
VERTEX
  5
1532
  8
RIVERS
 10
1088125.1854556219
 20
704877.85019505548
 30
1953.428572
  0
VERTEX
  5
1533
  8
RIVERS
 10
1088165.4717042169
 20
704930.23307404516
 30
1953.428572
  0
VERTEX
  5
1534
  8
RIVERS
 10
1088175.332694164
 20
704985.76555553079
 30
1953.428572
  0
VERTEX
  5
1535
  8
RIVERS
 10
1088143.8590591981
 20
705052.96456106729
 30
1953.428572
  0
VERTEX
  5
1536
  8
RIVERS
 10
1088118.877281257
 20
705113.26848906209
 30
1953.428572
  0
VERTEX
  5
1537
  8
RIVERS
 10
1088132.20597063
 20
705185.07317490189
 30
1953.428572
  0
VERTEX
  5
1538
  8
RIVERS
 10
1088146.1618919191
 20
705277.70198117755
 30
1953.428572
  0
VERTEX
  5
1539
  8
RIVERS
 10
1088169.4073556841
 20
705339.64824085939
 30
1953.428572
  0
VERTEX
  5
153A
  8
RIVERS
 10
1088242.598891973
 20
705390.1782196766
 30
1953.428572
  0
VERTEX
  5
153B
  8
RIVERS
 10
1088324.8111570601
 20
705401.10102885624
 30
1953.428572
  0
VERTEX
  5
153C
  8
RIVERS
 10
1088408.8513573899
 20
705398.56970005017
 30
1953.428572
  0
VERTEX
  5
153D
  8
RIVERS
 10
1088437.3277131519
 20
705454.28587162565
 30
1953.428572
  0
VERTEX
  5
153E
  8
RIVERS
 10
1088448.2012353649
 20
705518.72057501553
 30
1953.428572
  0
VERTEX
  5
153F
  8
RIVERS
 10
1088451.6375717081
 20
705583.37928980379
 30
1953.428572
  0
VERTEX
  5
1540
  8
RIVERS
 10
1088455.006704632
 20
705645.80684883124
 30
1953.428572
  0
VERTEX
  5
1541
  8
RIVERS
 10
1088475.6381730351
 20
705712.92521175067
 30
1953.428572
  0
VERTEX
  5
1542
  8
RIVERS
 10
1088463.7432400701
 20
705792.7652982641
 30
1953.428572
  0
VERTEX
  5
1543
  8
RIVERS
 10
1088479.3074790039
 20
705859.46017452737
 30
1953.428572
  0
VERTEX
  5
1544
  8
RIVERS
 10
1088522.7478110651
 20
705917.70319765375
 30
1953.428572
  0
VERTEX
  5
1545
  8
RIVERS
 10
1088535.848008069
 20
706006.63581213413
 30
1953.428572
  0
VERTEX
  5
1546
  8
RIVERS
 10
1088494.3476132341
 20
706062.226535097
 30
1953.428572
  0
VERTEX
  5
1547
  8
RIVERS
 10
1088494.8717976781
 20
706153.77112471662
 30
1953.428572
  0
VERTEX
  5
1548
  8
RIVERS
 10
1088507.613576442
 20
706230.8042418051
 30
1953.428572
  0
VERTEX
  5
1549
  8
RIVERS
 10
1088516.031931496
 20
706287.86896274448
 30
1953.428572
  0
VERTEX
  5
154A
  8
RIVERS
 10
1088478.227728457
 20
706342.60396142129
 30
1953.428572
  0
VERTEX
  5
154B
  8
RIVERS
 10
1088448.6268310139
 20
706397.83626614627
 30
1953.428572
  0
VERTEX
  5
154C
  8
RIVERS
 10
1088487.681016915
 20
706409.31462285155
 30
1953.428572
  0
VERTEX
  5
154D
  8
RIVERS
 10
1088522.5372240019
 20
706454.41712395067
 30
1953.428572
  0
VERTEX
  5
154E
  8
RIVERS
 10
1088515.3778100379
 20
706538.00482051203
 30
1953.428572
  0
VERTEX
  5
154F
  8
RIVERS
 10
1088505.6960254931
 20
706611.99137886218
 30
1953.428572
  0
VERTEX
  5
1550
  8
RIVERS
 10
1088470.5665200411
 20
706706.09866036917
 30
1953.428572
  0
VERTEX
  5
1551
  8
RIVERS
 10
1088493.742760164
 20
706783.56188008667
 30
1953.428572
  0
VERTEX
  5
1552
  8
RIVERS
 10
1088479.280567169
 20
706871.83589956874
 30
1953.428572
  0
VERTEX
  5
1553
  8
RIVERS
 10
1088438.7255011799
 20
706934.09768867481
 30
1953.428572
  0
VERTEX
  5
1554
  8
RIVERS
 10
1088396.436585479
 20
706988.22337560391
 30
1953.428572
  0
VERTEX
  5
1555
  8
RIVERS
 10
1088390.289703778
 20
707080.71329406905
 30
1953.428572
  0
VERTEX
  5
1556
  8
RIVERS
 10
1088353.2068181869
 20
707134.68217301893
 30
1953.428572
  0
VERTEX
  5
1557
  8
RIVERS
 10
1088316.473388891
 20
707249.68077838176
 30
1953.428572
  0
VERTEX
  5
1558
  8
RIVERS
 10
1088364.8016541321
 20
707321.92004782124
 30
1953.428572
  0
VERTEX
  5
1559
  8
RIVERS
 10
1088402.897068274
 20
707400.42268191546
 30
1953.428572
  0
VERTEX
  5
155A
  8
RIVERS
 10
1088373.9950871379
 20
707454.14514832641
 30
1953.428572
  0
VERTEX
  5
155B
  8
RIVERS
 10
1088355.6798943691
 20
707538.06886198581
 30
1953.428572
  0
VERTEX
  5
155C
  8
RIVERS
 10
1088355.0974610159
 20
707642.30146986386
 30
1953.428572
  0
VERTEX
  5
155D
  8
RIVERS
 10
1088353.0051893501
 20
707745.83516143449
 30
1953.428572
  0
VERTEX
  5
155E
  8
RIVERS
 10
1088398.118284585
 20
707775.58552808606
 30
1953.428572
  0
VERTEX
  5
155F
  8
RIVERS
 10
1088466.001131322
 20
707765.50786551018
 30
1953.428572
  0
VERTEX
  5
1560
  8
RIVERS
 10
1088499.302697815
 20
707808.42401312781
 30
1953.428572
  0
VERTEX
  5
1561
  8
RIVERS
 10
1088494.2445137431
 20
707862.91708023706
 30
1953.428572
  0
VERTEX
  5
1562
  8
RIVERS
 10
1088531.896386059
 20
707901.98022808041
 30
1953.428572
  0
VERTEX
  5
1563
  8
RIVERS
 10
1088579.2882843961
 20
707918.4182023562
 30
1953.428572
  0
VERTEX
  5
1564
  8
RIVERS
 10
1088559.337808416
 20
707948.05045916536
 30
1953.428572
  0
VERTEX
  5
1565
  8
RIVERS
 10
1088479.8002409169
 20
707976.4999328166
 30
1953.428572
  0
VERTEX
  5
1566
  8
RIVERS
 10
1088411.857513078
 20
708068.61799013044
 30
1953.428572
  0
VERTEX
  5
1567
  8
RIVERS
 10
1088378.143760409
 20
708185.01442810765
 30
1953.428572
  0
VERTEX
  5
1568
  8
RIVERS
 10
1088356.195098293
 20
708296.5901363251
 30
1953.428572
  0
VERTEX
  5
1569
  8
RIVERS
 10
1088354.102826627
 20
708400.12382789585
 30
1953.428572
  0
VERTEX
  5
156A
  8
RIVERS
 10
1088355.4603342169
 20
708494.62089072296
 30
1953.428572
  0
VERTEX
  5
156B
  8
RIVERS
 10
1088350.187096972
 20
708616.11583408108
 30
1953.428572
  0
VERTEX
  5
156C
  8
RIVERS
 10
1088317.0647358829
 20
708702.71872629889
 30
1953.428572
  0
VERTEX
  5
156D
  8
RIVERS
 10
1088303.977974362
 20
708787.22935056628
 30
1953.428572
  0
VERTEX
  5
156E
  8
RIVERS
 10
1088317.992137129
 20
708931.21954162407
 30
1953.428572
  0
VERTEX
  5
156F
  8
RIVERS
 10
1088379.7476582441
 20
709029.10814223054
 30
1953.428572
  0
VERTEX
  5
1570
  8
RIVERS
 10
1088323.619304209
 20
709093.32779244822
 30
1953.428572
  0
VERTEX
  5
1571
  8
RIVERS
 10
1088222.666224695
 20
709152.19804377505
 30
1953.428572
  0
VERTEX
  5
1572
  8
RIVERS
 10
1088153.419749771
 20
709225.74553755415
 30
1953.428572
  0
VERTEX
  5
1573
  8
RIVERS
 10
1088133.0750114999
 20
709316.4299219161
 30
1953.428572
  0
VERTEX
  5
1574
  8
RIVERS
 10
1088198.5580874931
 20
709365.07628780196
 30
1953.428572
  0
VERTEX
  5
1575
  8
RIVERS
 10
1088307.503900402
 20
709349.14010426158
 30
1953.428572
  0
VERTEX
  5
1576
  8
RIVERS
 10
1088392.897131067
 20
709342.10166165419
 30
1953.428572
  0
VERTEX
  5
1577
  8
RIVERS
 10
1088337.7813092971
 20
709415.22353377531
 30
1953.428572
  0
VERTEX
  5
1578
  8
RIVERS
 10
1088259.946228428
 20
709500.19562003785
 30
1953.428572
  0
VERTEX
  5
1579
  8
RIVERS
 10
1088217.9261264049
 20
709563.24593001045
 30
1953.428572
  0
VERTEX
  5
157A
  8
RIVERS
 10
1088227.7154319619
 20
709641.11237024586
 30
1953.428572
  0
VERTEX
  5
157B
  8
RIVERS
 10
1088273.7991022449
 20
709663.54489549715
 30
1953.428572
  0
VERTEX
  5
157C
  8
RIVERS
 10
1088333.068096834
 20
709678.88073294784
 30
1953.428572
  0
VERTEX
  5
157D
  8
RIVERS
 10
1088416.180888487
 20
709694.98717109626
 30
1953.428572
  0
VERTEX
  5
157E
  8
RIVERS
 10
1088453.8775630819
 20
709735.5377561138
 30
1953.428572
  0
VERTEX
  5
157F
  8
RIVERS
 10
1088462.5423306739
 20
709800.78338150994
 30
1953.428572
  0
VERTEX
  5
1580
  8
RIVERS
 10
1088498.675402734
 20
709888.27784206765
 30
1953.428572
  0
VERTEX
  5
1581
  8
RIVERS
 10
1088561.6137070069
 20
709926.5793511552
 30
1953.428572
  0
VERTEX
  5
1582
  8
RIVERS
 10
1088638.436251895
 20
709956.27433412848
 30
1953.428572
  0
VERTEX
  5
1583
  8
RIVERS
 10
1088754.677506126
 20
709998.72875663277
 30
1953.428572
  0
SEQEND
  5
1584
  8
RIVERS
  0
POLYLINE
  5
8E
  8
RIVERS
 66
     1
 10
0.0
 20
0.0
 30
0.0
 40
10.0
 41
10.0
  0
VERTEX
  5
1585
  8
RIVERS
 10
1088754.677506126
 20
709998.72875663277
 30
0.0
  0
VERTEX
  5
1586
  8
RIVERS
 10
1088694.5287618779
 20
709965.00630885572
 30
0.0
  0
VERTEX
  5
1587
  8
RIVERS
 10
1088643.5392382471
 20
709903.26870419329
 30
0.0
  0
VERTEX
  5
1588
  8
RIVERS
 10
1088551.5914281099
 20
709890.4059540712
 30
0.0
  0
VERTEX
  5
1589
  8
RIVERS
 10
1088510.9915635569
 20
709827.61101486383
 30
0.0
  0
VERTEX
  5
158A
  8
RIVERS
 10
1088484.459629708
 20
709737.59418372682
 30
0.0
  0
VERTEX
  5
158B
  8
RIVERS
 10
1088459.5943421531
 20
709653.48229900643
 30
0.0
  0
VERTEX
  5
158C
  8
RIVERS
 10
1088402.2384063951
 20
709652.23231242865
 30
0.0
  0
VERTEX
  5
158D
  8
RIVERS
 10
1088296.5407624829
 20
709652.43839994306
 30
0.0
  0
VERTEX
  5
158E
  8
RIVERS
 10
1088257.925641153
 20
709581.39535285905
 30
0.0
  0
VERTEX
  5
158F
  8
RIVERS
 10
1088309.6140848061
 20
709518.05382806784
 30
0.0
  0
VERTEX
  5
1590
  8
RIVERS
 10
1088340.7696228421
 20
709465.00787682389
 30
0.0
  0
VERTEX
  5
1591
  8
RIVERS
 10
1088354.6135421479
 20
709430.34879902506
 30
0.0
  0
VERTEX
  5
1592
  8
RIVERS
 10
1088420.589446933
 20
709371.78768268495
 30
0.0
  0
VERTEX
  5
1593
  8
RIVERS
 10
1088432.385900568
 20
709318.58044249087
 30
0.0
  0
VERTEX
  5
1594
  8
RIVERS
 10
1088369.1519005049
 20
709295.17570628307
 30
0.0
  0
VERTEX
  5
1595
  8
RIVERS
 10
1088279.067865948
 20
709319.47648437053
 30
0.0
  0
VERTEX
  5
1596
  8
RIVERS
 10
1088204.471995851
 20
709314.2794124881
 30
0.0
  0
VERTEX
  5
1597
  8
RIVERS
 10
1088177.164980334
 20
709272.67149292526
 30
0.0
  0
VERTEX
  5
1598
  8
RIVERS
 10
1088222.1375555641
 20
709208.78785980621
 30
0.0
  0
VERTEX
  5
1599
  8
RIVERS
 10
1088327.7366366901
 20
709131.16783582489
 30
0.0
  0
VERTEX
  5
159A
  8
RIVERS
 10
1088406.4946452649
 20
709052.12309711846
 30
0.0
  0
VERTEX
  5
159B
  8
RIVERS
 10
1088431.7900391649
 20
709002.23122934182
 30
0.0
  0
VERTEX
  5
159C
  8
RIVERS
 10
1088368.8786170019
 20
708940.10832433042
 30
0.0
  0
VERTEX
  5
159D
  8
RIVERS
 10
1088335.5188090319
 20
708845.83079193067
 30
0.0
  0
VERTEX
  5
159E
  8
RIVERS
 10
1088320.3666653871
 20
708762.91512956552
 30
0.0
  0
VERTEX
  5
159F
  8
RIVERS
 10
1088372.0551090401
 20
708699.57360477443
 30
0.0
  0
VERTEX
  5
15A0
  8
RIVERS
 10
1088371.105302939
 20
708593.8983620021
 30
0.0
  0
VERTEX
  5
15A1
  8
RIVERS
 10
1088394.4204345869
 20
708527.68948759139
 30
0.0
  0
VERTEX
  5
15A2
  8
RIVERS
 10
1088392.36401069
 20
708434.7022630776
 30
0.0
  0
VERTEX
  5
15A3
  8
RIVERS
 10
1088382.328292595
 20
708348.65491838544
 30
0.0
  0
VERTEX
  5
15A4
  8
RIVERS
 10
1088400.173061427
 20
708249.11311439925
 30
0.0
  0
VERTEX
  5
15A5
  8
RIVERS
 10
1088417.83862114
 20
708143.62156171713
 30
0.0
  0
VERTEX
  5
15A6
  8
RIVERS
 10
1088451.480689418
 20
708049.55908248934
 30
0.0
  0
VERTEX
  5
15A7
  8
RIVERS
 10
1088535.350642571
 20
707991.94777596637
 30
0.0
  0
VERTEX
  5
15A8
  8
RIVERS
 10
1088609.3013605841
 20
707951.0118943156
 30
0.0
  0
VERTEX
  5
15A9
  8
RIVERS
 10
1088616.1874798981
 20
707883.06468922098
 30
0.0
  0
VERTEX
  5
15AA
  8
RIVERS
 10
1088567.016929569
 20
707857.00317559426
 30
0.0
  0
VERTEX
  5
15AB
  8
RIVERS
 10
1088530.4985571599
 20
707781.4306135684
 30
0.0
  0
VERTEX
  5
15AC
  8
RIVERS
 10
1088488.3171699031
 20
707740.27071680326
 30
0.0
  0
VERTEX
  5
15AD
  8
RIVERS
 10
1088420.844869717
 20
707724.4375733044
 30
0.0
  0
VERTEX
  5
15AE
  8
RIVERS
 10
1088382.6553700441
 20
707667.52517937298
 30
0.0
  0
VERTEX
  5
15AF
  8
RIVERS
 10
1088383.3722102351
 20
707567.75488301716
 30
0.0
  0
VERTEX
  5
15B0
  8
RIVERS
 10
1088395.424038351
 20
707473.59831825877
 30
0.0
  0
VERTEX
  5
15B1
  8
RIVERS
 10
1088434.1063668169
 20
707423.30322996411
 30
0.0
  0
VERTEX
  5
15B2
  8
RIVERS
 10
1088449.8723068959
 20
707353.599774017
 30
0.0
  0
VERTEX
  5
15B3
  8
RIVERS
 10
1088415.7642993671
 20
707283.90975726745
 30
0.0
  0
VERTEX
  5
15B4
  8
RIVERS
 10
1088359.084878776
 20
707280.40621378936
 30
0.0
  0
VERTEX
  5
15B5
  8
RIVERS
 10
1088373.179691592
 20
707229.36292593635
 30
0.0
  0
VERTEX
  5
15B6
  8
RIVERS
 10
1088393.1525687119
 20
707200.47438771441
 30
0.0
  0
VERTEX
  5
15B7
  8
RIVERS
 10
1088387.395472049
 20
707132.90800199786
 30
0.0
  0
VERTEX
  5
15B8
  8
RIVERS
 10
1088419.0348769361
 20
707021.78479754913
 30
0.0
  0
VERTEX
  5
15B9
  8
RIVERS
 10
1088447.6456432531
 20
706958.39398950688
 30
0.0
  0
VERTEX
  5
15BA
  8
RIVERS
 10
1088505.422723412
 20
706874.77045260824
 30
0.0
  0
VERTEX
  5
15BB
  8
RIVERS
 10
1088517.201256878
 20
706796.25437931635
 30
0.0
  0
VERTEX
  5
15BC
  8
RIVERS
 10
1088491.6818552951
 20
706715.1397700836
 30
0.0
  0
VERTEX
  5
15BD
  8
RIVERS
 10
1088528.814024138
 20
706638.09321379731
 30
0.0
  0
VERTEX
  5
15BE
  8
RIVERS
 10
1088546.3003747331
 20
706526.65191241924
 30
0.0
  0
VERTEX
  5
15BF
  8
RIVERS
 10
1088526.869609656
 20
706425.25529107871
 30
0.0
  0
VERTEX
  5
15C0
  8
RIVERS
 10
1088485.7500379151
 20
706369.91993888095
 30
0.0
  0
VERTEX
  5
15C1
  8
RIVERS
 10
1088519.1367317119
 20
706316.80678421736
 30
0.0
  0
VERTEX
  5
15C2
  8
RIVERS
 10
1088527.1966722431
 20
706238.4027166256
 30
0.0
  0
VERTEX
  5
15C3
  8
RIVERS
 10
1088523.585607752
 20
706143.22913863068
 30
0.0
  0
VERTEX
  5
15C4
  8
RIVERS
 10
1088527.702943949
 20
706057.49989086762
 30
0.0
  0
VERTEX
  5
15C5
  8
RIVERS
 10
1088565.686356107
 20
706008.71464088699
 30
0.0
  0
VERTEX
  5
15C6
  8
RIVERS
 10
1088555.96425397
 20
705933.07935641287
 30
0.0
  0
VERTEX
  5
15C7
  8
RIVERS
 10
1088513.0033077879
 20
705841.32419459242
 30
0.0
  0
VERTEX
  5
15C8
  8
RIVERS
 10
1088490.0958813441
 20
705772.78559791856
 30
0.0
  0
VERTEX
  5
15C9
  8
RIVERS
 10
1088501.605601131
 20
705685.34490158316
 30
0.0
  0
VERTEX
  5
15CA
  8
RIVERS
 10
1088495.42288281
 20
705603.64786271355
 30
0.0
  0
VERTEX
  5
15CB
  8
RIVERS
 10
1088475.987636762
 20
705526.81635588408
 30
0.0
  0
VERTEX
  5
15CC
  8
RIVERS
 10
1088453.9628167159
 20
705438.15255508188
 30
0.0
  0
VERTEX
  5
15CD
  8
RIVERS
 10
1088442.099163377
 20
705365.55934837519
 30
0.0
  0
VERTEX
  5
15CE
  8
RIVERS
 10
1088480.423073604
 20
705303.36476268887
 30
0.0
  0
VERTEX
  5
15CF
  8
RIVERS
 10
1088541.649933021
 20
705210.7045970466
 30
0.0
  0
VERTEX
  5
15D0
  8
RIVERS
 10
1088592.733545898
 20
705127.28267040674
 30
0.0
  0
VERTEX
  5
15D1
  8
RIVERS
 10
1088628.8800645859
 20
705017.51249629282
 30
0.0
  0
VERTEX
  5
15D2
  8
RIVERS
 10
1088695.15166516
 20
704944.05460707296
 30
0.0
  0
VERTEX
  5
15D3
  8
RIVERS
 10
1088766.9697939139
 20
704857.03057416878
 30
0.0
  0
VERTEX
  5
15D4
  8
RIVERS
 10
1088862.7258052621
 20
704749.18690179964
 30
0.0
  0
VERTEX
  5
15D5
  8
RIVERS
 10
1088942.9712510109
 20
704670.09736081341
 30
0.0
  0
VERTEX
  5
15D6
  8
RIVERS
 10
1088951.5060964499
 20
704582.74626903736
 30
0.0
  0
VERTEX
  5
15D7
  8
RIVERS
 10
1088905.0236866211
 20
704522.36169470986
 30
0.0
  0
VERTEX
  5
15D8
  8
RIVERS
 10
1088832.578329667
 20
704464.99231603858
 30
0.0
  0
VERTEX
  5
15D9
  8
RIVERS
 10
1088809.0123082241
 20
704424.01610936387
 30
0.0
  0
VERTEX
  5
15DA
  8
RIVERS
 10
1088824.0076476049
 20
704378.15645048022
 30
0.0
  0
VERTEX
  5
15DB
  8
RIVERS
 10
1088881.2874217171
 20
704302.73621917795
 30
0.0
  0
VERTEX
  5
15DC
  8
RIVERS
 10
1088924.2976548651
 20
704247.84441252216
 30
0.0
  0
VERTEX
  5
15DD
  8
RIVERS
 10
1088955.7309685219
 20
704154.59285530099
 30
0.0
  0
VERTEX
  5
15DE
  8
RIVERS
 10
1088953.5177366449
 20
704056.39960067847
 30
0.0
  0
VERTEX
  5
15DF
  8
RIVERS
 10
1088946.8108301649
 20
704006.72726332932
 30
0.0
  0
VERTEX
  5
15E0
  8
RIVERS
 10
1088974.8122847341
 20
703947.82116794877
 30
0.0
  0
VERTEX
  5
15E1
  8
RIVERS
 10
1089016.6531776381
 20
703878.82110928034
 30
0.0
  0
VERTEX
  5
15E2
  8
RIVERS
 10
1089097.1629560939
 20
703833.22130584845
 30
0.0
  0
VERTEX
  5
15E3
  8
RIVERS
 10
1089198.326604093
 20
703855.48358392296
 30
0.0
  0
VERTEX
  5
15E4
  8
RIVERS
 10
1089291.4482354459
 20
703857.88947154745
 30
0.0
  0
VERTEX
  5
15E5
  8
RIVERS
 10
1089380.6944658849
 20
703855.20133476215
 30
0.0
  0
VERTEX
  5
15E6
  8
RIVERS
 10
1089468.9998484489
 20
703821.27701732353
 30
0.0
  0
VERTEX
  5
15E7
  8
RIVERS
 10
1089549.2228930581
 20
703741.44375775033
 30
0.0
  0
VERTEX
  5
15E8
  8
RIVERS
 10
1089588.7878279211
 20
703671.02346532745
 30
0.0
  0
VERTEX
  5
15E9
  8
RIVERS
 10
1089649.6069858479
 20
703589.54147962993
 30
0.0
  0
VERTEX
  5
15EA
  8
RIVERS
 10
1089717.3615426261
 20
703540.60390264087
 30
0.0
  0
VERTEX
  5
15EB
  8
RIVERS
 10
1089796.088188119
 20
703509.94567436876
 30
0.0
  0
VERTEX
  5
15EC
  8
RIVERS
 10
1089880.8541868669
 20
703482.0831113254
 30
0.0
  0
VERTEX
  5
15ED
  8
RIVERS
 10
1089956.0996937361
 20
703385.27873109072
 30
0.0
  0
VERTEX
  5
15EE
  8
RIVERS
 10
1089943.1518237421
 20
703326.11726122978
 30
0.0
  0
VERTEX
  5
15EF
  8
RIVERS
 10
1089834.3493796131
 20
703297.38552727085
 30
0.0
  0
VERTEX
  5
15F0
  8
RIVERS
 10
1089754.372751259
 20
703261.83040016133
 30
0.0
  0
VERTEX
  5
15F1
  8
RIVERS
 10
1089686.725722925
 20
703215.48239345604
 30
0.0
  0
VERTEX
  5
15F2
  8
RIVERS
 10
1089675.5341037819
 20
703165.20074435906
 30
0.0
  0
VERTEX
  5
15F3
  8
RIVERS
 10
1089775.1341529619
 20
703110.83760683355
 30
0.0
  0
VERTEX
  5
15F4
  8
RIVERS
 10
1089864.9941761191
 20
703079.09964287619
 30
0.0
  0
VERTEX
  5
15F5
  8
RIVERS
 10
1089937.0990387199
 20
703026.30906611285
 30
0.0
  0
VERTEX
  5
15F6
  8
RIVERS
 10
1089977.5152168979
 20
702984.15007999574
 30
0.0
  0
VERTEX
  5
15F7
  8
RIVERS
 10
1089971.484825585
 20
702932.22418574558
 30
0.0
  0
VERTEX
  5
15F8
  8
RIVERS
 10
1089935.3069512451
 20
702843.24228801415
 30
0.0
  0
VERTEX
  5
15F9
  8
RIVERS
 10
1089905.6164529589
 20
702771.9304272515
 30
0.0
  0
VERTEX
  5
15FA
  8
RIVERS
 10
1089928.0982614609
 20
702702.76907963248
 30
0.0
  0
VERTEX
  5
15FB
  8
RIVERS
 10
1089981.1307735071
 20
702684.05067006068
 30
0.0
  0
VERTEX
  5
15FC
  8
RIVERS
 10
1089997.9338593259
 20
702682.25127573626
 30
0.0
  0
VERTEX
  5
15FD
  8
RIVERS
 10
1090100.735762913
 20
702630.94762187055
 30
0.0
  0
VERTEX
  5
15FE
  8
RIVERS
 10
1090110.0957629131
 20
702618.46762187092
 30
0.0
  0
VERTEX
  5
15FF
  8
RIVERS
 10
1090156.8957629129
 20
702584.14762187074
 30
0.0
  0
VERTEX
  5
1600
  8
RIVERS
 10
1090178.7357629139
 20
702556.06762187066
 30
0.0
  0
VERTEX
  5
1601
  8
RIVERS
 10
1090191.215762913
 20
702499.90762187052
 30
0.0
  0
VERTEX
  5
1602
  8
RIVERS
 10
1090231.7757629131
 20
702421.90762187052
 30
0.0
  0
VERTEX
  5
1603
  8
RIVERS
 10
1090275.455762913
 20
702353.26762187073
 30
0.0
  0
VERTEX
  5
1604
  8
RIVERS
 10
1090325.3757629129
 20
702318.94762187079
 30
0.0
  0
VERTEX
  5
1605
  8
RIVERS
 10
1090353.455762913
 20
702278.3876218705
 30
0.0
  0
VERTEX
  5
1606
  8
RIVERS
 10
1090390.8957629141
 20
702219.10762187047
 30
0.0
  0
VERTEX
  5
1607
  8
RIVERS
 10
1090409.6157629129
 20
702172.30762187042
 30
0.0
  0
VERTEX
  5
1608
  8
RIVERS
 10
1090412.7357629139
 20
702116.14762187097
 30
0.0
  0
VERTEX
  5
1609
  8
RIVERS
 10
1090418.975762913
 20
702063.10762187035
 30
0.0
  0
VERTEX
  5
160A
  8
RIVERS
 10
1090428.3357629131
 20
701969.50762187096
 30
0.0
  0
VERTEX
  5
160B
  8
RIVERS
 10
1090409.6157629129
 20
701907.1076218707
 30
0.0
  0
VERTEX
  5
160C
  8
RIVERS
 10
1090406.495762913
 20
701816.62762187072
 30
0.0
  0
VERTEX
  5
160D
  8
RIVERS
 10
1090509.4557629139
 20
701691.82762187067
 30
0.0
  0
VERTEX
  5
160E
  8
RIVERS
 10
1090587.4557629139
 20
701635.66762187076
 30
0.0
  0
VERTEX
  5
160F
  8
RIVERS
 10
1090652.975762913
 20
701616.94762187055
 30
0.0
  0
VERTEX
  5
1610
  8
RIVERS
 10
1090671.6957629139
 20
701616.94762187055
 30
0.0
  0
VERTEX
  5
1611
  8
RIVERS
 10
1090693.5357629131
 20
701595.1076218707
 30
0.0
  0
VERTEX
  5
1612
  8
RIVERS
 10
1090759.0557629131
 20
701591.98762187106
 30
0.0
  0
VERTEX
  5
1613
  8
RIVERS
 10
1090802.735762913
 20
701576.38762187096
 30
0.0
  0
VERTEX
  5
1614
  8
RIVERS
 10
1090830.8157629131
 20
701551.42762187065
 30
0.0
  0
VERTEX
  5
1615
  8
RIVERS
 10
1090862.015762913
 20
701529.58762187045
 30
0.0
  0
VERTEX
  5
1616
  8
RIVERS
 10
1090955.6157629129
 20
701411.02762187074
 30
0.0
  0
VERTEX
  5
1617
  8
RIVERS
 10
1090974.3357629131
 20
701370.4676218708
 30
0.0
  0
VERTEX
  5
1618
  8
RIVERS
 10
1091021.1357629141
 20
701217.58762187045
 30
0.0
  0
VERTEX
  5
1619
  8
RIVERS
 10
1091024.255762913
 20
701192.62762187049
 30
0.0
  0
VERTEX
  5
161A
  8
RIVERS
 10
1091005.5357629131
 20
701108.38762187096
 30
0.0
  0
VERTEX
  5
161B
  8
RIVERS
 10
1091005.5357629131
 20
701095.90762187052
 30
0.0
  0
VERTEX
  5
161C
  8
RIVERS
 10
1090993.055762914
 20
701058.46762187046
 30
0.0
  0
VERTEX
  5
161D
  8
RIVERS
 10
1090993.055762914
 20
700924.30762187089
 30
0.0
  0
VERTEX
  5
161E
  8
RIVERS
 10
1090996.175762913
 20
700908.70762187056
 30
0.0
  0
VERTEX
  5
161F
  8
RIVERS
 10
1091036.7357629139
 20
700868.14762187097
 30
0.0
  0
VERTEX
  5
1620
  8
RIVERS
 10
1091161.5357629131
 20
700802.6276218706
 30
0.0
  0
VERTEX
  5
1621
  8
RIVERS
 10
1091264.495762914
 20
700818.22762187081
 30
0.0
  0
VERTEX
  5
1622
  8
RIVERS
 10
1091280.0957629131
 20
700811.98762187071
 30
0.0
  0
VERTEX
  5
1623
  8
RIVERS
 10
1091364.3357629131
 20
700821.34762187058
 30
0.0
  0
VERTEX
  5
1624
  8
RIVERS
 10
1091379.935762913
 20
700818.22762187081
 30
0.0
  0
VERTEX
  5
1625
  8
RIVERS
 10
1091442.3357629131
 20
700746.46762187057
 30
0.0
  0
VERTEX
  5
1626
  8
RIVERS
 10
1091448.575762914
 20
700733.98762187071
 30
0.0
  0
VERTEX
  5
1627
  8
RIVERS
 10
1091501.6157629129
 20
700680.94762187044
 30
0.0
  0
VERTEX
  5
1628
  8
RIVERS
 10
1091517.2157629139
 20
700668.46762187046
 30
0.0
  0
VERTEX
  5
1629
  8
RIVERS
 10
1091613.935762913
 20
700596.7076218708
 30
0.0
  0
VERTEX
  5
162A
  8
RIVERS
 10
1091651.3757629141
 20
700556.14762187097
 30
0.0
  0
VERTEX
  5
162B
  8
RIVERS
 10
1091676.335762914
 20
700540.54762187065
 30
0.0
  0
VERTEX
  5
162C
  8
RIVERS
 10
1091707.5357629131
 20
700512.46762187057
 30
0.0
  0
VERTEX
  5
162D
  8
RIVERS
 10
1091723.1357629141
 20
700509.34762187081
 30
0.0
  0
VERTEX
  5
162E
  8
RIVERS
 10
1091763.695762913
 20
700471.90762187075
 30
0.0
  0
VERTEX
  5
162F
  8
RIVERS
 10
1091810.495762913
 20
700459.42762187112
 30
0.0
  0
VERTEX
  5
1630
  8
RIVERS
 10
1091950.8957629129
 20
700403.26762187097
 30
0.0
  0
VERTEX
  5
1631
  8
RIVERS
 10
1091985.215762913
 20
700381.42762187088
 30
0.0
  0
VERTEX
  5
1632
  8
RIVERS
 10
1092003.935762913
 20
700378.30762187066
 30
0.0
  0
VERTEX
  5
1633
  8
RIVERS
 10
1092028.895762912
 20
700365.82762187067
 30
0.0
  0
VERTEX
  5
1634
  8
RIVERS
 10
1092060.0957629131
 20
700319.02762187074
 30
0.0
  0
VERTEX
  5
1635
  8
RIVERS
 10
1092106.895762912
 20
700234.78762187052
 30
0.0
  0
VERTEX
  5
1636
  8
RIVERS
 10
1092181.7757629131
 20
700081.90762187075
 30
0.0
  0
VERTEX
  5
1637
  8
RIVERS
 10
1092188.015762913
 20
700056.94762187067
 30
0.0
  0
VERTEX
  5
1638
  8
RIVERS
 10
1092219.2157629139
 20
699991.42762187065
 30
0.0
  0
VERTEX
  5
1639
  8
RIVERS
 10
1092225.455762913
 20
699982.06762187066
 30
0.0
  0
VERTEX
  5
163A
  8
RIVERS
 10
1092267.393422243
 20
699829.29265097622
 30
0.0
  0
VERTEX
  5
163B
  8
RIVERS
 10
1092311.2560854519
 20
699820.2569497322
 30
0.0
  0
VERTEX
  5
163C
  8
RIVERS
 10
1092422.9269311421
 20
699859.39959569357
 30
0.0
  0
VERTEX
  5
163D
  8
RIVERS
 10
1092544.8360230711
 20
699828.59764497424
 30
0.0
  0
VERTEX
  5
163E
  8
RIVERS
 10
1092615.3716441719
 20
699777.84128458123
 30
0.0
  0
VERTEX
  5
163F
  8
RIVERS
 10
1092653.0639279841
 20
699681.05044432974
 30
0.0
  0
VERTEX
  5
1640
  8
RIVERS
 10
1092585.78900803
 20
699548.81925825169
 30
0.0
  0
VERTEX
  5
1641
  8
RIVERS
 10
1092595.285303612
 20
699479.62033880129
 30
0.0
  0
VERTEX
  5
1642
  8
RIVERS
 10
1092782.6910148589
 20
699465.01832558855
 30
0.0
  0
VERTEX
  5
1643
  8
RIVERS
 10
1092871.991543645
 20
699481.90245185886
 30
0.0
  0
VERTEX
  5
1644
  8
RIVERS
 10
1093087.9249081819
 20
699572.10739974189
 30
0.0
  0
VERTEX
  5
1645
  8
RIVERS
 10
1093230.8732052259
 20
699626.04806651943
 30
0.0
  0
VERTEX
  5
1646
  8
RIVERS
 10
1093330.3840309491
 20
699561.83038696041
 30
0.0
  0
VERTEX
  5
1647
  8
RIVERS
 10
1093362.040092018
 20
699430.83901161503
 30
0.0
  0
VERTEX
  5
1648
  8
RIVERS
 10
1093338.693050314
 20
699315.60561230616
 30
0.0
  0
VERTEX
  5
1649
  8
RIVERS
 10
1093292.2672802131
 20
699192.24802151439
 30
0.0
  0
VERTEX
  5
164A
  8
RIVERS
 10
1093355.236195087
 20
699090.18713190674
 30
0.0
  0
VERTEX
  5
164B
  8
RIVERS
 10
1093524.022335022
 20
699065.96211960388
 30
0.0
  0
VERTEX
  5
164C
  8
RIVERS
 10
1093659.5250394859
 20
699116.94616347703
 30
0.0
  0
VERTEX
  5
164D
  8
RIVERS
 10
1093733.302366382
 20
699172.54774382
 30
0.0
  0
VERTEX
  5
164E
  8
RIVERS
 10
1093870.169721798
 20
699174.4363408658
 30
0.0
  0
VERTEX
  5
164F
  8
RIVERS
 10
1093945.028480042
 20
699067.88275500876
 30
0.0
  0
VERTEX
  5
1650
  8
RIVERS
 10
1094005.711917768
 20
698944.25685090804
 30
0.0
  0
VERTEX
  5
1651
  8
RIVERS
 10
1094201.271633086
 20
698918.4771323913
 30
0.0
  0
VERTEX
  5
1652
  8
RIVERS
 10
1094288.206563388
 20
698881.81224460888
 30
0.0
  0
VERTEX
  5
1653
  8
RIVERS
 10
1094338.6238055711
 20
698816.97372804
 30
0.0
  0
VERTEX
  5
1654
  8
RIVERS
 10
1094340.7266806071
 20
698765.64497609611
 30
0.0
  0
VERTEX
  5
1655
  8
RIVERS
 10
1094228.0157583619
 20
698608.23777644685
 30
0.0
  0
VERTEX
  5
1656
  8
RIVERS
 10
1094169.6200235549
 20
698457.38888234505
 30
0.0
  0
VERTEX
  5
1657
  8
RIVERS
 10
1094181.385026705
 20
698403.06065189885
 30
0.0
  0
VERTEX
  5
1658
  8
RIVERS
 10
1094225.8964762271
 20
698356.08857626247
 30
0.0
  0
VERTEX
  5
1659
  8
RIVERS
 10
1094300.852125389
 20
698288.21331545408
 30
0.0
  0
VERTEX
  5
165A
  8
RIVERS
 10
1094359.4979031179
 20
698241.94965131057
 30
0.0
  0
VERTEX
  5
165B
  8
RIVERS
 10
1094483.5191865179
 20
698163.53801836341
 30
0.0
  0
VERTEX
  5
165C
  8
RIVERS
 10
1094518.189632386
 20
698048.15928267874
 30
0.0
  0
VERTEX
  5
165D
  8
RIVERS
 10
1094488.1370854699
 20
697928.47976929205
 30
0.0
  0
VERTEX
  5
165E
  8
RIVERS
 10
1094463.386263788
 20
697846.72172400251
 30
0.0
  0
VERTEX
  5
165F
  8
RIVERS
 10
1094518.8928165
 20
697735.00988600135
 30
0.0
  0
VERTEX
  5
1660
  8
RIVERS
 10
1094608.7471039691
 20
697676.02312677458
 30
0.0
  0
VERTEX
  5
1661
  8
RIVERS
 10
1094709.2402443551
 20
697707.01176866307
 30
0.0
  0
VERTEX
  5
1662
  8
RIVERS
 10
1094796.350323623
 20
697740.26539154525
 30
0.0
  0
VERTEX
  5
1663
  8
RIVERS
 10
1094860.290373439
 20
697728.94793972583
 30
0.0
  0
VERTEX
  5
1664
  8
RIVERS
 10
1094909.7923792859
 20
697595.68040366576
 30
0.0
  0
VERTEX
  5
1665
  8
RIVERS
 10
1094924.961556671
 20
697415.63830037799
 30
0.0
  0
VERTEX
  5
1666
  8
RIVERS
 10
1094660.7700860761
 20
697064.47390877781
 30
0.0
  0
VERTEX
  5
1667
  8
RIVERS
 10
1094583.834901294
 20
696935.98601514485
 30
0.0
  0
VERTEX
  5
1668
  8
RIVERS
 10
1094614.1151316899
 20
696849.62720296776
 30
0.0
  0
VERTEX
  5
1669
  8
RIVERS
 10
1094688.3735490809
 20
696800.34915402706
 30
0.0
  0
VERTEX
  5
166A
  8
RIVERS
 10
1094805.8793825309
 20
696793.36042921257
 30
0.0
  0
VERTEX
  5
166B
  8
RIVERS
 10
1094938.9792227719
 20
696775.91918016865
 30
0.0
  0
VERTEX
  5
166C
  8
RIVERS
 10
1095038.7881743941
 20
696830.71173152782
 30
0.0
  0
VERTEX
  5
166D
  8
RIVERS
 10
1095170.7152822299
 20
696938.97876546474
 30
0.0
  0
VERTEX
  5
166E
  8
RIVERS
 10
1095274.8902265951
 20
696955.08181205415
 30
0.0
  0
VERTEX
  5
166F
  8
RIVERS
 10
1095403.488054153
 20
696922.0316499233
 30
0.0
  0
VERTEX
  5
1670
  8
RIVERS
 10
1095520.867184096
 20
696864.46357696864
 30
0.0
  0
VERTEX
  5
1671
  8
RIVERS
 10
1095596.044564395
 20
696885.10217540548
 30
0.0
  0
VERTEX
  5
1672
  8
RIVERS
 10
1095711.070776379
 20
697075.97541263991
 30
0.0
  0
VERTEX
  5
1673
  8
RIVERS
 10
1095836.0650580069
 20
697089.05103142443
 30
0.0
  0
VERTEX
  5
1674
  8
RIVERS
 10
1095906.123315186
 20
697144.66192820156
 30
0.0
  0
VERTEX
  5
1675
  8
RIVERS
 10
1095916.8627855941
 20
697274.80328225216
 30
0.0
  0
VERTEX
  5
1676
  8
RIVERS
 10
1095934.9640006721
 20
697374.42963176116
 30
0.0
  0
VERTEX
  5
1677
  8
RIVERS
 10
1096022.1523379891
 20
697438.92344025918
 30
0.0
  0
VERTEX
  5
1678
  8
RIVERS
 10
1096083.922434441
 20
697452.15743842721
 30
0.0
  0
VERTEX
  5
1679
  8
RIVERS
 10
1096208.398359837
 20
697555.23640763026
 30
0.0
  0
VERTEX
  5
167A
  8
RIVERS
 10
1096303.738837939
 20
697607.80869688105
 30
0.0
  0
VERTEX
  5
167B
  8
RIVERS
 10
1096403.5664224301
 20
697670.03938767256
 30
0.0
  0
VERTEX
  5
167C
  8
RIVERS
 10
1096494.4719661761
 20
697733.78006579285
 30
0.0
  0
VERTEX
  5
167D
  8
RIVERS
 10
1096579.225763394
 20
697717.20374433871
 30
0.0
  0
VERTEX
  5
167E
  8
RIVERS
 10
1096769.338417103
 20
697595.48507015256
 30
0.0
  0
VERTEX
  5
167F
  8
RIVERS
 10
1096815.6561165659
 20
697675.70145223616
 30
0.0
  0
VERTEX
  5
1680
  8
RIVERS
 10
1096935.555497803
 20
697733.4189506229
 30
0.0
  0
VERTEX
  5
1681
  8
RIVERS
 10
1097046.456443534
 20
697762.15006466547
 30
0.0
  0
VERTEX
  5
1682
  8
RIVERS
 10
1097286.171358099
 20
697844.11343399331
 30
0.0
  0
VERTEX
  5
1683
  8
RIVERS
 10
1097598.7968086831
 20
697932.58852669678
 30
0.0
  0
VERTEX
  5
1684
  8
RIVERS
 10
1097775.8040310179
 20
697923.96311104635
 30
0.0
  0
VERTEX
  5
1685
  8
RIVERS
 10
1097905.7795525379
 20
697847.02419969055
 30
0.0
  0
VERTEX
  5
1686
  8
RIVERS
 10
1098168.0384321669
 20
697723.63715879153
 30
0.0
  0
VERTEX
  5
1687
  8
RIVERS
 10
1098348.9901819299
 20
697805.00391383853
 30
0.0
  0
VERTEX
  5
1688
  8
RIVERS
 10
1098598.4697053879
 20
697924.87757154193
 30
0.0
  0
VERTEX
  5
1689
  8
RIVERS
 10
1098797.2375873381
 20
697992.06714278273
 30
0.0
  0
VERTEX
  5
168A
  8
RIVERS
 10
1099013.1076001211
 20
698056.98241659545
 30
0.0
  0
VERTEX
  5
168B
  8
RIVERS
 10
1099263.730043395
 20
698039.24676822615
 30
0.0
  0
VERTEX
  5
168C
  8
RIVERS
 10
1099472.1209244351
 20
698087.8167681566
 30
0.0
  0
VERTEX
  5
168D
  8
RIVERS
 10
1099750.4564021551
 20
698146.62501432654
 30
0.0
  0
VERTEX
  5
168E
  8
RIVERS
 10
1100039.238814245
 20
698218.79582545836
 30
0.0
  0
VERTEX
  5
168F
  8
RIVERS
 10
1100150.930156091
 20
698266.12042479566
 30
0.0
  0
VERTEX
  5
1690
  8
RIVERS
 10
1100129.7266192499
 20
698412.70580693264
 30
0.0
  0
VERTEX
  5
1691
  8
RIVERS
 10
1100102.4700900861
 20
698518.39632848685
 30
0.0
  0
VERTEX
  5
1692
  8
RIVERS
 10
1100151.889748828
 20
698649.18460556341
 30
0.0
  0
VERTEX
  5
1693
  8
RIVERS
 10
1100298.3577438931
 20
698623.52786397992
 30
0.0
  0
VERTEX
  5
1694
  8
RIVERS
 10
1100446.13076473
 20
698524.97362938547
 30
0.0
  0
VERTEX
  5
1695
  8
RIVERS
 10
1100685.683573338
 20
698542.22518565145
 30
0.0
  0
VERTEX
  5
1696
  8
RIVERS
 10
1100919.94210986
 20
698524.530529593
 30
0.0
  0
VERTEX
  5
1697
  8
RIVERS
 10
1101020.593992112
 20
698321.95973001805
 30
0.0
  0
VERTEX
  5
1698
  8
RIVERS
 10
1101171.381397747
 20
698239.01813508407
 30
0.0
  0
VERTEX
  5
1699
  8
RIVERS
 10
1101347.3165051681
 20
698396.26695534948
 30
0.0
  0
VERTEX
  5
169A
  8
RIVERS
 10
1101455.888755668
 20
698683.10896084341
 30
0.0
  0
VERTEX
  5
169B
  8
RIVERS
 10
1101507.3643447929
 20
699040.75676403404
 30
0.0
  0
VERTEX
  5
169C
  8
RIVERS
 10
1101577.084984567
 20
699258.520963724
 30
0.0
  0
VERTEX
  5
169D
  8
RIVERS
 10
1101709.067991009
 20
699389.10241595854
 30
0.0
  0
VERTEX
  5
169E
  8
RIVERS
 10
1101730.241352777
 20
699527.39963736816
 30
0.0
  0
VERTEX
  5
169F
  8
RIVERS
 10
1101546.9832672279
 20
699713.06954109145
 30
0.0
  0
VERTEX
  5
16A0
  8
RIVERS
 10
1101585.455762913
 20
699963.34762187034
 30
0.0
  0
VERTEX
  5
16A1
  8
RIVERS
 10
1101588.575762914
 20
699997.66762187076
 30
0.0
  0
VERTEX
  5
16A2
  8
RIVERS
 10
1101601.0557629131
 20
700056.94762187067
 30
0.0
  0
VERTEX
  5
16A3
  8
RIVERS
 10
1101601.0557629131
 20
700103.74762187072
 30
0.0
  0
VERTEX
  5
16A4
  8
RIVERS
 10
1101594.815762914
 20
700153.66762187087
 30
0.0
  0
VERTEX
  5
16A5
  8
RIVERS
 10
1101582.3357629131
 20
700187.98762187082
 30
0.0
  0
VERTEX
  5
16A6
  8
RIVERS
 10
1101569.8557629129
 20
700206.70762187045
 30
0.0
  0
VERTEX
  5
16A7
  8
RIVERS
 10
1101535.535762914
 20
700234.78762187052
 30
0.0
  0
VERTEX
  5
16A8
  8
RIVERS
 10
1101529.2957629131
 20
700244.14762187051
 30
0.0
  0
VERTEX
  5
16A9
  8
RIVERS
 10
1101494.975762913
 20
700262.86762187048
 30
0.0
  0
VERTEX
  5
16AA
  8
RIVERS
 10
1101479.3757629129
 20
700256.62762187095
 30
0.0
  0
VERTEX
  5
16AB
  8
RIVERS
 10
1101460.655762912
 20
700265.98762187094
 30
0.0
  0
VERTEX
  5
16AC
  8
RIVERS
 10
1101401.3757629129
 20
700281.58762187057
 30
0.0
  0
VERTEX
  5
16AD
  8
RIVERS
 10
1101379.5357629131
 20
700284.70762187114
 30
0.0
  0
VERTEX
  5
16AE
  8
RIVERS
 10
1101370.175762913
 20
700297.18762187078
 30
0.0
  0
VERTEX
  5
16AF
  8
RIVERS
 10
1101351.455762913
 20
700356.46762187046
 30
0.0
  0
VERTEX
  5
16B0
  8
RIVERS
 10
1101379.5357629131
 20
700431.34762187081
 30
0.0
  0
VERTEX
  5
16B1
  8
RIVERS
 10
1101413.8557629129
 20
700490.62762187107
 30
0.0
  0
VERTEX
  5
16B2
  8
RIVERS
 10
1101435.695762913
 20
700499.98762187082
 30
0.0
  0
VERTEX
  5
16B3
  8
RIVERS
 10
1101463.7757629131
 20
700493.7476218706
 30
0.0
  0
VERTEX
  5
16B4
  8
RIVERS
 10
1101494.975762913
 20
700496.86762187048
 30
0.0
  0
VERTEX
  5
16B5
  8
RIVERS
 10
1101554.255762913
 20
700506.22762187046
 30
0.0
  0
VERTEX
  5
16B6
  8
RIVERS
 10
1101622.8957629141
 20
700534.30762187066
 30
0.0
  0
VERTEX
  5
16B7
  8
RIVERS
 10
1101647.8557629129
 20
700549.90762187063
 30
0.0
  0
VERTEX
  5
16B8
  8
RIVERS
 10
1101657.215762913
 20
700559.26762187073
 30
0.0
  0
VERTEX
  5
16B9
  8
RIVERS
 10
1101682.175762913
 20
700581.10762187047
 30
0.0
  0
VERTEX
  5
16BA
  8
RIVERS
 10
1101700.8957629129
 20
700606.06762187078
 30
0.0
  0
VERTEX
  5
16BB
  8
RIVERS
 10
1101728.975762913
 20
700687.18762187066
 30
0.0
  0
VERTEX
  5
16BC
  8
RIVERS
 10
1101732.0957629131
 20
700705.90762187063
 30
0.0
  0
VERTEX
  5
16BD
  8
RIVERS
 10
1101766.4157629129
 20
700793.26762187073
 30
0.0
  0
VERTEX
  5
16BE
  8
RIVERS
 10
1101778.8957629129
 20
700855.66762187041
 30
0.0
  0
VERTEX
  5
16BF
  8
RIVERS
 10
1101791.3757629129
 20
700886.86762187083
 30
0.0
  0
VERTEX
  5
16C0
  8
RIVERS
 10
1101803.8557629129
 20
700908.70762187056
 30
0.0
  0
VERTEX
  5
16C1
  8
RIVERS
 10
1101816.335762914
 20
700964.86762187071
 30
0.0
  0
VERTEX
  5
16C2
  8
RIVERS
 10
1101828.8157629131
 20
700996.06762187066
 30
0.0
  0
VERTEX
  5
16C3
  8
RIVERS
 10
1101838.1757629139
 20
701024.14762187086
 30
0.0
  0
VERTEX
  5
16C4
  8
RIVERS
 10
1101853.7757629131
 20
701049.10762187047
 30
0.0
  0
VERTEX
  5
16C5
  8
RIVERS
 10
1101869.3757629129
 20
701067.82762187056
 30
0.0
  0
VERTEX
  5
16C6
  8
RIVERS
 10
1101903.6957629139
 20
701086.54762187065
 30
0.0
  0
VERTEX
  5
16C7
  8
RIVERS
 10
1101953.6157629129
 20
701099.02762187098
 30
0.0
  0
VERTEX
  5
16C8
  8
RIVERS
 10
1101997.295762914
 20
701114.62762187037
 30
0.0
  0
VERTEX
  5
16C9
  8
RIVERS
 10
1102050.335762914
 20
701120.86762187071
 30
0.0
  0
VERTEX
  5
16CA
  8
RIVERS
 10
1102087.775762914
 20
701117.74762187083
 30
0.0
  0
VERTEX
  5
16CB
  8
RIVERS
 10
1102140.8157629131
 20
701105.2676218705
 30
0.0
  0
VERTEX
  5
16CC
  8
RIVERS
 10
1102172.015762914
 20
701108.38762187096
 30
0.0
  0
VERTEX
  5
16CD
  8
RIVERS
 10
1102231.2957629131
 20
701102.14762187086
 30
0.0
  0
VERTEX
  5
16CE
  8
RIVERS
 10
1102278.0957629131
 20
701105.2676218705
 30
0.0
  0
VERTEX
  5
16CF
  8
RIVERS
 10
1102377.935762913
 20
701123.98762187059
 30
0.0
  0
VERTEX
  5
16D0
  8
RIVERS
 10
1102427.8557629129
 20
701158.30762187089
 30
0.0
  0
VERTEX
  5
16D1
  8
RIVERS
 10
1102502.735762913
 20
701220.70762187056
 30
0.0
  0
VERTEX
  5
16D2
  8
RIVERS
 10
1102565.1357629141
 20
701255.02762187074
 30
0.0
  0
VERTEX
  5
16D3
  8
RIVERS
 10
1102658.735762913
 20
701279.98762187036
 30
0.0
  0
VERTEX
  5
16D4
  8
RIVERS
 10
1102814.7357629139
 20
701357.98762187047
 30
0.0
  0
VERTEX
  5
16D5
  8
RIVERS
 10
1102827.215762913
 20
701367.34762187046
 30
0.0
  0
VERTEX
  5
16D6
  8
RIVERS
 10
1102855.2957629131
 20
701392.30762187066
 30
0.0
  0
SEQEND
  5
16D7
  8
RIVERS
  0
POLYLINE
  5
8F
  8
RIVERS
 66
     1
 10
0.0
 20
0.0
 30
0.0
 40
10.0
 41
10.0
  0
VERTEX
  5
16D8
  8
RIVERS
 10
1102849.055762914
 20
701872.7876218711
 30
0.0
  0
VERTEX
  5
16D9
  8
RIVERS
 10
1102799.1357629129
 20
701807.26762187073
 30
0.0
  0
VERTEX
  5
16DA
  8
RIVERS
 10
1102805.3757629129
 20
701788.54762187076
 30
0.0
  0
VERTEX
  5
16DB
  8
RIVERS
 10
1102830.3357629131
 20
701763.58762187057
 30
0.0
  0
VERTEX
  5
16DC
  8
RIVERS
 10
1102867.7757629131
 20
701732.38762187085
 30
0.0
  0
VERTEX
  5
16DD
  8
RIVERS
 10
1102917.695762913
 20
701651.26762187085
 30
0.0
  0
SEQEND
  5
16DE
  8
RIVERS
  0
POLYLINE
  5
90
  8
RIVERS
 66
     1
 10
0.0
 20
0.0
 30
0.0
 40
10.0
 41
10.0
  0
VERTEX
  5
16DF
  8
RIVERS
 10
1101520.3229199031
 20
694448.24940495857
 30
0.0
  0
VERTEX
  5
16E0
  8
RIVERS
 10
1101517.6974888069
 20
694434.25672818068
 30
0.0
  0
VERTEX
  5
16E1
  8
RIVERS
 10
1101513.321795054
 20
694426.38584749273
 30
0.0
  0
VERTEX
  5
16E2
  8
RIVERS
 10
1101494.068831611
 20
694404.52224802587
 30
0.0
  0
VERTEX
  5
16E3
  8
RIVERS
 10
1101480.0666561369
 20
694385.28231745563
 30
0.0
  0
VERTEX
  5
16E4
  8
RIVERS
 10
1101463.7331527809
 20
694358.88497512636
 30
0.0
  0
VERTEX
  5
16E5
  8
RIVERS
 10
1101439.810466595
 20
694359.04604849638
 30
0.0
  0
VERTEX
  5
16E6
  8
RIVERS
 10
1101412.681284087
 20
694363.41875998967
 30
0.0
  0
VERTEX
  5
16E7
  8
RIVERS
 10
1101385.5520273561
 20
694370.41509837878
 30
0.0
  0
VERTEX
  5
16E8
  8
RIVERS
 10
1101367.174232353
 20
694367.79147148295
 30
0.0
  0
VERTEX
  5
16E9
  8
RIVERS
 10
1101332.1688307801
 20
694359.04604849638
 30
0.0
  0
VERTEX
  5
16EA
  8
RIVERS
 10
1101317.2914868661
 20
694281.21174191649
 30
0.0
  0
VERTEX
  5
16EB
  8
RIVERS
 10
1101276.160128884
 20
694300.45171448751
 30
0.0
  0
VERTEX
  5
16EC
  8
RIVERS
 10
1101258.6574280979
 20
694292.58079179865
 30
0.0
  0
VERTEX
  5
16ED
  8
RIVERS
 10
1101153.641149156
 20
694143.03401673003
 30
0.0
  0
VERTEX
  5
16EE
  8
RIVERS
 10
1101208.774682611
 20
694087.06330961722
 30
0.0
  0
VERTEX
  5
16EF
  8
RIVERS
 10
1101151.015792283
 20
694042.46161038545
 30
0.0
  0
VERTEX
  5
16F0
  8
RIVERS
 10
1101103.924809345
 20
694000.48978873028
 30
0.0
  0
SEQEND
  5
16F1
  8
RIVERS
  0
POLYLINE
  5
91
  8
RIVERS
 66
     1
 10
0.0
 20
0.0
 30
0.0
 40
10.0
 41
10.0
  0
VERTEX
  5
16F2
  8
RIVERS
 10
1084268.1890411151
 20
697708.54901014653
 30
0.0
  0
VERTEX
  5
16F3
  8
RIVERS
 10
1084291.0747629339
 20
697696.33874991036
 30
0.0
  0
VERTEX
  5
16F4
  8
RIVERS
 10
1084311.4592724021
 20
697700.82007782254
 30
0.0
  0
VERTEX
  5
16F5
  8
RIVERS
 10
1084320.991418642
 20
697714.80100966501
 30
0.0
  0
VERTEX
  5
16F6
  8
RIVERS
 10
1084305.576371731
 20
697736.86370152491
 30
0.0
  0
VERTEX
  5
16F7
  8
RIVERS
 10
1084271.5200823599
 20
697771.6359217054
 30
0.0
  0
VERTEX
  5
16F8
  8
RIVERS
 10
1084257.7344043739
 20
697799.93947964231
 30
0.0
  0
VERTEX
  5
16F9
  8
RIVERS
 10
1084264.1379819999
 20
697813.95295379485
 30
0.0
  0
VERTEX
  5
16FA
  8
RIVERS
 10
1084435.000683526
 20
697996.78121741791
 30
0.0
  0
VERTEX
  5
16FB
  8
RIVERS
 10
1084474.6447393331
 20
698047.99582071137
 30
0.0
  0
VERTEX
  5
16FC
  8
RIVERS
 10
1084479.793184591
 20
698091.74696787016
 30
0.0
  0
VERTEX
  5
16FD
  8
RIVERS
 10
1084484.6650202179
 20
698108.90528179368
 30
0.0
  0
VERTEX
  5
16FE
  8
RIVERS
 10
1084558.4467211689
 20
698133.16908644582
 30
0.0
  0
VERTEX
  5
16FF
  8
RIVERS
 10
1084591.2641493271
 20
698129.69882357935
 30
0.0
  0
VERTEX
  5
1700
  8
RIVERS
 10
1084606.890721252
 20
698127.97182772332
 30
0.0
  0
VERTEX
  5
1701
  8
RIVERS
 10
1084633.4347410239
 20
698123.00236516795
 30
0.0
  0
VERTEX
  5
1702
  8
RIVERS
 10
1084706.9886458081
 20
698125.36618950928
 30
0.0
  0
VERTEX
  5
1703
  8
RIVERS
 10
1084779.726739404
 20
698199.70336317143
 30
0.0
  0
VERTEX
  5
1704
  8
RIVERS
 10
1084865.093005548
 20
698284.86035775137
 30
0.0
  0
VERTEX
  5
1705
  8
RIVERS
 10
1084893.9660539019
 20
698353.39598651568
 30
0.0
  0
VERTEX
  5
1706
  8
RIVERS
 10
1084898.772804908
 20
698364.29716320708
 30
0.0
  0
VERTEX
  5
1707
  8
RIVERS
 10
1084953.7017383911
 20
698380.93480017735
 30
0.0
  0
VERTEX
  5
1708
  8
RIVERS
 10
1084994.2429611599
 20
698367.99747568881
 30
0.0
  0
VERTEX
  5
1709
  8
RIVERS
 10
1085009.902075395
 20
698369.39904844936
 30
0.0
  0
VERTEX
  5
170A
  8
RIVERS
 10
1085034.8818108579
 20
698364.44585704838
 30
0.0
  0
VERTEX
  5
170B
  8
RIVERS
 10
1085100.6793787221
 20
698373.14817439509
 30
0.0
  0
VERTEX
  5
170C
  8
RIVERS
 10
1085122.5793590329
 20
698372.92037822795
 30
0.0
  0
VERTEX
  5
170D
  8
RIVERS
 10
1085139.8027575761
 20
698374.30567983328
 30
0.0
  0
VERTEX
  5
170E
  8
RIVERS
 10
1085172.603914578
 20
698369.27113265905
 30
0.0
  0
VERTEX
  5
170F
  8
RIVERS
 10
1085200.809845587
 20
698373.67110479635
 30
0.0
  0
VERTEX
  5
1710
  8
RIVERS
 10
1085211.7923780519
 20
698376.68577532878
 30
0.0
  0
VERTEX
  5
1711
  8
RIVERS
 10
1085215.0348447519
 20
698387.60322317504
 30
0.0
  0
VERTEX
  5
1712
  8
RIVERS
 10
1085254.2558505349
 20
698398.14643446123
 30
0.0
  0
VERTEX
  5
1713
  8
RIVERS
 10
1085304.036338758
 20
698371.03292427235
 30
0.0
  0
VERTEX
  5
1714
  8
RIVERS
 10
1085406.725883822
 20
698316.77336158499
 30
0.0
  0
VERTEX
  5
1715
  8
RIVERS
 10
1085428.658406442
 20
698319.67413403396
 30
0.0
  0
VERTEX
  5
1716
  8
RIVERS
 10
1085444.301249522
 20
698319.51142248604
 30
0.0
  0
VERTEX
  5
1717
  8
RIVERS
 10
1085485.037726149
 20
698325.34550969373
 30
0.0
  0
VERTEX
  5
1718
  8
RIVERS
 10
1085510.001190458
 20
698318.82803398487
 30
0.0
  0
VERTEX
  5
1719
  8
RIVERS
 10
1085546.811811883
 20
698248.04473241128
 30
0.0
  0
VERTEX
  5
171A
  8
RIVERS
 10
1085549.53360163
 20
698208.90508240263
 30
0.0
  0
VERTEX
  5
171B
  8
RIVERS
 10
1085571.3847684769
 20
698203.9844333115
 30
0.0
  0
VERTEX
  5
171C
  8
RIVERS
 10
1085591.866904872
 20
698217.85146707075
 30
0.0
  0
VERTEX
  5
171D
  8
RIVERS
 10
1085653.3946698371
 20
698267.27398988896
 30
0.0
  0
VERTEX
  5
171E
  8
RIVERS
 10
1085674.2673139491
 20
698318.68384703982
 30
0.0
  0
VERTEX
  5
171F
  8
RIVERS
 10
1085701.462179912
 20
698376.28575680347
 30
0.0
  0
VERTEX
  5
1720
  8
RIVERS
 10
1085742.7356046459
 20
698433.74122617405
 30
0.0
  0
VERTEX
  5
1721
  8
RIVERS
 10
1085822.9208832229
 20
698472.01850497886
 30
0.0
  0
VERTEX
  5
1722
  8
RIVERS
 10
1085837.0157131499
 20
698473.4363488938
 30
0.0
  0
VERTEX
  5
1723
  8
RIVERS
 10
1085956.1942013421
 20
698500.35685867327
 30
0.0
  0
VERTEX
  5
1724
  8
RIVERS
 10
1086063.9020224239
 20
698477.33416868141
 30
0.0
  0
VERTEX
  5
1725
  8
RIVERS
 10
1086115.7023872901
 20
698494.00434796105
 30
0.0
  0
VERTEX
  5
1726
  8
RIVERS
 10
1086147.0368869139
 20
698498.37177778897
 30
0.0
  0
VERTEX
  5
1727
  8
RIVERS
 10
1086228.461026703
 20
698505.34709927987
 30
0.0
  0
VERTEX
  5
1728
  8
RIVERS
 10
1086341.626444984
 20
698555.79695829807
 30
0.0
  0
VERTEX
  5
1729
  8
RIVERS
 10
1086384.0411040019
 20
698572.56476450607
 30
0.0
  0
VERTEX
  5
172A
  8
RIVERS
 10
1086398.135933928
 20
698573.98260842136
 30
0.0
  0
VERTEX
  5
172B
  8
RIVERS
 10
1086470.2882659531
 20
698592.00554699672
 30
0.0
  0
VERTEX
  5
172C
  8
RIVERS
 10
1086501.525138648
 20
698586.98727097688
 30
0.0
  0
VERTEX
  5
172D
  8
RIVERS
 10
1086599.48703503
 20
698679.83551785816
 30
0.0
  0
VERTEX
  5
172E
  8
RIVERS
 10
1086604.5541245141
 20
698715.76524347707
 30
0.0
  0
VERTEX
  5
172F
  8
RIVERS
 10
1086565.3796787481
 20
698860.10244983539
 30
0.0
  0
VERTEX
  5
1730
  8
RIVERS
 10
1086607.957049313
 20
698892.51309912326
 30
0.0
  0
VERTEX
  5
1731
  8
RIVERS
 10
1086622.0356080851
 20
698892.36665873008
 30
0.0
  0
VERTEX
  5
1732
  8
RIVERS
 10
1086747.3085219611
 20
698903.57924081059
 30
0.0
  0
VERTEX
  5
1733
  8
RIVERS
 10
1086761.3545384239
 20
698900.30423180154
 30
0.0
  0
VERTEX
  5
1734
  8
RIVERS
 10
1086862.528612643
 20
698850.75379319326
 30
0.0
  0
VERTEX
  5
1735
  8
RIVERS
 10
1087016.40021869
 20
698753.7216060824
 30
0.0
  0
VERTEX
  5
1736
  8
RIVERS
 10
1087100.2532674379
 20
698693.40016002115
 30
0.0
  0
VERTEX
  5
1737
  8
RIVERS
 10
1087116.939717873
 20
698643.16407946334
 30
0.0
  0
VERTEX
  5
1738
  8
RIVERS
 10
1087115.196450863
 20
698625.97322323045
 30
0.0
  0
VERTEX
  5
1739
  8
RIVERS
 10
1087139.183645884
 20
698525.59868904378
 30
0.0
  0
VERTEX
  5
173A
  8
RIVERS
 10
1087137.424107718
 20
698506.84354850254
 30
0.0
  0
VERTEX
  5
173B
  8
RIVERS
 10
1087181.893439136
 20
698420.33604807523
 30
0.0
  0
VERTEX
  5
173C
  8
RIVERS
 10
1087275.29490528
 20
698375.55981816479
 30
0.0
  0
VERTEX
  5
173D
  8
RIVERS
 10
1087322.1420787449
 20
698367.25026198104
 30
0.0
  0
VERTEX
  5
173E
  8
RIVERS
 10
1087451.782422449
 20
698347.12834443769
 30
0.0
  0
VERTEX
  5
173F
  8
RIVERS
 10
1087497.3907347021
 20
698370.12074556842
 30
0.0
  0
VERTEX
  5
1740
  8
RIVERS
 10
1087516.178417553
 20
698371.48977601877
 30
0.0
  0
VERTEX
  5
1741
  8
RIVERS
 10
1087588.3307495769
 20
698389.51271459414
 30
0.0
  0
VERTEX
  5
1742
  8
RIVERS
 10
1087643.2271407491
 20
698403.02178294817
 30
0.0
  0
VERTEX
  5
1743
  8
RIVERS
 10
1087711.2909060251
 20
698328.78448966308
 30
0.0
  0
VERTEX
  5
1744
  8
RIVERS
 10
1087723.772638178
 20
698325.52575180901
 30
0.0
  0
VERTEX
  5
1745
  8
RIVERS
 10
1087794.40949936
 20
698348.25781446253
 30
0.0
  0
VERTEX
  5
1746
  8
RIVERS
 10
1087814.7289242081
 20
698346.48200514226
 30
0.0
  0
VERTEX
  5
1747
  8
RIVERS
 10
1087828.791211826
 20
698344.77128044143
 30
0.0
  0
VERTEX
  5
1748
  8
RIVERS
 10
1087841.2729439789
 20
698341.51254258701
 30
0.0
  0
VERTEX
  5
1749
  8
RIVERS
 10
1087850.740005601
 20
698349.23633719853
 30
0.0
  0
VERTEX
  5
174A
  8
RIVERS
 10
1087867.930861834
 20
698347.49307018728
 30
0.0
  0
VERTEX
  5
174B
  8
RIVERS
 10
1087885.170531532
 20
698350.44265610049
 30
0.0
  0
VERTEX
  5
174C
  8
RIVERS
 10
1087910.182809304
 20
698348.61803331645
 30
0.0
  0
VERTEX
  5
174D
  8
RIVERS
 10
1087925.8419235391
 20
698350.01960607641
 30
0.0
  0
VERTEX
  5
174E
  8
RIVERS
 10
1087939.9042111561
 20
698348.30888137536
 30
0.0
  0
VERTEX
  5
174F
  8
RIVERS
 10
1087974.3510082411
 20
698351.07948458567
 30
0.0
  0
VERTEX
  5
1750
  8
RIVERS
 10
1087989.977580165
 20
698349.35248872999
 30
0.0
  0
VERTEX
  5
1751
  8
RIVERS
 10
1088010.329547324
 20
698350.7052480256
 30
0.0
  0
VERTEX
  5
1752
  8
RIVERS
 10
1088089.8314373989
 20
698323.28258589585
 30
0.0
  0
VERTEX
  5
1753
  8
RIVERS
 10
1088116.2778302419
 20
698308.92741749249
 30
0.0
  0
VERTEX
  5
1754
  8
RIVERS
 10
1088184.959899399
 20
698294.13292791031
 30
0.0
  0
VERTEX
  5
1755
  8
RIVERS
 10
1088273.2757514571
 20
698362.05025279254
 30
0.0
  0
VERTEX
  5
1756
  8
RIVERS
 10
1088347.1550793371
 20
698395.69976329303
 30
0.0
  0
VERTEX
  5
1757
  8
RIVERS
 10
1088361.201095799
 20
698392.42475428386
 30
0.0
  0
VERTEX
  5
1758
  8
RIVERS
 10
1088376.8276677241
 20
698390.69775842805
 30
0.0
  0
VERTEX
  5
1759
  8
RIVERS
 10
1088554.2448941639
 20
698301.24292553565
 30
0.0
  0
VERTEX
  5
175A
  8
RIVERS
 10
1088585.4654957049
 20
698294.66036520747
 30
0.0
  0
VERTEX
  5
175B
  8
RIVERS
 10
1088596.513112789
 20
698303.93217297224
 30
0.0
  0
VERTEX
  5
175C
  8
RIVERS
 10
1088619.961106254
 20
698302.12382134236
 30
0.0
  0
VERTEX
  5
175D
  8
RIVERS
 10
1088634.055936181
 20
698303.5416652573
 30
0.0
  0
VERTEX
  5
175E
  8
RIVERS
 10
1088676.193985567
 20
698293.71663822967
 30
0.0
  0
VERTEX
  5
175F
  8
RIVERS
 10
1088710.6895961161
 20
698301.18009436433
 30
0.0
  0
VERTEX
  5
1760
  8
RIVERS
 10
1088726.560235363
 20
698322.91736312793
 30
0.0
  0
VERTEX
  5
1761
  8
RIVERS
 10
1088729.981684766
 20
698351.04193836194
 30
0.0
  0
VERTEX
  5
1762
  8
RIVERS
 10
1088774.367406961
 20
698406.90058111493
 30
0.0
  0
VERTEX
  5
1763
  8
RIVERS
 10
1088840.5880248491
 20
698456.27429046901
 30
0.0
  0
VERTEX
  5
1764
  8
RIVERS
 10
1088872.3943879621
 20
698506.00596522831
 30
0.0
  0
VERTEX
  5
1765
  8
RIVERS
 10
1088911.615393745
 20
698516.54917651427
 30
0.0
  0
VERTEX
  5
1766
  8
RIVERS
 10
1088931.9348185931
 20
698514.77336719399
 30
0.0
  0
VERTEX
  5
1767
  8
RIVERS
 10
1088946.0296485201
 20
698516.19121110928
 30
0.0
  0
VERTEX
  5
1768
  8
RIVERS
 10
1088966.3165310591
 20
698511.28683317243
 30
0.0
  0
VERTEX
  5
1769
  8
RIVERS
 10
1088975.78359268
 20
698519.01062778395
 30
0.0
  0
VERTEX
  5
176A
  8
RIVERS
 10
1089033.401773599
 20
698493.38004612911
 30
0.0
  0
VERTEX
  5
176B
  8
RIVERS
 10
1089063.0255485219
 20
698483.68518834037
 30
0.0
  0
VERTEX
  5
176C
  8
RIVERS
 10
1089078.6683916
 20
698483.52247679245
 30
0.0
  0
VERTEX
  5
176D
  8
RIVERS
 10
1089173.9270228411
 20
698466.88709327043
 30
0.0
  0
VERTEX
  5
176E
  8
RIVERS
 10
1089195.843274307
 20
698468.22358141106
 30
0.0
  0
VERTEX
  5
176F
  8
RIVERS
 10
1089227.0801470019
 20
698463.20530539181
 30
0.0
  0
VERTEX
  5
1770
  8
RIVERS
 10
1089261.575757551
 20
698470.66876152612
 30
0.0
  0
VERTEX
  5
1771
  8
RIVERS
 10
1089286.9948141931
 20
698507.95124644076
 30
0.0
  0
VERTEX
  5
1772
  8
RIVERS
 10
1089380.1987730321
 20
698594.59116955509
 30
0.0
  0
VERTEX
  5
1773
  8
RIVERS
 10
1089451.047159225
 20
698637.65892821224
 30
0.0
  0
VERTEX
  5
1774
  8
RIVERS
 10
1089484.4178066449
 20
698687.3743318168
 30
0.0
  0
VERTEX
  5
1775
  8
RIVERS
 10
1089533.5777375391
 20
698751.00558264495
 30
0.0
  0
VERTEX
  5
1776
  8
RIVERS
 10
1089582.4447876459
 20
698786.4797159296
 30
0.0
  0
VERTEX
  5
1777
  8
RIVERS
 10
1089599.7007284991
 20
698790.99358615116
 30
0.0
  0
VERTEX
  5
1778
  8
RIVERS
 10
1089642.0177605881
 20
698798.37568651175
 30
0.0
  0
VERTEX
  5
1779
  8
RIVERS
 10
1089730.807729583
 20
698761.46969160531
 30
0.0
  0
VERTEX
  5
177A
  8
RIVERS
 10
1089760.3826910399
 20
698747.08198089257
 30
0.0
  0
VERTEX
  5
177B
  8
RIVERS
 10
1089819.695325505
 20
698733.94940254674
 30
0.0
  0
VERTEX
  5
177C
  8
RIVERS
 10
1089860.399259822
 20
698736.65492113854
 30
0.0
  0
VERTEX
  5
177D
  8
RIVERS
 10
1089876.0583740559
 20
698738.05649389839
 30
0.0
  0
VERTEX
  5
177E
  8
RIVERS
 10
1089943.680564705
 20
698771.77108901786
 30
0.0
  0
VERTEX
  5
177F
  8
RIVERS
 10
1090059.2721348591
 20
698751.82419518824
 30
0.0
  0
VERTEX
  5
1780
  8
RIVERS
 10
1090096.233647736
 20
698660.24191582645
 30
0.0
  0
VERTEX
  5
1781
  8
RIVERS
 10
1090120.578272881
 20
698579.84852149
 30
0.0
  0
VERTEX
  5
1782
  8
RIVERS
 10
1090227.756422322
 20
698607.10132408061
 30
0.0
  0
VERTEX
  5
1783
  8
RIVERS
 10
1090304.466149393
 20
698645.58773058141
 30
0.0
  0
VERTEX
  5
1784
  8
RIVERS
 10
1090392.8868442951
 20
698608.17530228221
 30
0.0
  0
VERTEX
  5
1785
  8
RIVERS
 10
1090467.117312382
 20
698547.74004419288
 30
0.0
  0
VERTEX
  5
1786
  8
RIVERS
 10
1090565.3137958981
 20
698552.700787929
 30
0.0
  0
VERTEX
  5
1787
  8
RIVERS
 10
1090700.609675518
 20
698521.12148410256
 30
0.0
  0
VERTEX
  5
1788
  8
RIVERS
 10
1090810.6456936591
 20
698501.50655512186
 30
0.0
  0
VERTEX
  5
1789
  8
RIVERS
 10
1090960.0647217671
 20
698466.172779129
 30
0.0
  0
VERTEX
  5
178A
  8
RIVERS
 10
1091051.41968013
 20
698412.38899093098
 30
0.0
  0
VERTEX
  5
178B
  8
RIVERS
 10
1091113.1133818219
 20
698395.12661742617
 30
0.0
  0
VERTEX
  5
178C
  8
RIVERS
 10
1091209.0846261131
 20
698458.00292290759
 30
0.0
  0
VERTEX
  5
178D
  8
RIVERS
 10
1091229.6998898799
 20
698615.0048718733
 30
0.0
  0
VERTEX
  5
178E
  8
RIVERS
 10
1091274.3604023519
 20
698627.53791169601
 30
0.0
  0
VERTEX
  5
178F
  8
RIVERS
 10
1091360.5179795469
 20
698577.48623622232
 30
0.0
  0
VERTEX
  5
1790
  8
RIVERS
 10
1091448.7784317781
 20
698476.10580880439
 30
0.0
  0
VERTEX
  5
1791
  8
RIVERS
 10
1091542.3853281271
 20
698430.49838412122
 30
0.0
  0
VERTEX
  5
1792
  8
RIVERS
 10
1091693.409371194
 20
698442.0211599787
 30
0.0
  0
VERTEX
  5
1793
  8
RIVERS
 10
1091830.9795482431
 20
698427.54398698662
 30
0.0
  0
VERTEX
  5
1794
  8
RIVERS
 10
1091956.732550109
 20
698446.56825402961
 30
0.0
  0
VERTEX
  5
1795
  8
RIVERS
 10
1092090.9115959301
 20
698563.01165148162
 30
0.0
  0
VERTEX
  5
1796
  8
RIVERS
 10
1092127.384565165
 20
698573.33374563057
 30
0.0
  0
VERTEX
  5
1797
  8
RIVERS
 10
1092236.5463392821
 20
698501.65370390972
 30
0.0
  0
VERTEX
  5
1798
  8
RIVERS
 10
1092284.9128784609
 20
698508.97072969575
 30
0.0
  0
VERTEX
  5
1799
  8
RIVERS
 10
1092322.901424885
 20
698530.44630641921
 30
0.0
  0
VERTEX
  5
179A
  8
RIVERS
 10
1092542.3600773041
 20
698543.28528777114
 30
0.0
  0
VERTEX
  5
179B
  8
RIVERS
 10
1092671.192679008
 20
698603.95568248816
 30
0.0
  0
VERTEX
  5
179C
  8
RIVERS
 10
1092787.328271644
 20
698643.83096267155
 30
0.0
  0
VERTEX
  5
179D
  8
RIVERS
 10
1092865.341161201
 20
698608.67606221815
 30
0.0
  0
VERTEX
  5
179E
  8
RIVERS
 10
1092869.5077822481
 20
698490.39846552175
 30
0.0
  0
VERTEX
  5
179F
  8
RIVERS
 10
1092999.2895219331
 20
698336.10290406935
 30
0.0
  0
VERTEX
  5
17A0
  8
RIVERS
 10
1093061.818338624
 20
698355.28555049666
 30
0.0
  0
VERTEX
  5
17A1
  8
RIVERS
 10
1093103.680607575
 20
698438.48836807464
 30
0.0
  0
VERTEX
  5
17A2
  8
RIVERS
 10
1093140.3808978079
 20
698539.5557632983
 30
0.0
  0
VERTEX
  5
17A3
  8
RIVERS
 10
1093230.5277213149
 20
698597.34779316001
 30
0.0
  0
VERTEX
  5
17A4
  8
RIVERS
 10
1093287.348253753
 20
698713.24115850311
 30
0.0
  0
VERTEX
  5
17A5
  8
RIVERS
 10
1093416.790512745
 20
698720.35508602019
 30
0.0
  0
VERTEX
  5
17A6
  8
RIVERS
 10
1093456.0095534681
 20
698639.1806120032
 30
0.0
  0
VERTEX
  5
17A7
  8
RIVERS
 10
1093657.5477296349
 20
698624.54319634009
 30
0.0
  0
VERTEX
  5
17A8
  8
RIVERS
 10
1093738.4464371961
 20
698553.67777346366
 30
0.0
  0
VERTEX
  5
17A9
  8
RIVERS
 10
1094105.029324139
 20
698505.89889461314
 30
0.0
  0
VERTEX
  5
17AA
  8
RIVERS
 10
1094167.7370163701
 20
698596.48767959129
 30
0.0
  0
VERTEX
  5
17AB
  8
RIVERS
 10
1094216.2265324821
 20
698652.89642563078
 30
0.0
  0
VERTEX
  5
17AC
  8
RIVERS
 10
1094271.4718625511
 20
698733.83426221553
 30
0.0
  0
VERTEX
  5
17AD
  8
RIVERS
 10
1094243.452886574
 20
698832.08850762411
 30
0.0
  0
VERTEX
  5
17AE
  8
RIVERS
 10
1094148.3974913631
 20
698893.31975168886
 30
0.0
  0
VERTEX
  5
17AF
  8
RIVERS
 10
1094015.2492056631
 20
698891.4218382088
 30
0.0
  0
VERTEX
  5
17B0
  8
RIVERS
 10
1093975.126108326
 20
698908.63017639425
 30
0.0
  0
VERTEX
  5
17B1
  8
RIVERS
 10
1093913.014667894
 20
699056.06185325247
 30
0.0
  0
VERTEX
  5
17B2
  8
RIVERS
 10
1093818.721719495
 20
699124.72937346285
 30
0.0
  0
VERTEX
  5
17B3
  8
RIVERS
 10
1093756.9646660499
 20
699116.70207289734
 30
0.0
  0
VERTEX
  5
17B4
  8
RIVERS
 10
1093678.7225922081
 20
699060.36785833247
 30
0.0
  0
VERTEX
  5
17B5
  8
RIVERS
 10
1093583.432422851
 20
699027.87854554912
 30
0.0
  0
VERTEX
  5
17B6
  8
RIVERS
 10
1093401.2054599051
 20
699031.31030660495
 30
0.0
  0
VERTEX
  5
17B7
  8
RIVERS
 10
1093283.8430995441
 20
699095.57270504895
 30
0.0
  0
VERTEX
  5
17B8
  8
RIVERS
 10
1093234.216253476
 20
699179.00470691198
 30
0.0
  0
VERTEX
  5
17B9
  8
RIVERS
 10
1093275.427872828
 20
699299.40008493874
 30
0.0
  0
VERTEX
  5
17BA
  8
RIVERS
 10
1093327.7575723031
 20
699404.14742085466
 30
0.0
  0
VERTEX
  5
17BB
  8
RIVERS
 10
1093297.611498561
 20
699544.06083694485
 30
0.0
  0
VERTEX
  5
17BC
  8
RIVERS
 10
1093213.5903355649
 20
699556.17241145298
 30
0.0
  0
VERTEX
  5
17BD
  8
RIVERS
 10
1093101.1961720879
 20
699525.21358215436
 30
0.0
  0
VERTEX
  5
17BE
  8
RIVERS
 10
1092938.114589832
 20
699451.24024765508
 30
0.0
  0
VERTEX
  5
17BF
  8
RIVERS
 10
1092871.128479342
 20
699434.30022277846
 30
0.0
  0
VERTEX
  5
17C0
  8
RIVERS
 10
1092589.2024986991
 20
699426.82445512631
 30
0.0
  0
VERTEX
  5
17C1
  8
RIVERS
 10
1092509.761606436
 20
699485.78512833721
 30
0.0
  0
VERTEX
  5
17C2
  8
RIVERS
 10
1092519.5541646311
 20
699534.85262586176
 30
0.0
  0
VERTEX
  5
17C3
  8
RIVERS
 10
1092582.927412756
 20
699594.19936193677
 30
0.0
  0
VERTEX
  5
17C4
  8
RIVERS
 10
1092605.504554501
 20
699699.02122932731
 30
0.0
  0
VERTEX
  5
17C5
  8
RIVERS
 10
1092567.734012641
 20
699764.57188396284
 30
0.0
  0
VERTEX
  5
17C6
  8
RIVERS
 10
1092442.8217156359
 20
699784.22407868085
 30
0.0
  0
VERTEX
  5
17C7
  8
RIVERS
 10
1092215.2127857171
 20
699784.05043051962
 30
0.0
  0
VERTEX
  5
17C8
  8
RIVERS
 10
1092169.172715998
 20
699814.66232597816
 30
0.0
  0
VERTEX
  5
17C9
  8
RIVERS
 10
1092141.2157629139
 20
700000.78762187075
 30
0.0
  0
VERTEX
  5
17CA
  8
RIVERS
 10
1092122.495762914
 20
700153.66762187087
 30
0.0
  0
VERTEX
  5
17CB
  8
RIVERS
 10
1092094.4157629141
 20
700225.42762187042
 30
0.0
  0
VERTEX
  5
17CC
  8
RIVERS
 10
1092081.935762913
 20
700244.14762187051
 30
0.0
  0
VERTEX
  5
17CD
  8
RIVERS
 10
1092019.535762914
 20
700294.06762187055
 30
0.0
  0
VERTEX
  5
17CE
  8
RIVERS
 10
1092016.4157629129
 20
700312.7876218704
 30
0.0
  0
VERTEX
  5
17CF
  8
RIVERS
 10
1091904.0957629131
 20
700390.7876218704
 30
0.0
  0
VERTEX
  5
17D0
  8
RIVERS
 10
1091885.3757629129
 20
700403.26762187097
 30
0.0
  0
VERTEX
  5
17D1
  8
RIVERS
 10
1091801.1357629129
 20
700431.34762187081
 30
0.0
  0
VERTEX
  5
17D2
  8
RIVERS
 10
1091723.1357629141
 20
700446.94762187055
 30
0.0
  0
VERTEX
  5
17D3
  8
RIVERS
 10
1091635.7757629131
 20
700506.22762187046
 30
0.0
  0
VERTEX
  5
17D4
  8
RIVERS
 10
1091486.015762914
 20
700609.18762187066
 30
0.0
  0
VERTEX
  5
17D5
  8
RIVERS
 10
1091401.7757629131
 20
700740.22762187105
 30
0.0
  0
VERTEX
  5
17D6
  8
RIVERS
 10
1091298.8157629131
 20
700765.18762187054
 30
0.0
  0
VERTEX
  5
17D7
  8
RIVERS
 10
1091202.0957629131
 20
700752.70762187068
 30
0.0
  0
VERTEX
  5
17D8
  8
RIVERS
 10
1091124.095762914
 20
700752.70762187068
 30
0.0
  0
VERTEX
  5
17D9
  8
RIVERS
 10
1091108.495762914
 20
700765.18762187054
 30
0.0
  0
VERTEX
  5
17DA
  8
RIVERS
 10
1091008.655762912
 20
700840.06762187066
 30
0.0
  0
VERTEX
  5
17DB
  8
RIVERS
 10
1090971.215762913
 20
700889.98762187059
 30
0.0
  0
VERTEX
  5
17DC
  8
RIVERS
 10
1090983.695762913
 20
701036.62762187072
 30
0.0
  0
VERTEX
  5
17DD
  8
RIVERS
 10
1090980.5757629131
 20
701099.02762187098
 30
0.0
  0
VERTEX
  5
17DE
  8
RIVERS
 10
1090974.3357629131
 20
701111.50762187073
 30
0.0
  0
VERTEX
  5
17DF
  8
RIVERS
 10
1090983.695762913
 20
701117.74762187083
 30
0.0
  0
VERTEX
  5
17E0
  8
RIVERS
 10
1090986.8157629131
 20
701214.46762187057
 30
0.0
  0
VERTEX
  5
17E1
  8
RIVERS
 10
1090943.1357629141
 20
701323.66762187076
 30
0.0
  0
VERTEX
  5
17E2
  8
RIVERS
 10
1090940.015762913
 20
701342.38762187085
 30
0.0
  0
VERTEX
  5
17E3
  8
RIVERS
 10
1090933.775762914
 20
701354.8676218706
 30
0.0
  0
VERTEX
  5
17E4
  8
RIVERS
 10
1090886.9757629139
 20
701429.74762187083
 30
0.0
  0
VERTEX
  5
17E5
  8
RIVERS
 10
1090855.7757629131
 20
701467.18762187078
 30
0.0
  0
VERTEX
  5
17E6
  8
RIVERS
 10
1090802.735762913
 20
701523.34762187046
 30
0.0
  0
VERTEX
  5
17E7
  8
RIVERS
 10
1090715.3757629129
 20
701563.90762187075
 30
0.0
  0
VERTEX
  5
17E8
  8
RIVERS
 10
1090593.6957629139
 20
701576.38762187096
 30
0.0
  0
VERTEX
  5
17E9
  8
RIVERS
 10
1090459.535762914
 20
701685.58762187057
 30
0.0
  0
VERTEX
  5
17EA
  8
RIVERS
 10
1090450.175762913
 20
701694.94762187067
 30
0.0
  0
VERTEX
  5
17EB
  8
RIVERS
 10
1090347.215762913
 20
701813.50762187049
 30
0.0
  0
VERTEX
  5
17EC
  8
RIVERS
 10
1090337.8557629129
 20
701910.22762187035
 30
0.0
  0
VERTEX
  5
17ED
  8
RIVERS
 10
1090378.4157629129
 20
702028.78762187075
 30
0.0
  0
VERTEX
  5
17EE
  8
RIVERS
 10
1090394.015762914
 20
702141.10762187059
 30
0.0
  0
VERTEX
  5
17EF
  8
RIVERS
 10
1090359.6957629139
 20
702187.90762187075
 30
0.0
  0
VERTEX
  5
17F0
  8
RIVERS
 10
1090303.5357629131
 20
702297.10762187059
 30
0.0
  0
VERTEX
  5
17F1
  8
RIVERS
 10
1090262.975762913
 20
702337.66762187099
 30
0.0
  0
VERTEX
  5
17F2
  8
RIVERS
 10
1090244.255762913
 20
702362.6276218706
 30
0.0
  0
VERTEX
  5
17F3
  8
RIVERS
 10
1090231.7757629131
 20
702368.86762187071
 30
0.0
  0
VERTEX
  5
17F4
  8
RIVERS
 10
1090209.9357629139
 20
702403.18762187066
 30
0.0
  0
VERTEX
  5
17F5
  8
RIVERS
 10
1090150.6557629129
 20
702534.2276218707
 30
0.0
  0
VERTEX
  5
17F6
  8
RIVERS
 10
1090135.0557629131
 20
702559.18762187054
 30
0.0
  0
VERTEX
  5
17F7
  8
RIVERS
 10
1090016.495762913
 20
702609.10762187082
 30
0.0
  0
VERTEX
  5
17F8
  8
RIVERS
 10
1089983.191682091
 20
702628.90348892414
 30
0.0
  0
VERTEX
  5
17F9
  8
RIVERS
 10
1089924.00781109
 20
702641.10764033196
 30
0.0
  0
VERTEX
  5
17FA
  8
RIVERS
 10
1089867.749531186
 20
702676.29986451706
 30
0.0
  0
VERTEX
  5
17FB
  8
RIVERS
 10
1089853.56063284
 20
702748.93339253229
 30
0.0
  0
VERTEX
  5
17FC
  8
RIVERS
 10
1089899.7204647691
 20
702848.03613566316
 30
0.0
  0
VERTEX
  5
17FD
  8
RIVERS
 10
1089930.3742120699
 20
702951.32789566636
 30
0.0
  0
VERTEX
  5
17FE
  8
RIVERS
 10
1089890.6748703681
 20
703017.28587656748
 30
0.0
  0
VERTEX
  5
17FF
  8
RIVERS
 10
1089818.619291018
 20
703046.99877599406
 30
0.0
  0
VERTEX
  5
1800
  8
RIVERS
 10
1089724.8121825559
 20
703095.97667429142
 30
0.0
  0
VERTEX
  5
1801
  8
RIVERS
 10
1089631.0095550651
 20
703120.38945807843
 30
0.0
  0
VERTEX
  5
1802
  8
RIVERS
 10
1089617.7032631161
 20
703172.89778196532
 30
0.0
  0
VERTEX
  5
1803
  8
RIVERS
 10
1089671.080750487
 20
703239.77421331685
 30
0.0
  0
VERTEX
  5
1804
  8
RIVERS
 10
1089762.5446937729
 20
703310.71421664371
 30
0.0
  0
VERTEX
  5
1805
  8
RIVERS
 10
1089844.7524778889
 20
703346.20214033395
 30
0.0
  0
VERTEX
  5
1806
  8
RIVERS
 10
1089881.472460557
 20
703428.46816964238
 30
0.0
  0
VERTEX
  5
1807
  8
RIVERS
 10
1089788.857093479
 20
703492.29803853994
 30
0.0
  0
VERTEX
  5
1808
  8
RIVERS
 10
1089708.7102142321
 20
703525.23222485278
 30
0.0
  0
VERTEX
  5
1809
  8
RIVERS
 10
1089621.798183311
 20
703580.7019801744
 30
0.0
  0
VERTEX
  5
180A
  8
RIVERS
 10
1089568.151878546
 20
703628.4702169185
 30
0.0
  0
VERTEX
  5
180B
  8
RIVERS
 10
1089504.1786371521
 20
703704.09205847967
 30
0.0
  0
VERTEX
  5
180C
  8
RIVERS
 10
1089451.813678331
 20
703769.68714017177
 30
0.0
  0
VERTEX
  5
180D
  8
RIVERS
 10
1089372.948145028
 20
703820.44817143283
 30
0.0
  0
VERTEX
  5
180E
  8
RIVERS
 10
1089253.5006673411
 20
703833.72309658362
 30
0.0
  0
VERTEX
  5
180F
  8
RIVERS
 10
1089158.8064752261
 20
703803.82202238019
 30
0.0
  0
VERTEX
  5
1810
  8
RIVERS
 10
1089052.929622194
 20
703798.07836119877
 30
0.0
  0
VERTEX
  5
1811
  8
RIVERS
 10
1088969.7854674601
 20
703830.35843348468
 30
0.0
  0
VERTEX
  5
1812
  8
RIVERS
 10
1088910.6105546849
 20
703917.00164701091
 30
0.0
  0
VERTEX
  5
1813
  8
RIVERS
 10
1088920.556668221
 20
704000.07411735505
 30
0.0
  0
VERTEX
  5
1814
  8
RIVERS
 10
1088921.8917746721
 20
704093.82746159553
 30
0.0
  0
VERTEX
  5
1815
  8
RIVERS
 10
1088915.520881573
 20
704178.88019419089
 30
0.0
  0
VERTEX
  5
1816
  8
RIVERS
 10
1088876.878874416
 20
704255.2278341701
 30
0.0
  0
VERTEX
  5
1817
  8
RIVERS
 10
1088803.936207698
 20
704329.63105223549
 30
0.0
  0
VERTEX
  5
1818
  8
RIVERS
 10
1088739.3805366671
 20
704385.91621053487
 30
0.0
  0
VERTEX
  5
1819
  8
RIVERS
 10
1088770.7600823869
 20
704463.87673630042
 30
0.0
  0
VERTEX
  5
181A
  8
RIVERS
 10
1088850.750149939
 20
704549.30581101822
 30
0.0
  0
VERTEX
  5
181B
  8
RIVERS
 10
1088892.4252692061
 20
704647.79924240161
 30
0.0
  0
VERTEX
  5
181C
  8
RIVERS
 10
1088851.0323991
 20
704731.67367280985
 30
0.0
  0
VERTEX
  5
181D
  8
RIVERS
 10
1088774.4204226979
 20
704783.11121923826
 30
0.0
  0
VERTEX
  5
181E
  8
RIVERS
 10
1088669.5829803271
 20
704886.01767517696
 30
0.0
  0
VERTEX
  5
181F
  8
RIVERS
 10
1088591.4074013899
 20
704984.39909714495
 30
0.0
  0
VERTEX
  5
1820
  8
RIVERS
 10
1088558.4821695881
 20
705102.26057115651
 30
0.0
  0
VERTEX
  5
1821
  8
RIVERS
 10
1088532.4932785421
 20
705180.73514383286
 30
0.0
  0
VERTEX
  5
1822
  8
RIVERS
 10
1088455.862440065
 20
705278.79516720737
 30
0.0
  0
VERTEX
  5
1823
  8
RIVERS
 10
1088378.7083553351
 20
705336.94858205807
 30
0.0
  0
VERTEX
  5
1824
  8
RIVERS
 10
1088315.8282925391
 20
705350.00845775253
 30
0.0
  0
VERTEX
  5
1825
  8
RIVERS
 10
1088211.1521428339
 20
705309.98653814965
 30
0.0
  0
VERTEX
  5
1826
  8
RIVERS
 10
1088175.8525991831
 20
705212.94722499547
 30
0.0
  0
VERTEX
  5
1827
  8
RIVERS
 10
1088173.7041548961
 20
705157.1129101573
 30
0.0
  0
VERTEX
  5
1828
  8
RIVERS
 10
1088184.446376333
 20
705073.36143790046
 30
0.0
  0
VERTEX
  5
1829
  8
RIVERS
 10
1088218.821395569
 20
704970.28265571152
 30
0.0
  0
VERTEX
  5
182A
  8
RIVERS
 10
1088223.118284144
 20
704950.95540701435
 30
0.0
  0
VERTEX
  5
182B
  8
RIVERS
 10
1088188.540423326
 20
704855.84329517733
 30
0.0
  0
VERTEX
  5
182C
  8
RIVERS
 10
1088086.5300129829
 20
704780.75459628704
 30
0.0
  0
VERTEX
  5
182D
  8
RIVERS
 10
1087974.569004416
 20
704770.72783270234
 30
0.0
  0
VERTEX
  5
182E
  8
RIVERS
 10
1087899.0636458099
 20
704809.47736087209
 30
0.0
  0
VERTEX
  5
182F
  8
RIVERS
 10
1087877.3524380061
 20
704854.79491142766
 30
0.0
  0
VERTEX
  5
1830
  8
RIVERS
 10
1087885.8136033721
 20
704929.48066582775
 30
0.0
  0
VERTEX
  5
1831
  8
RIVERS
 10
1087931.9978284079
 20
705013.19353125885
 30
0.0
  0
VERTEX
  5
1832
  8
RIVERS
 10
1087930.676157438
 20
705092.88342576614
 30
0.0
  0
VERTEX
  5
1833
  8
RIVERS
 10
1087875.69922348
 20
705145.90249489888
 30
0.0
  0
VERTEX
  5
1834
  8
RIVERS
 10
1087795.265610385
 20
705144.60322507063
 30
0.0
  0
VERTEX
  5
1835
  8
RIVERS
 10
1087759.5805611231
 20
705071.98313625285
 30
0.0
  0
VERTEX
  5
1836
  8
RIVERS
 10
1087736.363999692
 20
704968.46736485127
 30
0.0
  0
VERTEX
  5
1837
  8
RIVERS
 10
1087685.562647122
 20
704863.54927986371
 30
0.0
  0
VERTEX
  5
1838
  8
RIVERS
 10
1087627.5839604191
 20
704816.91005833982
 30
0.0
  0
VERTEX
  5
1839
  8
RIVERS
 10
1087554.3321587141
 20
704856.33610167692
 30
0.0
  0
VERTEX
  5
183A
  8
RIVERS
 10
1087516.895335854
 20
704873.84036872443
 30
0.0
  0
VERTEX
  5
183B
  8
RIVERS
 10
1087462.344023552
 20
704940.99009101023
 30
0.0
  0
VERTEX
  5
183C
  8
RIVERS
 10
1087469.7229642291
 20
705012.97398596886
 30
0.0
  0
VERTEX
  5
183D
  8
RIVERS
 10
1087462.223052195
 20
705109.9710182359
 30
0.0
  0
VERTEX
  5
183E
  8
RIVERS
 10
1087426.040693169
 20
705169.12352615467
 30
0.0
  0
VERTEX
  5
183F
  8
RIVERS
 10
1087359.827337787
 20
705170.37350901694
 30
0.0
  0
VERTEX
  5
1840
  8
RIVERS
 10
1087265.778297757
 20
705186.60538834683
 30
0.0
  0
VERTEX
  5
1841
  8
RIVERS
 10
1087194.340992098
 20
705162.70334609027
 30
0.0
  0
VERTEX
  5
1842
  8
RIVERS
 10
1087169.7265980521
 20
705062.20725131605
 30
0.0
  0
VERTEX
  5
1843
  8
RIVERS
 10
1087193.06861181
 20
704972.17698098172
 30
0.0
  0
VERTEX
  5
1844
  8
RIVERS
 10
1087203.337306963
 20
704892.96199138276
 30
0.0
  0
VERTEX
  5
1845
  8
RIVERS
 10
1087145.2914168399
 20
704844.09161409817
 30
0.0
  0
VERTEX
  5
1846
  8
RIVERS
 10
1087027.093925731
 20
704800.0106034911
 30
0.0
  0
VERTEX
  5
1847
  8
RIVERS
 10
1086921.0737039179
 20
704838.93485980888
 30
0.0
  0
VERTEX
  5
1848
  8
RIVERS
 10
1086808.467539551
 20
704906.34443383059
 30
0.0
  0
VERTEX
  5
1849
  8
RIVERS
 10
1086731.5285079931
 20
704897.49597243324
 30
0.0
  0
VERTEX
  5
184A
  8
RIVERS
 10
1086676.757668979
 20
704809.0741031986
 30
0.0
  0
VERTEX
  5
184B
  8
RIVERS
 10
1086650.275018381
 20
704695.97959472553
 30
0.0
  0
VERTEX
  5
184C
  8
RIVERS
 10
1086610.2396632959
 20
704627.21250568202
 30
0.0
  0
VERTEX
  5
184D
  8
RIVERS
 10
1086482.432072032
 20
704634.78409467544
 30
0.0
  0
VERTEX
  5
184E
  8
RIVERS
 10
1086356.931798178
 20
704718.95869812905
 30
0.0
  0
VERTEX
  5
184F
  8
RIVERS
 10
1086275.646938053
 20
704812.96741313487
 30
0.0
  0
VERTEX
  5
1850
  8
RIVERS
 10
1086156.5220345501
 20
704911.09346062224
 30
0.0
  0
VERTEX
  5
1851
  8
RIVERS
 10
1086099.5693193099
 20
704923.23040861066
 30
0.0
  0
VERTEX
  5
1852
  8
RIVERS
 10
1085996.5777360681
 20
704914.42226852162
 30
0.0
  0
VERTEX
  5
1853
  8
RIVERS
 10
1085850.8536952981
 20
704920.30032911105
 30
0.0
  0
VERTEX
  5
1854
  8
RIVERS
 10
1085732.6248411059
 20
704924.60582893842
 30
0.0
  0
VERTEX
  5
1855
  8
RIVERS
 10
1085588.43303979
 20
704931.92652442248
 30
0.0
  0
VERTEX
  5
1856
  8
RIVERS
 10
1085477.7802592779
 20
704915.90520986216
 30
0.0
  0
VERTEX
  5
1857
  8
RIVERS
 10
1085334.4128228819
 20
704851.73931643565
 30
0.0
  0
VERTEX
  5
1858
  8
RIVERS
 10
1085285.0451432641
 20
704794.41922101518
 30
0.0
  0
VERTEX
  5
1859
  8
RIVERS
 10
1085324.7892872461
 20
704729.94867728825
 30
0.0
  0
VERTEX
  5
185A
  8
RIVERS
 10
1085350.761196313
 20
704677.80325261049
 30
0.0
  0
VERTEX
  5
185B
  8
RIVERS
 10
1085381.948097432
 20
704576.37079093244
 30
0.0
  0
VERTEX
  5
185C
  8
RIVERS
 10
1085365.174109773
 20
704489.03761932545
 30
0.0
  0
VERTEX
  5
185D
  8
RIVERS
 10
1085306.917651165
 20
704359.03471263894
 30
0.0
  0
VERTEX
  5
185E
  8
RIVERS
 10
1085218.643631683
 20
704344.57251964358
 30
0.0
  0
VERTEX
  5
185F
  8
RIVERS
 10
1085122.403757201
 20
704386.92415407789
 30
0.0
  0
VERTEX
  5
1860
  8
RIVERS
 10
1085071.9787393231
 20
704442.78369071928
 30
0.0
  0
VERTEX
  5
1861
  8
RIVERS
 10
1085009.5198172131
 20
704494.53933407692
 30
0.0
  0
VERTEX
  5
1862
  8
RIVERS
 10
1084915.5559044869
 20
704414.74191112595
 30
0.0
  0
VERTEX
  5
1863
  8
RIVERS
 10
1084909.0192488991
 20
704296.58026035374
 30
0.0
  0
VERTEX
  5
1864
  8
RIVERS
 10
1084856.8603850231
 20
704220.73440367857
 30
0.0
  0
VERTEX
  5
1865
  8
RIVERS
 10
1084777.4213840261
 20
704203.02852265676
 30
0.0
  0
VERTEX
  5
1866
  8
RIVERS
 10
1084695.3614459471
 20
704221.87685809669
 30
0.0
  0
VERTEX
  5
1867
  8
RIVERS
 10
1084695.3614459471
 20
704221.87685809669
 30
0.0
  0
VERTEX
  5
1868
  8
RIVERS
 10
1084598.5072207709
 20
704224.86079104233
 30
0.0
  0
SEQEND
  5
1869
  8
RIVERS
  0
POLYLINE
  5
92
  8
RIVERS
 66
     1
 10
0.0
 20
0.0
 30
0.0
 70
     1
 40
10.0
 41
10.0
  0
VERTEX
  5
186A
  8
RIVERS
 10
1104987.86434288
 20
697059.96223171661
 30
0.0
  0
VERTEX
  5
186B
  8
RIVERS
 10
1104922.3732116751
 20
697017.19739877642
 30
0.0
  0
VERTEX
  5
186C
  8
RIVERS
 10
1104928.825309871
 20
696920.48481657368
 30
0.0
  0
VERTEX
  5
186D
  8
RIVERS
 10
1104882.384633475
 20
696791.17671423615
 30
0.0
  0
VERTEX
  5
186E
  8
RIVERS
 10
1104798.928408883
 20
696731.8802869065
 30
0.0
  0
VERTEX
  5
186F
  8
RIVERS
 10
1104704.45285837
 20
696727.65404067934
 30
0.0
  0
VERTEX
  5
1870
  8
RIVERS
 10
1104584.5292544039
 20
696660.26696103043
 30
0.0
  0
VERTEX
  5
1871
  8
RIVERS
 10
1104552.4427740669
 20
696619.43731548765
 30
0.0
  0
VERTEX
  5
1872
  8
RIVERS
 10
1104527.855921628
 20
696603.13489720318
 30
0.0
  0
VERTEX
  5
1873
  8
RIVERS
 10
1104450.3744313121
 20
696553.49314484058
 30
0.0
  0
VERTEX
  5
1874
  8
RIVERS
 10
1104333.6235915259
 20
696564.94289002754
 30
0.0
  0
VERTEX
  5
1875
  8
RIVERS
 10
1104199.813476505
 20
696595.77465333685
 30
0.0
  0
VERTEX
  5
1876
  8
RIVERS
 10
1104095.8621265651
 20
696668.92927993578
 30
0.0
  0
VERTEX
  5
1877
  8
RIVERS
 10
1104025.2352044079
 20
696683.23875711008
 30
0.0
  0
VERTEX
  5
1878
  8
RIVERS
 10
1103935.3939599469
 20
696747.43221393984
 30
0.0
  0
VERTEX
  5
1879
  8
RIVERS
 10
1103855.8151844549
 20
696751.35065535118
 30
0.0
  0
VERTEX
  5
187A
  8
RIVERS
 10
1103762.2735031459
 20
696822.99156804732
 30
0.0
  0
VERTEX
  5
187B
  8
RIVERS
 10
1103691.6875733
 20
696853.66495197255
 30
0.0
  0
VERTEX
  5
187C
  8
RIVERS
 10
1103573.4304727591
 20
696857.68028430105
 30
0.0
  0
VERTEX
  5
187D
  8
RIVERS
 10
1103444.7264378499
 20
696848.3330516672
 30
0.0
  0
VERTEX
  5
187E
  8
RIVERS
 10
1103164.137158857
 20
696780.60462803906
 30
0.0
  0
VERTEX
  5
187F
  8
RIVERS
 10
1103082.1797418729
 20
696725.76735779503
 30
0.0
  0
VERTEX
  5
1880
  8
RIVERS
 10
1102992.8531270691
 20
696698.46983631945
 30
0.0
  0
VERTEX
  5
1881
  8
RIVERS
 10
1102931.8436141419
 20
696691.92830035358
 30
0.0
  0
VERTEX
  5
1882
  8
RIVERS
 10
1102864.083877119
 20
696663.08911567251
 30
0.0
  0
VERTEX
  5
1883
  8
RIVERS
 10
1102759.131579648
 20
696633.59928139136
 30
0.0
  0
VERTEX
  5
1884
  8
RIVERS
 10
1102683.803273112
 20
696552.7117535522
 30
0.0
  0
VERTEX
  5
1885
  8
RIVERS
 10
1102639.1185379119
 20
696530.50913246733
 30
0.0
  0
VERTEX
  5
1886
  8
RIVERS
 10
1102611.5545664141
 20
696513.47035338706
 30
0.0
  0
VERTEX
  5
1887
  8
RIVERS
 10
1102561.327741975
 20
696357.39426552702
 30
0.0
  0
VERTEX
  5
1888
  8
RIVERS
 10
1102468.9178007611
 20
696286.96298849117
 30
0.0
  0
VERTEX
  5
1889
  8
RIVERS
 10
1102472.5287998379
 20
696243.81246334896
 30
0.0
  0
VERTEX
  5
188A
  8
RIVERS
 10
1102518.4589356319
 20
696169.31554523925
 30
0.0
  0
VERTEX
  5
188B
  8
RIVERS
 10
1102482.6179831279
 20
696114.36275120929
 30
0.0
  0
VERTEX
  5
188C
  8
RIVERS
 10
1102396.3150695569
 20
696106.39693911071
 30
0.0
  0
VERTEX
  5
188D
  8
RIVERS
 10
1102342.7548757831
 20
696104.29965393536
 30
0.0
  0
VERTEX
  5
188E
  8
RIVERS
 10
1102328.5124769369
 20
696060.45003373513
 30
0.0
  0
VERTEX
  5
188F
  8
RIVERS
 10
1102355.058731321
 20
695968.15002644598
 30
0.0
  0
VERTEX
  5
1890
  8
RIVERS
 10
1102320.697953556
 20
695910.21825006965
 30
0.0
  0
VERTEX
  5
1891
  8
RIVERS
 10
1102268.485641154
 20
695852.33119257784
 30
0.0
  0
VERTEX
  5
1892
  8
RIVERS
 10
1102253.447256332
 20
695787.65664525318
 30
0.0
  0
VERTEX
  5
1893
  8
RIVERS
 10
1102166.227243138
 20
695710.51799972029
 30
0.0
  0
VERTEX
  5
1894
  8
RIVERS
 10
1102110.314493889
 20
695660.07839809521
 30
0.0
  0
VERTEX
  5
1895
  8
RIVERS
 10
1102064.2054825551
 20
695663.16917765397
 30
0.0
  0
VERTEX
  5
1896
  8
RIVERS
 10
1102012.1366432421
 20
695662.55579379154
 30
0.0
  0
VERTEX
  5
1897
  8
RIVERS
 10
1101971.10389943
 20
695613.56655431585
 30
0.0
  0
VERTEX
  5
1898
  8
RIVERS
 10
1101957.551279207
 20
695548.1444664743
 30
0.0
  0
VERTEX
  5
1899
  8
RIVERS
 10
1101918.8319618481
 20
695531.87745064055
 30
0.0
  0
VERTEX
  5
189A
  8
RIVERS
 10
1101912.0705580311
 20
695505.11691826559
 30
0.0
  0
VERTEX
  5
189B
  8
RIVERS
 10
1101887.453893004
 20
695476.91347688914
 30
0.0
  0
VERTEX
  5
189C
  8
RIVERS
 10
1101887.392404536
 20
695452.36761676217
 30
0.0
  0
VERTEX
  5
189D
  8
RIVERS
 10
1101898.480672071
 20
695424.81855155935
 30
0.0
  0
VERTEX
  5
189E
  8
RIVERS
 10
1101890.9996770411
 20
695407.72946373362
 30
0.0
  0
VERTEX
  5
189F
  8
RIVERS
 10
1101901.3590369271
 20
695386.1327733635
 30
0.0
  0
VERTEX
  5
18A0
  8
RIVERS
 10
1101939.265598729
 20
695374.88053658453
 30
0.0
  0
VERTEX
  5
18A1
  8
RIVERS
 10
1101942.183092609
 20
695351.81485119672
 30
0.0
  0
VERTEX
  5
18A2
  8
RIVERS
 10
1101932.4278001511
 20
695317.62363253697
 30
0.0
  0
VERTEX
  5
18A3
  8
RIVERS
 10
1101951.684978053
 20
695284.8473735759
 30
0.0
  0
VERTEX
  5
18A4
  8
RIVERS
 10
1101977.53772724
 20
695212.63220604148
 30
0.0
  0
VERTEX
  5
18A5
  8
RIVERS
 10
1101969.283105677
 20
695183.64395841071
 30
0.0
  0
VERTEX
  5
18A6
  8
RIVERS
 10
1101909.6848258739
 20
695146.60232419858
 30
0.0
  0
VERTEX
  5
18A7
  8
RIVERS
 10
1101876.906703626
 20
695126.6013323532
 30
0.0
  0
VERTEX
  5
18A8
  8
RIVERS
 10
1101897.610517103
 20
695077.45744006708
 30
0.0
  0
VERTEX
  5
18A9
  8
RIVERS
 10
1101947.455367734
 20
695081.05166956293
 30
0.0
  0
VERTEX
  5
18AA
  8
RIVERS
 10
1101973.423640707
 20
695054.95296650927
 30
0.0
  0
VERTEX
  5
18AB
  8
RIVERS
 10
1101997.7999417291
 20
694987.2044092078
 30
0.0
  0
VERTEX
  5
18AC
  8
RIVERS
 10
1101955.17336268
 20
694895.82150154095
 30
0.0
  0
VERTEX
  5
18AD
  8
RIVERS
 10
1101911.9408529149
 20
694859.48268896097
 30
0.0
  0
VERTEX
  5
18AE
  8
RIVERS
 10
1101866.4564051661
 20
694814.96751286543
 30
0.0
  0
VERTEX
  5
18AF
  8
RIVERS
 10
1101783.814799418
 20
694783.93415209185
 30
0.0
  0
VERTEX
  5
18B0
  8
RIVERS
 10
1101693.740644098
 20
694755.15086601675
 30
0.0
  0
VERTEX
  5
18B1
  8
RIVERS
 10
1101648.2226571839
 20
694697.24703894323
 30
0.0
  0
VERTEX
  5
18B2
  8
RIVERS
 10
1101601.1555539181
 20
694614.80107831664
 30
0.0
  0
VERTEX
  5
18B3
  8
RIVERS
 10
1101554.092177225
 20
694533.84274557617
 30
0.0
  0
VERTEX
  5
18B4
  8
RIVERS
 10
1101520.3229199031
 20
694448.24940495857
 30
0.0
  0
VERTEX
  5
18B5
  8
RIVERS
 10
1101517.6974888069
 20
694434.25672818068
 30
0.0
  0
VERTEX
  5
18B6
  8
RIVERS
 10
1101513.321795054
 20
694426.38584749273
 30
0.0
  0
VERTEX
  5
18B7
  8
RIVERS
 10
1101494.068831611
 20
694404.52224802587
 30
0.0
  0
VERTEX
  5
18B8
  8
RIVERS
 10
1101480.0666561369
 20
694385.28231745563
 30
0.0
  0
VERTEX
  5
18B9
  8
RIVERS
 10
1101463.7331527809
 20
694358.88497512636
 30
0.0
  0
VERTEX
  5
18BA
  8
RIVERS
 10
1101439.810466595
 20
694359.04604849638
 30
0.0
  0
VERTEX
  5
18BB
  8
RIVERS
 10
1101412.681284087
 20
694363.41875998967
 30
0.0
  0
VERTEX
  5
18BC
  8
RIVERS
 10
1101385.5520273561
 20
694370.41509837878
 30
0.0
  0
VERTEX
  5
18BD
  8
RIVERS
 10
1101367.174232353
 20
694367.79147148295
 30
0.0
  0
VERTEX
  5
18BE
  8
RIVERS
 10
1101332.1688307801
 20
694359.04604849638
 30
0.0
  0
VERTEX
  5
18BF
  8
RIVERS
 10
1101317.2914868661
 20
694281.21174191649
 30
0.0
  0
VERTEX
  5
18C0
  8
RIVERS
 10
1101276.160128884
 20
694300.45171448751
 30
0.0
  0
VERTEX
  5
18C1
  8
RIVERS
 10
1101258.6574280979
 20
694292.58079179865
 30
0.0
  0
VERTEX
  5
18C2
  8
RIVERS
 10
1101153.641149156
 20
694143.03401673003
 30
0.0
  0
VERTEX
  5
18C3
  8
RIVERS
 10
1101208.774682611
 20
694087.06330961722
 30
0.0
  0
VERTEX
  5
18C4
  8
RIVERS
 10
1101151.015792283
 20
694042.46161038545
 30
0.0
  0
VERTEX
  5
18C5
  8
RIVERS
 10
1101103.924809345
 20
694000.48978873028
 30
0.0
  0
VERTEX
  5
18C6
  8
RIVERS
 10
1101141.5295707069
 20
694042.46831279085
 30
0.0
  0
VERTEX
  5
18C7
  8
RIVERS
 10
1101200.4026694349
 20
694086.94994972262
 30
0.0
  0
VERTEX
  5
18C8
  8
RIVERS
 10
1101142.5230650911
 20
694142.13751789834
 30
0.0
  0
VERTEX
  5
18C9
  8
RIVERS
 10
1101185.069522805
 20
694201.53642600565
 30
0.0
  0
VERTEX
  5
18CA
  8
RIVERS
 10
1101253.7407695891
 20
694297.31700229144
 30
0.0
  0
VERTEX
  5
18CB
  8
RIVERS
 10
1101279.058392962
 20
694308.41085968656
 30
0.0
  0
VERTEX
  5
18CC
  8
RIVERS
 10
1101314.7130167789
 20
694288.98225939251
 30
0.0
  0
VERTEX
  5
18CD
  8
RIVERS
 10
1101317.770257174
 20
694321.70261974761
 30
0.0
  0
VERTEX
  5
18CE
  8
RIVERS
 10
1101330.5231648469
 20
694364.81215257873
 30
0.0
  0
VERTEX
  5
18CF
  8
RIVERS
 10
1101384.1057180639
 20
694375.83520507265
 30
0.0
  0
VERTEX
  5
18D0
  8
RIVERS
 10
1101455.4764541639
 20
694361.52386461163
 30
0.0
  0
VERTEX
  5
18D1
  8
RIVERS
 10
1101511.446965307
 20
694435.02169847698
 30
0.0
  0
VERTEX
  5
18D2
  8
RIVERS
 10
1101515.7079326401
 20
694450.87272806256
 30
0.0
  0
VERTEX
  5
18D3
  8
RIVERS
 10
1101536.2238730059
 20
694527.19313897192
 30
0.0
  0
VERTEX
  5
18D4
  8
RIVERS
 10
1101604.263103059
 20
694667.60441513895
 30
0.0
  0
VERTEX
  5
18D5
  8
RIVERS
 10
1101663.23495599
 20
694751.50819106225
 30
0.0
  0
VERTEX
  5
18D6
  8
RIVERS
 10
1101743.6674793509
 20
694791.47290901537
 30
0.0
  0
VERTEX
  5
18D7
  8
RIVERS
 10
1101827.032402887
 20
694814.32245312608
 30
0.0
  0
VERTEX
  5
18D8
  8
RIVERS
 10
1101873.3016568909
 20
694875.19967268594
 30
0.0
  0
VERTEX
  5
18D9
  8
RIVERS
 10
1101924.6769910071
 20
694895.89789630286
 30
0.0
  0
VERTEX
  5
18DA
  8
RIVERS
 10
1101957.538961164
 20
694949.37051559356
 30
0.0
  0
VERTEX
  5
18DB
  8
RIVERS
 10
1101957.7364695719
 20
695028.21479357674
 30
0.0
  0
VERTEX
  5
18DC
  8
RIVERS
 10
1101918.321783728
 20
695031.28880355391
 30
0.0
  0
VERTEX
  5
18DD
  8
RIVERS
 10
1101863.361536551
 20
695064.15450028447
 30
0.0
  0
VERTEX
  5
18DE
  8
RIVERS
 10
1101850.862035891
 20
695122.2036637339
 30
0.0
  0
VERTEX
  5
18DF
  8
RIVERS
 10
1101873.2994311219
 20
695171.23948538175
 30
0.0
  0
VERTEX
  5
18E0
  8
RIVERS
 10
1101938.7885972899
 20
695184.46416711551
 30
0.0
  0
VERTEX
  5
18E1
  8
RIVERS
 10
1101938.9246172321
 20
695238.76258497208
 30
0.0
  0
VERTEX
  5
18E2
  8
RIVERS
 10
1101898.102424837
 20
695273.82432108198
 30
0.0
  0
VERTEX
  5
18E3
  8
RIVERS
 10
1101899.049337049
 20
695354.89817760792
 30
0.0
  0
VERTEX
  5
18E4
  8
RIVERS
 10
1101871.5785298939
 20
695375.05009568972
 30
0.0
  0
VERTEX
  5
18E5
  8
RIVERS
 10
1101869.4216195389
 20
695404.80824327981
 30
0.0
  0
VERTEX
  5
18E6
  8
RIVERS
 10
1101838.2727349801
 20
695441.33338454715
 30
0.0
  0
VERTEX
  5
18E7
  8
RIVERS
 10
1101878.5486218401
 20
695485.11778970715
 30
0.0
  0
VERTEX
  5
18E8
  8
RIVERS
 10
1101880.1592266599
 20
695534.20578338706
 30
0.0
  0
VERTEX
  5
18E9
  8
RIVERS
 10
1101938.2586988551
 20
695566.7882605138
 30
0.0
  0
VERTEX
  5
18EA
  8
RIVERS
 10
1101941.32152911
 20
695601.74006269861
 30
0.0
  0
VERTEX
  5
18EB
  8
RIVERS
 10
1101969.746701624
 20
695665.63725691615
 30
0.0
  0
VERTEX
  5
18EC
  8
RIVERS
 10
1102043.419684455
 20
695679.58525643765
 30
0.0
  0
VERTEX
  5
18ED
  8
RIVERS
 10
1102137.934363992
 20
695699.4315954725
 30
0.0
  0
VERTEX
  5
18EE
  8
RIVERS
 10
1102168.5630290329
 20
695752.16599068092
 30
0.0
  0
VERTEX
  5
18EF
  8
RIVERS
 10
1102223.003056691
 20
695808.55983042566
 30
0.0
  0
VERTEX
  5
18F0
  8
RIVERS
 10
1102204.495282593
 20
695843.56566792948
 30
0.0
  0
VERTEX
  5
18F1
  8
RIVERS
 10
1102259.7517923829
 20
695928.96638817387
 30
0.0
  0
VERTEX
  5
18F2
  8
RIVERS
 10
1102314.915137829
 20
695977.17641125573
 30
0.0
  0
VERTEX
  5
18F3
  8
RIVERS
 10
1102278.654583297
 20
696051.64910663606
 30
0.0
  0
VERTEX
  5
18F4
  8
RIVERS
 10
1102297.4418504259
 20
696128.21536061808
 30
0.0
  0
VERTEX
  5
18F5
  8
RIVERS
 10
1102416.4632610651
 20
696132.38011837867
 30
0.0
  0
VERTEX
  5
18F6
  8
RIVERS
 10
1102465.609016638
 20
696153.82774579886
 30
0.0
  0
VERTEX
  5
18F7
  8
RIVERS
 10
1102413.8196703549
 20
696264.78645342262
 30
0.0
  0
VERTEX
  5
18F8
  8
RIVERS
 10
1102448.1487722429
 20
696310.07339276385
 30
0.0
  0
VERTEX
  5
18F9
  8
RIVERS
 10
1102518.180943406
 20
696355.27089433582
 30
0.0
  0
VERTEX
  5
18FA
  8
RIVERS
 10
1102542.1190095311
 20
696409.50968701218
 30
0.0
  0
VERTEX
  5
18FB
  8
RIVERS
 10
1102556.4787954511
 20
696500.21958563698
 30
0.0
  0
VERTEX
  5
18FC
  8
RIVERS
 10
1102581.1364527899
 20
696544.78693376458
 30
0.0
  0
VERTEX
  5
18FD
  8
RIVERS
 10
1102680.891369093
 20
696578.00888076995
 30
0.0
  0
VERTEX
  5
18FE
  8
RIVERS
 10
1102720.3992192801
 20
696612.12556795473
 30
0.0
  0
VERTEX
  5
18FF
  8
RIVERS
 10
1102775.5308888501
 20
696647.69075400184
 30
0.0
  0
VERTEX
  5
1900
  8
RIVERS
 10
1102960.166305878
 20
696714.91572769301
 30
0.0
  0
VERTEX
  5
1901
  8
RIVERS
 10
1103071.7924326831
 20
696736.20683901664
 30
0.0
  0
VERTEX
  5
1902
  8
RIVERS
 10
1103151.542630567
 20
696800.71928038332
 30
0.0
  0
VERTEX
  5
1903
  8
RIVERS
 10
1103269.190073818
 20
696850.26041525509
 30
0.0
  0
VERTEX
  5
1904
  8
RIVERS
 10
1103426.222390325
 20
696884.82651705772
 30
0.0
  0
VERTEX
  5
1905
  8
RIVERS
 10
1103632.277485471
 20
696891.74852602743
 30
0.0
  0
VERTEX
  5
1906
  8
RIVERS
 10
1103770.5355778569
 20
696854.95507145103
 30
0.0
  0
VERTEX
  5
1907
  8
RIVERS
 10
1103896.780849938
 20
696773.56259287021
 30
0.0
  0
VERTEX
  5
1908
  8
RIVERS
 10
1103988.1563044579
 20
696727.96075804776
 30
0.0
  0
VERTEX
  5
1909
  8
RIVERS
 10
1104136.0187630651
 20
696665.10959272878
 30
0.0
  0
VERTEX
  5
190A
  8
RIVERS
 10
1104245.959753576
 20
696607.56015264278
 30
0.0
  0
VERTEX
  5
190B
  8
RIVERS
 10
1104433.337515519
 20
696581.80093028152
 30
0.0
  0
VERTEX
  5
190C
  8
RIVERS
 10
1104486.2340166839
 20
696615.88407830289
 30
0.0
  0
VERTEX
  5
190D
  8
RIVERS
 10
1104579.4660298901
 20
696717.55367766786
 30
0.0
  0
VERTEX
  5
190E
  8
RIVERS
 10
1104688.9147501851
 20
696760.42098320602
 30
0.0
  0
VERTEX
  5
190F
  8
RIVERS
 10
1104775.213937182
 20
696766.89916741825
 30
0.0
  0
VERTEX
  5
1910
  8
RIVERS
 10
1104854.129020066
 20
696794.96658885304
 30
0.0
  0
VERTEX
  5
1911
  8
RIVERS
 10
1104900.4057272179
 20
696858.81906418572
 30
0.0
  0
VERTEX
  5
1912
  8
RIVERS
 10
1104891.0324085681
 20
696977.10970389005
 30
0.0
  0
VERTEX
  5
1913
  8
RIVERS
 10
1104909.78799982
 20
697041.03112083673
 30
0.0
  0
SEQEND
  5
1914
  8
RIVERS
  0
POLYLINE
  5
93
  8
RIVERS
 66
     1
 10
0.0
 20
0.0
 30
0.0
 40
9.9889538152213202
 41
9.9889538152213202
  0
VERTEX
  5
1915
  8
RIVERS
 10
1077618.8476166921
 20
702957.8709561741
 30
0.0
  0
VERTEX
  5
1916
  8
RIVERS
 10
1077398.9522104431
 20
702949.6159669573
 30
0.0
  0
VERTEX
  5
1917
  8
RIVERS
 10
1077244.448002737
 20
702918.69744579005
 30
0.0
  0
VERTEX
  5
1918
  8
RIVERS
 10
1077106.962646666
 20
702878.22959713312
 30
0.0
  0
VERTEX
  5
1919
  8
RIVERS
 10
1076987.86434288
 20
702804.08970457432
 30
0.0
  0
SEQEND
  5
191A
  8
RIVERS
  0
POLYLINE
  5
94
  8
RIVERS
 66
     1
 10
0.0
 20
0.0
 30
0.0
 40
9.9873826573271547
 41
9.9873826573271547
  0
VERTEX
  5
191B
  8
RIVERS
 10
1076987.86434288
 20
702828.01031215198
 30
0.0
  0
VERTEX
  5
191C
  8
RIVERS
 10
1077105.8943626031
 20
702901.62140735658
 30
0.0
  0
VERTEX
  5
191D
  8
RIVERS
 10
1077378.0704889931
 20
702969.93101382302
 30
0.0
  0
VERTEX
  5
191E
  8
RIVERS
 10
1077750.1465365959
 20
702980.07837982476
 30
0.0
 40
10.03925833531334
 41
10.03925833531334
  0
VERTEX
  5
191F
  8
RIVERS
 10
1077841.3041630411
 20
702966.27367680427
 30
0.0
 40
10.03925833531334
 41
10.03925833531334
  0
VERTEX
  5
1920
  8
RIVERS
 10
1077865.417572096
 20
702955.42987689201
 30
0.0
 40
10.03925833531334
 41
10.03925833531334
  0
VERTEX
  5
1921
  8
RIVERS
 10
1077885.4981651041
 20
702946.14969559491
 30
0.0
 40
10.03925833531334
 41
10.03925833531334
  0
VERTEX
  5
1922
  8
RIVERS
 10
1077915.0457959811
 20
702934.99572433974
 30
0.0
 40
10.03925833531334
 41
10.03925833531334
  0
VERTEX
  5
1923
  8
RIVERS
 10
1077940.6772678921
 20
702928.16367989057
 30
0.0
 40
10.03925833531334
 41
10.03925833531334
  0
VERTEX
  5
1924
  8
RIVERS
 10
1077952.928145214
 20
702927.53730328369
 30
0.0
 40
10.03925833531334
 41
10.03925833531334
  0
VERTEX
  5
1925
  8
RIVERS
 10
1077973.523317856
 20
702930.63197754382
 30
0.0
 40
10.03925833531334
 41
10.03925833531334
  0
VERTEX
  5
1926
  8
RIVERS
 10
1077991.3984926541
 20
702933.8647793635
 30
0.0
 40
10.03925833531334
 41
10.03925833531334
  0
VERTEX
  5
1927
  8
RIVERS
 10
1078017.6248481879
 20
702940.81908907928
 30
0.0
 40
10.03925833531334
 41
10.03925833531334
  0
VERTEX
  5
1928
  8
RIVERS
 10
1078036.379023249
 20
702953.1037482965
 30
0.0
 40
10.03925833531334
 41
10.03925833531334
  0
VERTEX
  5
1929
  8
RIVERS
 10
1078047.303549191
 20
702961.50535200711
 30
0.0
 40
10.03925833531334
 41
10.03925833531334
  0
VERTEX
  5
192A
  8
RIVERS
 10
1078087.7118748319
 20
702984.62280431832
 30
0.0
 40
10.03925833531334
 41
10.03925833531334
  0
VERTEX
  5
192B
  8
RIVERS
 10
1078121.2469211521
 20
703000.25903061964
 30
0.0
 40
10.03925833531334
 41
10.03925833531334
  0
VERTEX
  5
192C
  8
RIVERS
 10
1078147.7760864131
 20
703012.1907498932
 30
0.0
 40
10.03925833531334
 41
10.03925833531334
  0
VERTEX
  5
192D
  8
RIVERS
 10
1078172.6983771671
 20
703019.8473072811
 30
0.0
 40
10.03925833531334
 41
10.03925833531334
  0
VERTEX
  5
192E
  8
RIVERS
 10
1078208.6786217031
 20
703025.14588756289
 30
0.0
 40
10.03925833531334
 41
10.03925833531334
  0
VERTEX
  5
192F
  8
RIVERS
 10
1078243.1271492711
 20
703027.8722874719
 30
0.0
 40
10.03925833531334
 41
10.03925833531334
  0
VERTEX
  5
1930
  8
RIVERS
 10
1078273.6139819629
 20
703031.35069938644
 30
0.0
 40
10.03925833531334
 41
10.03925833531334
  0
VERTEX
  5
1931
  8
RIVERS
 10
1078307.3790116201
 20
703037.48027990269
 30
0.0
 40
10.03925833531334
 41
10.03925833531334
  0
VERTEX
  5
1932
  8
RIVERS
 10
1078340.0235307331
 20
703043.89198765054
 30
0.0
 40
10.03925833531334
 41
10.03925833531334
  0
VERTEX
  5
1933
  8
RIVERS
 10
1078372.4829963851
 20
703052.26306374674
 30
0.0
 40
10.03925833531334
 41
10.03925833531334
  0
VERTEX
  5
1934
  8
RIVERS
 10
1078404.5256561411
 20
703063.76448020362
 30
0.0
 40
10.03925833531334
 41
10.03925833531334
  0
VERTEX
  5
1935
  8
RIVERS
 10
1078427.6405608989
 20
703074.06042555033
 30
0.0
 40
10.03925833531334
 41
10.03925833531334
  0
VERTEX
  5
1936
  8
RIVERS
 10
1078457.191231786
 20
703087.01116196194
 30
0.0
 40
10.03925833531334
 41
10.03925833531334
  0
VERTEX
  5
1937
  8
RIVERS
 10
1078481.11738797
 20
703095.92669360933
 30
0.0
 40
10.03925833531334
 41
10.03925833531334
  0
VERTEX
  5
1938
  8
RIVERS
 10
1078510.871031947
 20
703106.59993702092
 30
0.0
 40
10.03925833531334
 41
10.03925833531334
  0
VERTEX
  5
1939
  8
RIVERS
 10
1078533.964986936
 20
703115.68247501401
 30
0.0
 40
10.03925833531334
 41
10.03925833531334
  0
VERTEX
  5
193A
  8
RIVERS
 10
1078562.8084358131
 20
703124.69839451707
 30
0.0
 40
10.03925833531334
 41
10.03925833531334
  0
VERTEX
  5
193B
  8
RIVERS
 10
1078590.2047554171
 20
703133.0891289328
 30
0.0
 40
10.03925833531334
 41
10.03925833531334
  0
VERTEX
  5
193C
  8
RIVERS
 10
1078616.55563491
 20
703137.24726483296
 30
0.0
 40
10.03925833531334
 41
10.03925833531334
  0
VERTEX
  5
193D
  8
RIVERS
 10
1078640.9137021599
 20
703141.38719979487
 30
0.0
 40
10.03925833531334
 41
10.03925833531334
  0
VERTEX
  5
193E
  8
RIVERS
 10
1078666.5513562481
 20
703141.72123941616
 30
0.0
 40
10.03925833531334
 41
10.03925833531334
  0
VERTEX
  5
193F
  8
RIVERS
 10
1078695.683936975
 20
703135.9128833412
 30
0.0
 40
10.03925833531334
 41
10.03925833531334
  0
VERTEX
  5
1940
  8
RIVERS
 10
1078724.9904233851
 20
703125.2463201416
 30
0.0
 40
10.03925833531334
 41
10.03925833531334
  0
VERTEX
  5
1941
  8
RIVERS
 10
1078750.8596511399
 20
703109.92833524931
 30
0.0
 40
10.03925833531334
 41
10.03925833531334
  0
VERTEX
  5
1942
  8
RIVERS
 10
1078777.844657247
 20
703101.98020207568
 30
0.0
 40
10.03925833531334
 41
10.03925833531334
  0
VERTEX
  5
1943
  8
RIVERS
 10
1078807.502248476
 20
703103.51864957111
 30
0.0
 40
10.03925833531334
 41
10.03925833531334
  0
VERTEX
  5
1944
  8
RIVERS
 10
1078835.4843700831
 20
703107.68701731425
 30
0.0
 40
10.03925833531334
 41
10.03925833531334
  0
VERTEX
  5
1945
  8
RIVERS
 10
1078865.390834731
 20
703123.56416347576
 30
0.0
 40
10.03925833531334
 41
10.03925833531334
  0
VERTEX
  5
1946
  8
RIVERS
 10
1078870.3863180119
 20
703148.46133172221
 30
0.0
 40
10.03925833531334
 41
10.03925833531334
  0
VERTEX
  5
1947
  8
RIVERS
 10
1078870.9744362249
 20
703173.86022683245
 30
0.0
 40
10.03925833531334
 41
10.03925833531334
  0
VERTEX
  5
1948
  8
RIVERS
 10
1078869.28064991
 20
703201.53612561745
 30
0.0
 40
10.03925833531334
 41
10.03925833531334
  0
VERTEX
  5
1949
  8
RIVERS
 10
1078866.9141921459
 20
703229.28738615476
 30
0.0
 40
10.03925833531334
 41
10.03925833531334
  0
VERTEX
  5
194A
  8
RIVERS
 10
1078868.029337436
 20
703256.573394167
 30
0.0
 40
10.03925833531334
 41
10.03925833531334
  0
VERTEX
  5
194B
  8
RIVERS
 10
1078873.6637775861
 20
703279.65561577119
 30
0.0
 40
10.03925833531334
 41
10.03925833531334
  0
VERTEX
  5
194C
  8
RIVERS
 10
1078887.710202012
 20
703305.08770907857
 30
0.0
 40
10.03925833531334
 41
10.03925833531334
  0
VERTEX
  5
194D
  8
RIVERS
 10
1078905.993203656
 20
703330.24621579831
 30
0.0
 40
10.03925833531334
 41
10.03925833531334
  0
VERTEX
  5
194E
  8
RIVERS
 10
1078931.980776439
 20
703350.29599830962
 30
0.0
 40
10.03925833531334
 41
10.03925833531334
  0
VERTEX
  5
194F
  8
RIVERS
 10
1078960.687121484
 20
703366.7112517202
 30
0.0
 40
10.03925833531334
 41
10.03925833531334
  0
VERTEX
  5
1950
  8
RIVERS
 10
1078985.0580470001
 20
703374.22348841862
 30
0.0
 40
10.03925833531334
 41
10.03925833531334
  0
VERTEX
  5
1951
  8
RIVERS
 10
1079014.0503982969
 20
703377.81098513387
 30
0.0
 40
10.03925833531334
 41
10.03925833531334
  0
VERTEX
  5
1952
  8
RIVERS
 10
1079039.770237454
 20
703378.50186943985
 30
0.0
 40
10.03925833531334
 41
10.03925833531334
  0
VERTEX
  5
1953
  8
RIVERS
 10
1079066.6548922169
 20
703374.72368613735
 30
0.0
 40
10.03925833531334
 41
10.03925833531334
  0
VERTEX
  5
1954
  8
RIVERS
 10
1079094.8659441769
 20
703378.52082793158
 30
0.0
 40
10.03925833531334
 41
10.03925833531334
  0
VERTEX
  5
1955
  8
RIVERS
 10
1079120.081207725
 20
703379.49631727091
 30
0.0
 40
10.03925833531334
 41
10.03925833531334
  0
VERTEX
  5
1956
  8
RIVERS
 10
1079146.1682043721
 20
703378.87951719889
 30
0.0
 40
10.03925833531334
 41
10.03925833531334
  0
VERTEX
  5
1957
  8
RIVERS
 10
1079177.536216781
 20
703379.76529276534
 30
0.0
 40
10.03925833531334
 41
10.03925833531334
  0
VERTEX
  5
1958
  8
RIVERS
 10
1079206.6744707569
 20
703381.66484237392
 30
0.0
 40
10.03925833531334
 41
10.03925833531334
  0
VERTEX
  5
1959
  8
RIVERS
 10
1079233.8012813581
 20
703387.29361923854
 30
0.0
 40
10.03925833531334
 41
10.03925833531334
  0
VERTEX
  5
195A
  8
RIVERS
 10
1079255.1740999301
 20
703406.36216079199
 30
0.0
 40
10.03925833531334
 41
10.03925833531334
  0
VERTEX
  5
195B
  8
RIVERS
 10
1079264.5657598181
 20
703426.88076037786
 30
0.0
 40
10.03925833531334
 41
10.03925833531334
  0
VERTEX
  5
195C
  8
RIVERS
 10
1079273.681827262
 20
703449.66089510755
 30
0.0
 40
10.03925833531334
 41
10.03925833531334
  0
VERTEX
  5
195D
  8
RIVERS
 10
1079283.6412317751
 20
703464.69340235239
 30
0.0
 40
10.03925833531334
 41
10.03925833531334
  0
VERTEX
  5
195E
  8
RIVERS
 10
1079304.754934065
 20
703492.34387477895
 30
0.0
 40
10.03925833531334
 41
10.03925833531334
  0
VERTEX
  5
195F
  8
RIVERS
 10
1079329.0481320231
 20
703494.82534229383
 30
0.0
 40
10.03925833531334
 41
10.03925833531334
  0
VERTEX
  5
1960
  8
RIVERS
 10
1079353.816303835
 20
703494.02904849139
 30
0.0
 40
10.03925833531334
 41
10.03925833531334
  0
VERTEX
  5
1961
  8
RIVERS
 10
1079377.5609495321
 20
703503.08833808498
 30
0.0
 40
10.03925833531334
 41
10.03925833531334
  0
VERTEX
  5
1962
  8
RIVERS
 10
1079402.8017705961
 20
703520.00108620978
 30
0.0
 40
10.03925833531334
 41
10.03925833531334
  0
VERTEX
  5
1963
  8
RIVERS
 10
1079429.062719492
 20
703551.73904694454
 30
0.0
 40
10.03925833531334
 41
10.03925833531334
  0
VERTEX
  5
1964
  8
RIVERS
 10
1079447.823482255
 20
703573.756409019
 30
0.0
 40
10.03925833531334
 41
10.03925833531334
  0
VERTEX
  5
1965
  8
RIVERS
 10
1079470.839600672
 20
703601.30392060138
 30
0.0
 40
10.03925833531334
 41
10.03925833531334
  0
VERTEX
  5
1966
  8
RIVERS
 10
1079494.33590833
 20
703618.51053967315
 30
0.0
 40
10.03925833531334
 41
10.03925833531334
  0
VERTEX
  5
1967
  8
RIVERS
 10
1079520.1113451291
 20
703628.17077574099
 30
0.0
 40
10.03925833531334
 41
10.03925833531334
  0
VERTEX
  5
1968
  8
RIVERS
 10
1079544.9929352771
 20
703635.35573066084
 30
0.0
 40
10.03925833531334
 41
10.03925833531334
  0
VERTEX
  5
1969
  8
RIVERS
 10
1079568.509664211
 20
703631.40023507387
 30
0.0
 40
10.03925833531334
 41
10.03925833531334
  0
VERTEX
  5
196A
  8
RIVERS
 10
1079590.6173459559
 20
703622.85440048529
 30
0.0
 40
10.03925833531334
 41
10.03925833531334
  0
VERTEX
  5
196B
  8
RIVERS
 10
1079612.5100605311
 20
703610.78787978995
 30
0.0
 40
10.03925833531334
 41
10.03925833531334
  0
VERTEX
  5
196C
  8
RIVERS
 10
1079635.0393104041
 20
703598.26266264147
 30
0.0
 40
10.03925833531334
 41
10.03925833531334
  0
VERTEX
  5
196D
  8
RIVERS
 10
1079658.2016385291
 20
703586.72496638924
 30
0.0
 40
10.03925833531334
 41
10.03925833531334
  0
VERTEX
  5
196E
  8
RIVERS
 10
1079683.207229025
 20
703571.27341627597
 30
0.0
 40
10.03925833531334
 41
10.03925833531334
  0
VERTEX
  5
196F
  8
RIVERS
 10
1079709.306298522
 20
703556.98849145172
 30
0.0
 40
10.03925833531334
 41
10.03925833531334
  0
VERTEX
  5
1970
  8
RIVERS
 10
1079741.2240811151
 20
703541.21465606557
 30
0.0
 40
10.03925833531334
 41
10.03925833531334
  0
VERTEX
  5
1971
  8
RIVERS
 10
1079773.8285537411
 20
703530.07863976446
 30
0.0
 40
10.03925833531334
 41
10.03925833531334
  0
VERTEX
  5
1972
  8
RIVERS
 10
1079801.0156851071
 20
703527.10621017113
 30
0.0
 40
10.03925833531334
 41
10.03925833531334
  0
VERTEX
  5
1973
  8
RIVERS
 10
1079827.31816493
 20
703542.8227283801
 30
0.0
 40
10.03925833531334
 41
10.03925833531334
  0
VERTEX
  5
1974
  8
RIVERS
 10
1079849.196555051
 20
703567.79653390474
 30
0.0
 40
10.03925833531334
 41
10.03925833531334
  0
VERTEX
  5
1975
  8
RIVERS
 10
1079869.216487691
 20
703600.66726465034
 30
0.0
 40
10.03925833531334
 41
10.03925833531334
  0
VERTEX
  5
1976
  8
RIVERS
 10
1079883.298131661
 20
703629.59164200118
 30
0.0
 40
10.03925833531334
 41
10.03925833531334
  0
VERTEX
  5
1977
  8
RIVERS
 10
1079894.3373705321
 20
703652.7254328283
 30
0.0
 40
10.03925833531334
 41
10.03925833531334
  0
VERTEX
  5
1978
  8
RIVERS
 10
1079895.7349180961
 20
703663.91884164757
 30
0.0
 40
10.03925833531334
 41
10.03925833531334
  0
VERTEX
  5
1979
  8
RIVERS
 10
1079907.852419846
 20
703695.25221732631
 30
0.0
 40
10.03925833531334
 41
10.03925833531334
  0
VERTEX
  5
197A
  8
RIVERS
 10
1079911.552423066
 20
703721.62929731968
 30
0.0
 40
10.03925833531334
 41
10.03925833531334
  0
VERTEX
  5
197B
  8
RIVERS
 10
1079916.023628542
 20
703750.25836928771
 30
0.0
 40
10.03925833531334
 41
10.03925833531334
  0
VERTEX
  5
197C
  8
RIVERS
 10
1079921.0985353419
 20
703780.4039570922
 30
0.0
 40
10.03925833531334
 41
10.03925833531334
  0
VERTEX
  5
197D
  8
RIVERS
 10
1079924.5114959851
 20
703806.20274130593
 30
0.0
 40
10.03925833531334
 41
10.03925833531334
  0
VERTEX
  5
197E
  8
RIVERS
 10
1079923.7170272679
 20
703830.18232266221
 30
0.0
 40
10.03925833531334
 41
10.03925833531334
  0
VERTEX
  5
197F
  8
RIVERS
 10
1079920.6617166691
 20
703854.3792304825
 30
0.0
 40
10.03925833531334
 41
10.03925833531334
  0
VERTEX
  5
1980
  8
RIVERS
 10
1079921.2961786941
 20
703889.95120884129
 30
0.0
 40
10.03925833531334
 41
10.03925833531334
  0
VERTEX
  5
1981
  8
RIVERS
 10
1079921.2614257711
 20
703929.80966857472
 30
0.0
 40
10.03925833531334
 41
10.03925833531334
  0
VERTEX
  5
1982
  8
RIVERS
 10
1079919.5230050371
 20
703964.45482981496
 30
0.0
 40
10.03925833531334
 41
10.03925833531334
  0
VERTEX
  5
1983
  8
RIVERS
 10
1079918.7200103339
 20
703999.07346442575
 30
0.0
 40
10.03925833531334
 41
10.03925833531334
  0
VERTEX
  5
1984
  8
RIVERS
 10
1079918.1051409361
 20
704033.02230359975
 30
0.0
 40
10.03925833531334
 41
10.03925833531334
  0
VERTEX
  5
1985
  8
RIVERS
 10
1079919.906436679
 20
704064.03497735015
 30
0.0
 40
10.03925833531334
 41
10.03925833531334
  0
VERTEX
  5
1986
  8
RIVERS
 10
1079925.2986895069
 20
704095.12165751436
 30
0.0
 40
10.03925833531334
 41
10.03925833531334
  0
VERTEX
  5
1987
  8
RIVERS
 10
1079940.0214810211
 20
704125.54226971115
 30
0.0
 40
10.03925833531334
 41
10.03925833531334
  0
VERTEX
  5
1988
  8
RIVERS
 10
1079961.4248047071
 20
704144.62978286215
 30
0.0
 40
10.03925833531334
 41
10.03925833531334
  0
VERTEX
  5
1989
  8
RIVERS
 10
1079991.6884214571
 20
704158.13221636438
 30
0.0
 40
10.03925833531334
 41
10.03925833531334
  0
VERTEX
  5
198A
  8
RIVERS
 10
1080020.5313719369
 20
704158.2490149989
 30
0.0
 40
10.03925833531334
 41
10.03925833531334
  0
VERTEX
  5
198B
  8
RIVERS
 10
1080048.596376172
 20
704150.85970535886
 30
0.0
 40
10.03925833531334
 41
10.03925833531334
  0
VERTEX
  5
198C
  8
RIVERS
 10
1080073.8820395819
 20
704145.1920911175
 30
0.0
 40
10.03925833531334
 41
10.03925833531334
  0
VERTEX
  5
198D
  8
RIVERS
 10
1080100.253445145
 20
704146.7073485977
 30
0.0
 40
10.03925833531334
 41
10.03925833531334
  0
VERTEX
  5
198E
  8
RIVERS
 10
1080122.5128492459
 20
704163.01083551638
 30
0.0
 40
10.03925833531334
 41
10.03925833531334
  0
VERTEX
  5
198F
  8
RIVERS
 10
1080128.412714286
 20
704189.90424843377
 30
0.0
 40
10.03925833531334
 41
10.03925833531334
  0
VERTEX
  5
1990
  8
RIVERS
 10
1080129.391980893
 20
704218.60138120793
 30
0.0
 40
10.03925833531334
 41
10.03925833531334
  0
VERTEX
  5
1991
  8
RIVERS
 10
1080130.182561459
 20
704250.89172212686
 30
0.0
 40
10.03925833531334
 41
10.03925833531334
  0
VERTEX
  5
1992
  8
RIVERS
 10
1080132.9596258949
 20
704279.14906463551
 30
0.0
 40
10.03925833531334
 41
10.03925833531334
  0
VERTEX
  5
1993
  8
RIVERS
 10
1080141.9051055431
 20
704304.58277745766
 30
0.0
 40
10.03925833531334
 41
10.03925833531334
  0
VERTEX
  5
1994
  8
RIVERS
 10
1080149.5288924079
 20
704339.1936138887
 30
0.0
 40
10.03925833531334
 41
10.03925833531334
  0
VERTEX
  5
1995
  8
RIVERS
 10
1080156.18955596
 20
704367.74478270498
 30
0.0
 40
10.03925833531334
 41
10.03925833531334
  0
VERTEX
  5
1996
  8
RIVERS
 10
1080168.765462182
 20
704393.34884025052
 30
0.0
 40
10.03925833531334
 41
10.03925833531334
  0
VERTEX
  5
1997
  8
RIVERS
 10
1080185.924331086
 20
704418.16257953073
 30
0.0
 40
10.03925833531334
 41
10.03925833531334
  0
VERTEX
  5
1998
  8
RIVERS
 10
1080209.572607961
 20
704438.90559142095
 30
0.0
 40
10.03925833531334
 41
10.03925833531334
  0
VERTEX
  5
1999
  8
RIVERS
 10
1080235.3285689841
 20
704447.79303823237
 30
0.0
 40
10.03925833531334
 41
10.03925833531334
  0
VERTEX
  5
199A
  8
RIVERS
 10
1080263.0824300931
 20
704448.06241546245
 30
0.0
 40
10.03925833531334
 41
10.03925833531334
  0
VERTEX
  5
199B
  8
RIVERS
 10
1080289.8264484489
 20
704450.99683255935
 30
0.0
 40
10.03925833531334
 41
10.03925833531334
  0
VERTEX
  5
199C
  8
RIVERS
 10
1080315.821447846
 20
704456.00520303089
 30
0.0
 40
10.03925833531334
 41
10.03925833531334
  0
VERTEX
  5
199D
  8
RIVERS
 10
1080344.1599952159
 20
704459.73141278769
 30
0.0
 40
10.03925833531334
 41
10.03925833531334
  0
VERTEX
  5
199E
  8
RIVERS
 10
1080377.380102284
 20
704450.79611803987
 30
0.0
 40
10.03925833531334
 41
10.03925833531334
  0
VERTEX
  5
199F
  8
RIVERS
 10
1080403.0770547739
 20
704442.9319645745
 30
0.0
 40
10.03925833531334
 41
10.03925833531334
  0
VERTEX
  5
19A0
  8
RIVERS
 10
1080433.1151338869
 20
704429.64765518485
 30
0.0
 40
10.03925833531334
 41
10.03925833531334
  0
VERTEX
  5
19A1
  8
RIVERS
 10
1080459.378804819
 20
704415.30921945022
 30
0.0
 40
10.03925833531334
 41
10.03925833531334
  0
VERTEX
  5
19A2
  8
RIVERS
 10
1080487.215503844
 20
704406.55110190494
 30
0.0
 40
10.03925833531334
 41
10.03925833531334
  0
VERTEX
  5
19A3
  8
RIVERS
 10
1080518.402758691
 20
704399.64783511066
 30
0.0
 40
10.03925833531334
 41
10.03925833531334
  0
VERTEX
  5
19A4
  8
RIVERS
 10
1080548.476725756
 20
704401.21522801707
 30
0.0
 40
10.03925833531334
 41
10.03925833531334
  0
VERTEX
  5
19A5
  8
RIVERS
 10
1080574.2545126551
 20
704423.58709400892
 30
0.0
 40
10.03925833531334
 41
10.03925833531334
  0
VERTEX
  5
19A6
  8
RIVERS
 10
1080597.475027883
 20
704442.33068483858
 30
0.0
 40
10.03925833531334
 41
10.03925833531334
  0
VERTEX
  5
19A7
  8
RIVERS
 10
1080625.1954109769
 20
704460.65244731354
 30
0.0
 40
10.03925833531334
 41
10.03925833531334
  0
VERTEX
  5
19A8
  8
RIVERS
 10
1080648.671442765
 20
704473.00841986935
 30
0.0
 40
10.03925833531334
 41
10.03925833531334
  0
VERTEX
  5
19A9
  8
RIVERS
 10
1080674.799888232
 20
704481.77846751735
 30
0.0
 40
10.03925833531334
 41
10.03925833531334
  0
VERTEX
  5
19AA
  8
RIVERS
 10
1080713.640324427
 20
704483.40482709918
 30
0.0
 40
10.03925833531334
 41
10.03925833531334
  0
VERTEX
  5
19AB
  8
RIVERS
 10
1080746.5455673209
 20
704478.26590587222
 30
0.0
 40
10.03925833531334
 41
10.03925833531334
  0
VERTEX
  5
19AC
  8
RIVERS
 10
1080775.131306621
 20
704467.83839076804
 30
0.0
 40
10.03925833531334
 41
10.03925833531334
  0
VERTEX
  5
19AD
  8
RIVERS
 10
1080798.6624191289
 20
704455.46679139067
 30
0.0
 40
10.03925833531334
 41
10.03925833531334
  0
VERTEX
  5
19AE
  8
RIVERS
 10
1080798.692695122
 20
704434.52301476547
 30
0.0
 40
10.03925833531334
 41
10.03925833531334
  0
VERTEX
  5
19AF
  8
RIVERS
 10
1080798.918649137
 20
704404.76731042704
 30
0.0
 40
10.03925833531334
 41
10.03925833531334
  0
VERTEX
  5
19B0
  8
RIVERS
 10
1080810.7158932299
 20
704378.73408017785
 30
0.0
 40
10.03925833531334
 41
10.03925833531334
  0
VERTEX
  5
19B1
  8
RIVERS
 10
1080819.0828989351
 20
704346.93622048874
 30
0.0
 40
10.03925833531334
 41
10.03925833531334
  0
VERTEX
  5
19B2
  8
RIVERS
 10
1080825.842992808
 20
704318.27401251602
 30
0.0
 40
10.03925833531334
 41
10.03925833531334
  0
VERTEX
  5
19B3
  8
RIVERS
 10
1080838.6343496351
 20
704289.5614904894
 30
0.0
 40
10.03925833531334
 41
10.03925833531334
  0
VERTEX
  5
19B4
  8
RIVERS
 10
1080857.487243613
 20
704267.36410832719
 30
0.0
 40
10.03925833531334
 41
10.03925833531334
  0
VERTEX
  5
19B5
  8
RIVERS
 10
1080875.017130902
 20
704247.45289990096
 30
0.0
 40
10.03925833531334
 41
10.03925833531334
  0
VERTEX
  5
19B6
  8
RIVERS
 10
1080899.0402633171
 20
704230.88747940864
 30
0.0
 40
10.03925833531334
 41
10.03925833531334
  0
VERTEX
  5
19B7
  8
RIVERS
 10
1080922.02008361
 20
704216.60207728099
 30
0.0
 40
10.03925833531334
 41
10.03925833531334
  0
VERTEX
  5
19B8
  8
RIVERS
 10
1080951.390429388
 20
704210.22648066864
 30
0.0
 40
10.03925833531334
 41
10.03925833531334
  0
VERTEX
  5
19B9
  8
RIVERS
 10
1080981.907753662
 20
704210.68128933979
 30
0.0
 40
10.03925833531334
 41
10.03925833531334
  0
VERTEX
  5
19BA
  8
RIVERS
 10
1081008.9729541531
 20
704218.32338080171
 30
0.0
 40
10.03925833531334
 41
10.03925833531334
  0
VERTEX
  5
19BB
  8
RIVERS
 10
1081033.8394304051
 20
704228.85121453635
 30
0.0
 40
10.03925833531334
 41
10.03925833531334
  0
VERTEX
  5
19BC
  8
RIVERS
 10
1081056.541018422
 20
704243.12929963693
 30
0.0
 40
10.03925833531334
 41
10.03925833531334
  0
VERTEX
  5
19BD
  8
RIVERS
 10
1081083.821347367
 20
704264.78629781923
 30
0.0
 40
10.03925833531334
 41
10.03925833531334
  0
VERTEX
  5
19BE
  8
RIVERS
 10
1081112.250523583
 20
704287.28025766567
 30
0.0
 40
10.03925833531334
 41
10.03925833531334
  0
VERTEX
  5
19BF
  8
RIVERS
 10
1081137.692343568
 20
704299.77729090885
 30
0.0
 40
10.03925833531334
 41
10.03925833531334
  0
VERTEX
  5
19C0
  8
RIVERS
 10
1081151.200160068
 20
704277.47401329817
 30
0.0
 40
10.03925833531334
 41
10.03925833531334
  0
VERTEX
  5
19C1
  8
RIVERS
 10
1081168.1740905419
 20
704255.68195691938
 30
0.0
 40
10.03925833531334
 41
10.03925833531334
  0
VERTEX
  5
19C2
  8
RIVERS
 10
1081195.2946753751
 20
704251.48818178358
 30
0.0
 40
10.03925833531334
 41
10.03925833531334
  0
VERTEX
  5
19C3
  8
RIVERS
 10
1081227.382809886
 20
704264.97674121324
 30
0.0
 40
10.03925833531334
 41
10.03925833531334
  0
VERTEX
  5
19C4
  8
RIVERS
 10
1081257.1683227981
 20
704286.53208705201
 30
0.0
 40
10.03925833531334
 41
10.03925833531334
  0
VERTEX
  5
19C5
  8
RIVERS
 10
1081281.5556905321
 20
704302.15729066834
 30
0.0
 40
10.03925833531334
 41
10.03925833531334
  0
VERTEX
  5
19C6
  8
RIVERS
 10
1081312.826169908
 20
704317.93989404244
 30
0.0
 40
10.03925833531334
 41
10.03925833531334
  0
VERTEX
  5
19C7
  8
RIVERS
 10
1081346.6968471869
 20
704334.53224502096
 30
0.0
 40
10.03925833531334
 41
10.03925833531334
  0
VERTEX
  5
19C8
  8
RIVERS
 10
1081377.2324548359
 20
704354.6353700714
 30
0.0
 40
10.03925833531334
 41
10.03925833531334
  0
VERTEX
  5
19C9
  8
RIVERS
 10
1081400.5665982619
 20
704374.30693391233
 30
0.0
 40
10.03925833531334
 41
10.03925833531334
  0
VERTEX
  5
19CA
  8
RIVERS
 10
1081428.1340474649
 20
704392.18187542411
 30
0.0
 40
10.03925833531334
 41
10.03925833531334
  0
VERTEX
  5
19CB
  8
RIVERS
 10
1081449.595480036
 20
704407.88157442817
 30
0.0
 40
10.03925833531334
 41
10.03925833531334
  0
VERTEX
  5
19CC
  8
RIVERS
 10
1081475.3052130211
 20
704422.07223832654
 30
0.0
 40
10.03925833531334
 41
10.03925833531334
  0
VERTEX
  5
19CD
  8
RIVERS
 10
1081502.81255067
 20
704438.83368689031
 30
0.0
 40
10.03925833531334
 41
10.03925833531334
  0
VERTEX
  5
19CE
  8
RIVERS
 10
1081524.4871318249
 20
704452.83943321998
 30
0.0
 40
10.03925833531334
 41
10.03925833531334
  0
VERTEX
  5
19CF
  8
RIVERS
 10
1081548.853863966
 20
704470.56345355453
 30
0.0
 40
10.03925833531334
 41
10.03925833531334
  0
VERTEX
  5
19D0
  8
RIVERS
 10
1081577.289313426
 20
704490.26714957273
 30
0.0
 40
10.03925833531334
 41
10.03925833531334
  0
VERTEX
  5
19D1
  8
RIVERS
 10
1081600.44203135
 20
704506.34578092734
 30
0.0
 40
10.03925833531334
 41
10.03925833531334
  0
VERTEX
  5
19D2
  8
RIVERS
 10
1081626.83920654
 20
704525.59802514245
 30
0.0
 40
10.03925833531334
 41
10.03925833531334
  0
VERTEX
  5
19D3
  8
RIVERS
 10
1081650.6611405669
 20
704545.25101106544
 30
0.0
 40
10.03925833531334
 41
10.03925833531334
  0
VERTEX
  5
19D4
  8
RIVERS
 10
1081676.151706252
 20
704563.21212026349
 30
0.0
 40
10.03925833531334
 41
10.03925833531334
  0
VERTEX
  5
19D5
  8
RIVERS
 10
1081699.239093116
 20
704577.49511284486
 30
0.0
 40
10.03925833531334
 41
10.03925833531334
  0
VERTEX
  5
19D6
  8
RIVERS
 10
1081720.632516196
 20
704592.1901466602
 30
0.0
 40
10.03925833531334
 41
10.03925833531334
  0
VERTEX
  5
19D7
  8
RIVERS
 10
1081742.6574185069
 20
704607.60688669141
 30
0.0
 40
10.03925833531334
 41
10.03925833531334
  0
VERTEX
  5
19D8
  8
RIVERS
 10
1081768.0954024689
 20
704622.16661346634
 30
0.0
 40
10.03925833531334
 41
10.03925833531334
  0
VERTEX
  5
19D9
  8
RIVERS
 10
1081802.02671068
 20
704630.07294480666
 30
0.0
 40
10.03925833531334
 41
10.03925833531334
  0
VERTEX
  5
19DA
  8
RIVERS
 10
1081828.235052045
 20
704630.78228811885
 30
0.0
 40
10.03925833531334
 41
10.03925833531334
  0
VERTEX
  5
19DB
  8
RIVERS
 10
1081865.8305840809
 20
704631.63196389505
 30
0.0
 40
10.03925833531334
 41
10.03925833531334
  0
VERTEX
  5
19DC
  8
RIVERS
 10
1081894.161445047
 20
704630.80527412705
 30
0.0
 40
10.03925833531334
 41
10.03925833531334
  0
VERTEX
  5
19DD
  8
RIVERS
 10
1081925.6326367189
 20
704626.14414022653
 30
0.0
 40
10.03925833531334
 41
10.03925833531334
  0
VERTEX
  5
19DE
  8
RIVERS
 10
1081955.623584216
 20
704612.68428445479
 30
0.0
 40
10.03925833531334
 41
10.03925833531334
  0
VERTEX
  5
19DF
  8
RIVERS
 10
1081978.0540043169
 20
704600.07598212443
 30
0.0
 40
10.03925833531334
 41
10.03925833531334
  0
VERTEX
  5
19E0
  8
RIVERS
 10
1082004.072946714
 20
704584.19569318299
 30
0.0
 40
10.03925833531334
 41
10.03925833531334
  0
VERTEX
  5
19E1
  8
RIVERS
 10
1082022.212694492
 20
704566.19264976855
 30
0.0
 40
10.03925833531334
 41
10.03925833531334
  0
VERTEX
  5
19E2
  8
RIVERS
 10
1082039.9658875021
 20
704546.18250005809
 30
0.0
 40
10.03925833531334
 41
10.03925833531334
  0
VERTEX
  5
19E3
  8
RIVERS
 10
1082036.7557596751
 20
704516.48618163634
 30
0.0
 40
10.03925833531334
 41
10.03925833531334
  0
VERTEX
  5
19E4
  8
RIVERS
 10
1082049.1982407749
 20
704493.16386872297
 30
0.0
 40
10.03925833531334
 41
10.03925833531334
  0
VERTEX
  5
19E5
  8
RIVERS
 10
1082076.8413035951
 20
704480.54969304707
 30
0.0
 40
10.03925833531334
 41
10.03925833531334
  0
VERTEX
  5
19E6
  8
RIVERS
 10
1082106.6797204621
 20
704483.29614575405
 30
0.0
 40
10.03925833531334
 41
10.03925833531334
  0
VERTEX
  5
19E7
  8
RIVERS
 10
1082130.5303626349
 20
704495.50553985825
 30
0.0
 40
10.03925833531334
 41
10.03925833531334
  0
VERTEX
  5
19E8
  8
RIVERS
 10
1082155.9260546539
 20
704511.17621678521
 30
0.0
 40
10.03925833531334
 41
10.03925833531334
  0
VERTEX
  5
19E9
  8
RIVERS
 10
1082181.127827676
 20
704529.49149015045
 30
0.0
 40
10.03925833531334
 41
10.03925833531334
  0
VERTEX
  5
19EA
  8
RIVERS
 10
1082201.7366249191
 20
704547.07356919558
 30
0.0
 40
10.03925833531334
 41
10.03925833531334
  0
VERTEX
  5
19EB
  8
RIVERS
 10
1082222.077394098
 20
704564.98082842201
 30
0.0
 40
10.03925833531334
 41
10.03925833531334
  0
VERTEX
  5
19EC
  8
RIVERS
 10
1082242.6912976101
 20
704582.3212699095
 30
0.0
 40
10.03925833531334
 41
10.03925833531334
  0
VERTEX
  5
19ED
  8
RIVERS
 10
1082267.1831948401
 20
704604.00030798872
 30
0.0
 40
10.03925833531334
 41
10.03925833531334
  0
VERTEX
  5
19EE
  8
RIVERS
 10
1082286.13712393
 20
704622.34516859811
 30
0.0
 40
10.03925833531334
 41
10.03925833531334
  0
VERTEX
  5
19EF
  8
RIVERS
 10
1082306.5961388969
 20
704642.47205292585
 30
0.0
 40
10.03925833531334
 41
10.03925833531334
  0
VERTEX
  5
19F0
  8
RIVERS
 10
1082322.580297811
 20
704664.58476989251
 30
0.0
 40
10.03925833531334
 41
10.03925833531334
  0
VERTEX
  5
19F1
  8
RIVERS
 10
1082336.209296653
 20
704691.3505237475
 30
0.0
 40
10.03925833531334
 41
10.03925833531334
  0
VERTEX
  5
19F2
  8
RIVERS
 10
1082342.5465236639
 20
704720.0062735182
 30
0.0
 40
10.03925833531334
 41
10.03925833531334
  0
VERTEX
  5
19F3
  8
RIVERS
 10
1082343.7343225069
 20
704746.91962278006
 30
0.0
 40
10.03925833531334
 41
10.03925833531334
  0
VERTEX
  5
19F4
  8
RIVERS
 10
1082347.112642291
 20
704776.47292480269
 30
0.0
 40
10.03925833531334
 41
10.03925833531334
  0
VERTEX
  5
19F5
  8
RIVERS
 10
1082353.5930673459
 20
704803.49114821386
 30
0.0
 40
10.03925833531334
 41
10.03925833531334
  0
VERTEX
  5
19F6
  8
RIVERS
 10
1082366.1767281459
 20
704836.05167871376
 30
0.0
 40
10.03925833531334
 41
10.03925833531334
  0
VERTEX
  5
19F7
  8
RIVERS
 10
1082377.2274545501
 20
704864.16577641829
 30
0.0
 40
10.03925833531334
 41
10.03925833531334
  0
VERTEX
  5
19F8
  8
RIVERS
 10
1082399.1754840659
 20
704892.27409552236
 30
0.0
 40
10.03925833531334
 41
10.03925833531334
  0
VERTEX
  5
19F9
  8
RIVERS
 10
1082424.8470565069
 20
704904.05252464674
 30
0.0
 40
10.03925833531334
 41
10.03925833531334
  0
VERTEX
  5
19FA
  8
RIVERS
 10
1082452.0229551271
 20
704906.71850727138
 30
0.0
 40
10.03925833531334
 41
10.03925833531334
  0
VERTEX
  5
19FB
  8
RIVERS
 10
1082477.2678950939
 20
704906.4181326176
 30
0.0
 40
10.03925833531334
 41
10.03925833531334
  0
VERTEX
  5
19FC
  8
RIVERS
 10
1082502.5550521151
 20
704906.31247861311
 30
0.0
 40
10.03925833531334
 41
10.03925833531334
  0
VERTEX
  5
19FD
  8
RIVERS
 10
1082533.314371702
 20
704910.30763448495
 30
0.0
 40
10.03925833531334
 41
10.03925833531334
  0
VERTEX
  5
19FE
  8
RIVERS
 10
1082557.6577320769
 20
704915.02695631015
 30
0.0
 40
10.03925833531334
 41
10.03925833531334
  0
VERTEX
  5
19FF
  8
RIVERS
 10
1082584.315373353
 20
704920.83475510927
 30
0.0
 40
10.03925833531334
 41
10.03925833531334
  0
VERTEX
  5
1A00
  8
RIVERS
 10
1082610.7446530741
 20
704927.63961453992
 30
0.0
 40
10.03925833531334
 41
10.03925833531334
  0
VERTEX
  5
1A01
  8
RIVERS
 10
1082637.7872173779
 20
704935.37151432806
 30
0.0
 40
10.03925833531334
 41
10.03925833531334
  0
VERTEX
  5
1A02
  8
RIVERS
 10
1082668.440833736
 20
704939.63620586426
 30
0.0
 40
10.03925833531334
 41
10.03925833531334
  0
VERTEX
  5
1A03
  8
RIVERS
 10
1082693.3508350609
 20
704940.11889748299
 30
0.0
 40
10.03925833531334
 41
10.03925833531334
  0
VERTEX
  5
1A04
  8
RIVERS
 10
1082728.9897837669
 20
704939.47830230265
 30
0.0
 40
10.03925833531334
 41
10.03925833531334
  0
VERTEX
  5
1A05
  8
RIVERS
 10
1082762.3041702199
 20
704936.50558181305
 30
0.0
 40
10.03925833531334
 41
10.03925833531334
  0
VERTEX
  5
1A06
  8
RIVERS
 10
1082787.060151078
 20
704921.62808024802
 30
0.0
 40
10.03925833531334
 41
10.03925833531334
  0
VERTEX
  5
1A07
  8
RIVERS
 10
1082808.4700033821
 20
704899.89763211005
 30
0.0
 40
10.03925833531334
 41
10.03925833531334
  0
VERTEX
  5
1A08
  8
RIVERS
 10
1082833.433801363
 20
704884.19632432761
 30
0.0
 40
10.03925833531334
 41
10.03925833531334
  0
VERTEX
  5
1A09
  8
RIVERS
 10
1082856.852914812
 20
704873.6655509905
 30
0.0
 40
10.03925833531334
 41
10.03925833531334
  0
VERTEX
  5
1A0A
  8
RIVERS
 10
1082879.3494612321
 20
704861.22678809019
 30
0.0
 40
10.03925833531334
 41
10.03925833531334
  0
VERTEX
  5
1A0B
  8
RIVERS
 10
1082909.21772727
 20
704849.55541471019
 30
0.0
 40
10.03925833531334
 41
10.03925833531334
  0
VERTEX
  5
1A0C
  8
RIVERS
 10
1082938.732629908
 20
704852.03648109909
 30
0.0
 40
10.03925833531334
 41
10.03925833531334
  0
VERTEX
  5
1A0D
  8
RIVERS
 10
1082970.764978993
 20
704861.52350532077
 30
0.0
 40
10.03925833531334
 41
10.03925833531334
  0
VERTEX
  5
1A0E
  8
RIVERS
 10
1082995.7320140421
 20
704871.12340698566
 30
0.0
 40
10.03925833531334
 41
10.03925833531334
  0
VERTEX
  5
1A0F
  8
RIVERS
 10
1083030.860528331
 20
704879.4628157519
 30
0.0
 40
10.03925833531334
 41
10.03925833531334
  0
VERTEX
  5
1A10
  8
RIVERS
 10
1083061.525523467
 20
704881.24016455305
 30
0.0
 40
10.03925833531334
 41
10.03925833531334
  0
VERTEX
  5
1A11
  8
RIVERS
 10
1083089.334483237
 20
704882.03241257765
 30
0.0
 40
10.03925833531334
 41
10.03925833531334
  0
VERTEX
  5
1A12
  8
RIVERS
 10
1083114.6178913959
 20
704883.23296748486
 30
0.0
 40
10.03925833531334
 41
10.03925833531334
  0
VERTEX
  5
1A13
  8
RIVERS
 10
1083141.0164476
 20
704883.54773735406
 30
0.0
 40
10.03925833531334
 41
10.03925833531334
  0
VERTEX
  5
1A14
  8
RIVERS
 10
1083169.1789999821
 20
704877.27409044863
 30
0.0
 40
10.03925833531334
 41
10.03925833531334
  0
VERTEX
  5
1A15
  8
RIVERS
 10
1083189.933402461
 20
704862.24080709286
 30
0.0
 40
10.03925833531334
 41
10.03925833531334
  0
VERTEX
  5
1A16
  8
RIVERS
 10
1083188.939796804
 20
704835.6472870633
 30
0.0
 40
10.03925833531334
 41
10.03925833531334
  0
VERTEX
  5
1A17
  8
RIVERS
 10
1083198.919288388
 20
704807.21931582969
 30
0.0
 40
10.03925833531334
 41
10.03925833531334
  0
VERTEX
  5
1A18
  8
RIVERS
 10
1083218.362255208
 20
704788.61620118318
 30
0.0
 40
10.03925833531334
 41
10.03925833531334
  0
VERTEX
  5
1A19
  8
RIVERS
 10
1083236.835170876
 20
704767.24846864876
 30
0.0
 40
10.03925833531334
 41
10.03925833531334
  0
VERTEX
  5
1A1A
  8
RIVERS
 10
1083247.709080531
 20
704741.70886417641
 30
0.0
 40
10.03925833531334
 41
10.03925833531334
  0
VERTEX
  5
1A1B
  8
RIVERS
 10
1083259.223030482
 20
704718.43525081314
 30
0.0
 40
10.03925833531334
 41
10.03925833531334
  0
VERTEX
  5
1A1C
  8
RIVERS
 10
1083263.756031781
 20
704693.24726143584
 30
0.0
 40
10.03925833531334
 41
10.03925833531334
  0
VERTEX
  5
1A1D
  8
RIVERS
 10
1083266.370390842
 20
704665.40302241314
 30
0.0
 40
10.03925833531334
 41
10.03925833531334
  0
VERTEX
  5
1A1E
  8
RIVERS
 10
1083268.198437853
 20
704640.75008064904
 30
0.0
 40
10.03925833531334
 41
10.03925833531334
  0
VERTEX
  5
1A1F
  8
RIVERS
 10
1083265.9100168671
 20
704616.36738168111
 30
0.0
 40
10.03925833531334
 41
10.03925833531334
  0
VERTEX
  5
1A20
  8
RIVERS
 10
1083259.103862203
 20
704591.47881189722
 30
0.0
 40
10.03925833531334
 41
10.03925833531334
  0
VERTEX
  5
1A21
  8
RIVERS
 10
1083262.732227047
 20
704565.71622851945
 30
0.0
 40
10.03925833531334
 41
10.03925833531334
  0
VERTEX
  5
1A22
  8
RIVERS
 10
1083273.6242858621
 20
704543.39927308785
 30
0.0
 40
10.03925833531334
 41
10.03925833531334
  0
VERTEX
  5
1A23
  8
RIVERS
 10
1083301.811704725
 20
704529.581422352
 30
0.0
 40
10.03925833531334
 41
10.03925833531334
  0
VERTEX
  5
1A24
  8
RIVERS
 10
1083331.036065334
 20
704533.48181991163
 30
0.0
 40
10.03925833531334
 41
10.03925833531334
  0
VERTEX
  5
1A25
  8
RIVERS
 10
1083361.3244848759
 20
704540.24509773287
 30
0.0
 40
10.03925833531334
 41
10.03925833531334
  0
VERTEX
  5
1A26
  8
RIVERS
 10
1083393.2773338179
 20
704543.39337272698
 30
0.0
 40
10.03925833531334
 41
10.03925833531334
  0
VERTEX
  5
1A27
  8
RIVERS
 10
1083424.3775896819
 20
704543.86947839358
 30
0.0
 40
10.03925833531334
 41
10.03925833531334
  0
VERTEX
  5
1A28
  8
RIVERS
 10
1083457.025970265
 20
704542.63355284033
 30
0.0
 40
10.03925833531334
 41
10.03925833531334
  0
VERTEX
  5
1A29
  8
RIVERS
 10
1083491.537638728
 20
704540.22202372772
 30
0.0
 40
10.03925833531334
 41
10.03925833531334
  0
VERTEX
  5
1A2A
  8
RIVERS
 10
1083520.489269437
 20
704537.86107345845
 30
0.0
 40
10.03925833531334
 41
10.03925833531334
  0
VERTEX
  5
1A2B
  8
RIVERS
 10
1083553.038960075
 20
704533.65148491715
 30
0.0
 40
10.03925833531334
 41
10.03925833531334
  0
VERTEX
  5
1A2C
  8
RIVERS
 10
1083577.7948245639
 20
704529.29623748362
 30
0.0
 40
10.03925833531334
 41
10.03925833531334
  0
VERTEX
  5
1A2D
  8
RIVERS
 10
1083602.4867119649
 20
704524.111603325
 30
0.0
 40
10.03925833531334
 41
10.03925833531334
  0
VERTEX
  5
1A2E
  8
RIVERS
 10
1083631.318773587
 20
704515.34733470739
 30
0.0
 40
10.03925833531334
 41
10.03925833531334
  0
VERTEX
  5
1A2F
  8
RIVERS
 10
1083655.214188165
 20
704504.0107524622
 30
0.0
 40
10.03925833531334
 41
10.03925833531334
  0
VERTEX
  5
1A30
  8
RIVERS
 10
1083676.2338251029
 20
704479.26278278686
 30
0.0
 40
10.03925833531334
 41
10.03925833531334
  0
VERTEX
  5
1A31
  8
RIVERS
 10
1083694.729234444
 20
704455.21674801048
 30
0.0
 40
10.03925833531334
 41
10.03925833531334
  0
VERTEX
  5
1A32
  8
RIVERS
 10
1083710.4589990871
 20
704433.85852704186
 30
0.0
 40
10.03925833531334
 41
10.03925833531334
  0
VERTEX
  5
1A33
  8
RIVERS
 10
1083731.2635042949
 20
704410.85487080447
 30
0.0
 40
10.03925833531334
 41
10.03925833531334
  0
VERTEX
  5
1A34
  8
RIVERS
 10
1083755.1613747701
 20
704386.86780945247
 30
0.0
 40
10.03925833531334
 41
10.03925833531334
  0
VERTEX
  5
1A35
  8
RIVERS
 10
1083775.032309175
 20
704357.19009252358
 30
0.0
 40
10.03925833531334
 41
10.03925833531334
  0
VERTEX
  5
1A36
  8
RIVERS
 10
1083790.262841064
 20
704337.04238150921
 30
0.0
 40
10.03925833531334
 41
10.03925833531334
  0
VERTEX
  5
1A37
  8
RIVERS
 10
1083805.787993463
 20
704317.17472669948
 30
0.0
 40
10.03925833531334
 41
10.03925833531334
  0
VERTEX
  5
1A38
  8
RIVERS
 10
1083823.23963575
 20
704291.61912314536
 30
0.0
 40
10.03925833531334
 41
10.03925833531334
  0
VERTEX
  5
1A39
  8
RIVERS
 10
1083845.7779053459
 20
704270.31047278189
 30
0.0
 40
10.03925833531334
 41
10.03925833531334
  0
VERTEX
  5
1A3A
  8
RIVERS
 10
1083868.578346198
 20
704248.44598056015
 30
0.0
 40
10.03925833531334
 41
10.03925833531334
  0
VERTEX
  5
1A3B
  8
RIVERS
 10
1083892.7491250881
 20
704223.73877427343
 30
0.0
 40
10.03925833531334
 41
10.03925833531334
  0
VERTEX
  5
1A3C
  8
RIVERS
 10
1083912.74189402
 20
704203.18075886753
 30
0.0
 40
10.03925833531334
 41
10.03925833531334
  0
VERTEX
  5
1A3D
  8
RIVERS
 10
1083927.755107533
 20
704180.39932191151
 30
0.0
 40
10.03925833531334
 41
10.03925833531334
  0
VERTEX
  5
1A3E
  8
RIVERS
 10
1083934.831984675
 20
704154.46711789817
 30
0.0
 40
10.03925833531334
 41
10.03925833531334
  0
VERTEX
  5
1A3F
  8
RIVERS
 10
1083933.559130935
 20
704125.20537514926
 30
0.0
 40
10.03925833531334
 41
10.03925833531334
  0
VERTEX
  5
1A40
  8
RIVERS
 10
1083930.344820891
 20
704096.51189103513
 30
0.0
 40
10.03925833531334
 41
10.03925833531334
  0
VERTEX
  5
1A41
  8
RIVERS
 10
1083931.8268999041
 20
704068.60152912745
 30
0.0
 40
10.03925833531334
 41
10.03925833531334
  0
VERTEX
  5
1A42
  8
RIVERS
 10
1083934.9448789521
 20
704048.12594252964
 30
0.0
 40
10.03925833531334
 41
10.03925833531334
  0
VERTEX
  5
1A43
  8
RIVERS
 10
1083935.3259069661
 20
704024.31899823016
 30
0.0
 40
10.03925833531334
 41
10.03925833531334
  0
VERTEX
  5
1A44
  8
RIVERS
 10
1083948.709061306
 20
704001.42481091677
 30
0.0
 40
10.03925833531334
 41
10.03925833531334
  0
VERTEX
  5
1A45
  8
RIVERS
 10
1083967.235475292
 20
703980.96926457295
 30
0.0
 40
10.03925833531334
 41
10.03925833531334
  0
VERTEX
  5
1A46
  8
RIVERS
 10
1083995.1786630449
 20
703976.7978185853
 30
0.0
 40
10.03925833531334
 41
10.03925833531334
  0
VERTEX
  5
1A47
  8
RIVERS
 10
1084025.2003812341
 20
703981.66094568267
 30
0.0
 40
10.03925833531334
 41
10.03925833531334
  0
VERTEX
  5
1A48
  8
RIVERS
 10
1084055.4139702199
 20
703990.05437843374
 30
0.0
 40
10.03925833531334
 41
10.03925833531334
  0
VERTEX
  5
1A49
  8
RIVERS
 10
1084080.287842659
 20
703998.53322858422
 30
0.0
 40
10.03925833531334
 41
10.03925833531334
  0
VERTEX
  5
1A4A
  8
RIVERS
 10
1084102.1294440569
 20
704005.71686645562
 30
0.0
 40
10.03925833531334
 41
10.03925833531334
  0
VERTEX
  5
1A4B
  8
RIVERS
 10
1084114.5820857801
 20
704010.06095171184
 30
0.0
 40
10.03925833531334
 41
10.03925833531334
  0
VERTEX
  5
1A4C
  8
RIVERS
 10
1084171.927035802
 20
704049.80077378801
 30
0.0
 40
10.03925833531334
 41
10.03925833531334
  0
VERTEX
  5
1A4D
  8
RIVERS
 10
1084255.7670279141
 20
704083.60896944604
 30
0.0
 40
10.03925833531334
 41
10.03925833531334
  0
VERTEX
  5
1A4E
  8
RIVERS
 10
1084362.170417482
 20
704147.36903631734
 30
0.0
 40
10.03925833531334
 41
10.03925833531334
  0
VERTEX
  5
1A4F
  8
RIVERS
 10
1084448.869643922
 20
704198.53203341051
 30
0.0
 40
10.03925833531334
 41
10.03925833531334
  0
VERTEX
  5
1A50
  8
RIVERS
 10
1084551.064618404
 20
704248.95334752346
 30
0.0
 40
10.03925833531334
 41
10.03925833531334
  0
VERTEX
  5
1A51
  8
RIVERS
 10
1084551.064618404
 20
704248.95334752346
 30
0.0
 40
0.0
 41
0.0
  0
SEQEND
  5
1A52
  8
RIVERS
  0
POLYLINE
  5
95
  8
RIVERS
 66
     1
 10
0.0
 20
0.0
 30
0.0
 40
9.9143638382864445
 41
9.9143638382864445
  0
VERTEX
  5
1A53
  8
RIVERS
 10
1084289.120777498
 20
697668.60966900631
 30
0.0
  0
VERTEX
  5
1A54
  8
RIVERS
 10
1084246.4128773171
 20
697694.1966052897
 30
0.0
  0
VERTEX
  5
1A55
  8
RIVERS
 10
1084209.4953432051
 20
697700.55604724726
 30
0.0
  0
VERTEX
  5
1A56
  8
RIVERS
 10
1084196.5563945209
 20
697699.36666417785
 30
0.0
  0
VERTEX
  5
1A57
  8
RIVERS
 10
1084181.4726969569
 20
697699.68967402622
 30
0.0
  0
VERTEX
  5
1A58
  8
RIVERS
 10
1084118.4917830131
 20
697680.6261197608
 30
0.0
  0
VERTEX
  5
1A59
  8
RIVERS
 10
1084113.90922653
 20
697665.84423595457
 30
0.0
  0
VERTEX
  5
1A5A
  8
RIVERS
 10
1084115.3065051481
 20
697640.39087996655
 30
0.0
  0
VERTEX
  5
1A5B
  8
RIVERS
 10
1084111.8914066011
 20
697611.99501847441
 30
0.0
  0
VERTEX
  5
1A5C
  8
RIVERS
 10
1084105.064327253
 20
697574.55608795246
 30
0.0
  0
VERTEX
  5
1A5D
  8
RIVERS
 10
1084096.2378694101
 20
697551.04405008035
 30
0.0
  0
VERTEX
  5
1A5E
  8
RIVERS
 10
1084086.670997561
 20
697514.78550004307
 30
0.0
  0
VERTEX
  5
1A5F
  8
RIVERS
 10
1084010.616570001
 20
697464.75017112121
 30
0.0
  0
VERTEX
  5
1A60
  8
RIVERS
 10
1083996.982646052
 20
697413.05850963201
 30
0.0
  0
VERTEX
  5
1A61
  8
RIVERS
 10
1084001.9294211899
 20
697370.82258053706
 30
0.0
  0
VERTEX
  5
1A62
  8
RIVERS
 10
1084019.973084827
 20
697328.55101725995
 30
0.0
  0
VERTEX
  5
1A63
  8
RIVERS
 10
1084035.80120784
 20
697296.0427483099
 30
0.0
  0
VERTEX
  5
1A64
  8
RIVERS
 10
1084051.7379429
 20
697277.30130770209
 30
0.0
  0
VERTEX
  5
1A65
  8
RIVERS
 10
1084073.576335378
 20
697261.05505257042
 30
0.0
  0
VERTEX
  5
1A66
  8
RIVERS
 10
1084094.6091456839
 20
697246.24864954816
 30
0.0
  0
VERTEX
  5
1A67
  8
RIVERS
 10
1084110.08325541
 20
697225.20833109878
 30
0.0
  0
VERTEX
  5
1A68
  8
RIVERS
 10
1084112.62916494
 20
697201.60541078472
 30
0.0
  0
VERTEX
  5
1A69
  8
RIVERS
 10
1084108.929955052
 20
697175.40204019402
 30
0.0
  0
VERTEX
  5
1A6A
  8
RIVERS
 10
1084096.33481086
 20
697149.88873388572
 30
0.0
  0
VERTEX
  5
1A6B
  8
RIVERS
 10
1084074.2320412069
 20
697125.14328355913
 30
0.0
  0
VERTEX
  5
1A6C
  8
RIVERS
 10
1084053.475779142
 20
697095.51854547369
 30
0.0
  0
VERTEX
  5
1A6D
  8
RIVERS
 10
1084048.0147583119
 20
697071.26280906796
 30
0.0
  0
VERTEX
  5
1A6E
  8
RIVERS
 10
1084041.416611847
 20
697044.14814799954
 30
0.0
  0
VERTEX
  5
1A6F
  8
RIVERS
 10
1084024.2274946361
 20
697018.81547356013
 30
0.0
  0
VERTEX
  5
1A70
  8
RIVERS
 10
1084006.8652267971
 20
696998.29911063879
 30
0.0
  0
VERTEX
  5
1A71
  8
RIVERS
 10
1083989.5143206529
 20
696976.54879998113
 30
0.0
  0
VERTEX
  5
1A72
  8
RIVERS
 10
1083982.42930759
 20
696952.73677596927
 30
0.0
  0
VERTEX
  5
1A73
  8
RIVERS
 10
1083956.2221307349
 20
696939.18355095736
 30
0.0
  0
VERTEX
  5
1A74
  8
RIVERS
 10
1083928.4738495669
 20
696926.87509497092
 30
0.0
  0
VERTEX
  5
1A75
  8
RIVERS
 10
1083897.9156093181
 20
696911.97373011499
 30
0.0
  0
VERTEX
  5
1A76
  8
RIVERS
 10
1083868.7526084459
 20
696899.32584547601
 30
0.0
  0
VERTEX
  5
1A77
  8
RIVERS
 10
1083837.458094771
 20
696882.58568213601
 30
0.0
  0
VERTEX
  5
1A78
  8
RIVERS
 10
1083812.624998406
 20
696891.91447931156
 30
0.0
  0
VERTEX
  5
1A79
  8
RIVERS
 10
1083784.7899610349
 20
696907.77842156962
 30
0.0
  0
VERTEX
  5
1A7A
  8
RIVERS
 10
1083761.4176943679
 20
696919.62808887963
 30
0.0
  0
VERTEX
  5
1A7B
  8
RIVERS
 10
1083737.333521035
 20
696934.89568133233
 30
0.0
  0
VERTEX
  5
1A7C
  8
RIVERS
 10
1083715.1064642081
 20
696950.49969295575
 30
0.0
  0
VERTEX
  5
1A7D
  8
RIVERS
 10
1083694.185368797
 20
696970.83686196385
 30
0.0
  0
VERTEX
  5
1A7E
  8
RIVERS
 10
1083682.135626313
 20
696994.71412825969
 30
0.0
  0
VERTEX
  5
1A7F
  8
RIVERS
 10
1083670.1856035651
 20
697019.74740047602
 30
0.0
  0
VERTEX
  5
1A80
  8
RIVERS
 10
1083659.1943790531
 20
697049.75928618386
 30
0.0
  0
VERTEX
  5
1A81
  8
RIVERS
 10
1083641.3863036069
 20
697074.56907783356
 30
0.0
  0
VERTEX
  5
1A82
  8
RIVERS
 10
1083618.672185044
 20
697089.36516263871
 30
0.0
  0
VERTEX
  5
1A83
  8
RIVERS
 10
1083584.1853794609
 20
697091.35993573314
 30
0.0
  0
VERTEX
  5
1A84
  8
RIVERS
 10
1083553.2781377661
 20
697076.00849539193
 30
0.0
  0
VERTEX
  5
1A85
  8
RIVERS
 10
1083529.737318998
 20
697049.02361322823
 30
0.0
  0
VERTEX
  5
1A86
  8
RIVERS
 10
1083508.5305218061
 20
697011.65567625174
 30
0.0
  0
VERTEX
  5
1A87
  8
RIVERS
 10
1083489.830905902
 20
697006.50581771845
 30
0.0
  0
VERTEX
  5
1A88
  8
RIVERS
 10
1083460.10397296
 20
697010.00894323457
 30
0.0
  0
VERTEX
  5
1A89
  8
RIVERS
 10
1083433.615169927
 20
697011.8888423678
 30
0.0
  0
VERTEX
  5
1A8A
  8
RIVERS
 10
1083404.1912317041
 20
697010.03469325788
 30
0.0
  0
VERTEX
  5
1A8B
  8
RIVERS
 10
1083379.016922673
 20
697005.51102883252
 30
0.0
  0
VERTEX
  5
1A8C
  8
RIVERS
 10
1083353.7824784881
 20
697003.64238931518
 30
0.0
  0
VERTEX
  5
1A8D
  8
RIVERS
 10
1083326.132036241
 20
697014.57813765865
 30
0.0
  0
VERTEX
  5
1A8E
  8
RIVERS
 10
1083309.500355198
 20
697033.34315270477
 30
0.0
  0
VERTEX
  5
1A8F
  8
RIVERS
 10
1083307.5813004291
 20
697054.5585708837
 30
0.0
  0
VERTEX
  5
1A90
  8
RIVERS
 10
1083308.347402422
 20
697075.24907017383
 30
0.0
  0
VERTEX
  5
1A91
  8
RIVERS
 10
1083298.182454085
 20
697091.73221888347
 30
0.0
  0
VERTEX
  5
1A92
  8
RIVERS
 10
1083280.182409748
 20
697112.19325894897
 30
0.0
  0
VERTEX
  5
1A93
  8
RIVERS
 10
1083249.1322145329
 20
697123.36297037278
 30
0.0
  0
VERTEX
  5
1A94
  8
RIVERS
 10
1083219.0951454779
 20
697123.7600656834
 30
0.0
  0
VERTEX
  5
1A95
  8
RIVERS
 10
1083192.473479006
 20
697128.55698945466
 30
0.0
  0
VERTEX
  5
1A96
  8
RIVERS
 10
1083163.8181100991
 20
697137.01466429315
 30
0.0
  0
VERTEX
  5
1A97
  8
RIVERS
 10
1083140.1518573221
 20
697144.70262340072
 30
0.0
  0
VERTEX
  5
1A98
  8
RIVERS
 10
1083110.7610191801
 20
697155.02624705352
 30
0.0
  0
VERTEX
  5
1A99
  8
RIVERS
 10
1083085.2707139149
 20
697164.31681980786
 30
0.0
  0
VERTEX
  5
1A9A
  8
RIVERS
 10
1083055.0821242779
 20
697177.34082715143
 30
0.0
  0
VERTEX
  5
1A9B
  8
RIVERS
 10
1083030.8720477519
 20
697187.30557958269
 30
0.0
  0
VERTEX
  5
1A9C
  8
RIVERS
 10
1083007.509236325
 20
697197.88004371466
 30
0.0
  0
VERTEX
  5
1A9D
  8
RIVERS
 10
1082981.820818828
 20
697207.07517891785
 30
0.0
  0
VERTEX
  5
1A9E
  8
RIVERS
 10
1082959.049484073
 20
697206.63616484497
 30
0.0
  0
VERTEX
  5
1A9F
  8
RIVERS
 10
1082930.4203571191
 20
697201.76505812746
 30
0.0
  0
VERTEX
  5
1AA0
  8
RIVERS
 10
1082902.9341335029
 20
697203.80173437728
 30
0.0
  0
VERTEX
  5
1AA1
  8
RIVERS
 10
1082872.3834131311
 20
697206.23843997659
 30
0.0
  0
VERTEX
  5
1AA2
  8
RIVERS
 10
1082838.997798654
 20
697211.15844284929
 30
0.0
  0
VERTEX
  5
1AA3
  8
RIVERS
 10
1082809.347710426
 20
697219.97324512654
 30
0.0
  0
VERTEX
  5
1AA4
  8
RIVERS
 10
1082781.562244884
 20
697232.48186329659
 30
0.0
  0
VERTEX
  5
1AA5
  8
RIVERS
 10
1082756.649447365
 20
697248.77405888622
 30
0.0
  0
VERTEX
  5
1AA6
  8
RIVERS
 10
1082738.867637394
 20
697268.33045702963
 30
0.0
  0
VERTEX
  5
1AA7
  8
RIVERS
 10
1082719.5426024999
 20
697285.40395573771
 30
0.0
  0
VERTEX
  5
1AA8
  8
RIVERS
 10
1082702.1401261641
 20
697300.1754815192
 30
0.0
  0
VERTEX
  5
1AA9
  8
RIVERS
 10
1082682.968536454
 20
697294.49691341748
 30
0.0
  0
VERTEX
  5
1AAA
  8
RIVERS
 10
1082676.9041734131
 20
697271.76869247574
 30
0.0
  0
VERTEX
  5
1AAB
  8
RIVERS
 10
1082684.4519875559
 20
697250.83374199923
 30
0.0
  0
VERTEX
  5
1AAC
  8
RIVERS
 10
1082684.903530868
 20
697229.07655217615
 30
0.0
  0
VERTEX
  5
1AAD
  8
RIVERS
 10
1082662.2532470969
 20
697208.63975463237
 30
0.0
  0
VERTEX
  5
1AAE
  8
RIVERS
 10
1082632.5104996311
 20
697189.65800570743
 30
0.0
  0
VERTEX
  5
1AAF
  8
RIVERS
 10
1082609.0489252519
 20
697189.58713952603
 30
0.0
  0
VERTEX
  5
1AB0
  8
RIVERS
 10
1082582.521011146
 20
697183.63582974009
 30
0.0
  0
VERTEX
  5
1AB1
  8
RIVERS
 10
1082562.8806282959
 20
697171.02886976779
 30
0.0
  0
VERTEX
  5
1AB2
  8
RIVERS
 10
1082552.493135415
 20
697149.02488881361
 30
0.0
  0
VERTEX
  5
1AB3
  8
RIVERS
 10
1082535.5965460299
 20
697124.83691387449
 30
0.0
  0
VERTEX
  5
1AB4
  8
RIVERS
 10
1082514.359784063
 20
697109.03151219606
 30
0.0
  0
VERTEX
  5
1AB5
  8
RIVERS
 10
1082486.3787835489
 20
697098.52153775992
 30
0.0
  0
VERTEX
  5
1AB6
  8
RIVERS
 10
1082468.9339377431
 20
697080.70410685311
 30
0.0
  0
VERTEX
  5
1AB7
  8
RIVERS
 10
1082480.2123994471
 20
697072.46186136501
 30
0.0
  0
VERTEX
  5
1AB8
  8
RIVERS
 10
1082504.4654110109
 20
697068.7280196452
 30
0.0
  0
VERTEX
  5
1AB9
  8
RIVERS
 10
1082529.2099114039
 20
697072.38466252177
 30
0.0
  0
VERTEX
  5
1ABA
  8
RIVERS
 10
1082551.42021781
 20
697073.86526068719
 30
0.0
  0
VERTEX
  5
1ABB
  8
RIVERS
 10
1082573.0282930629
 20
697062.06852623285
 30
0.0
  0
VERTEX
  5
1ABC
  8
RIVERS
 10
1082605.0906519571
 20
697054.46167780424
 30
0.0
  0
VERTEX
  5
1ABD
  8
RIVERS
 10
1082620.8910495201
 20
697035.06923724397
 30
0.0
  0
VERTEX
  5
1ABE
  8
RIVERS
 10
1082633.792568862
 20
697012.86327724659
 30
0.0
  0
VERTEX
  5
1ABF
  8
RIVERS
 10
1082641.3337897791
 20
696983.90562839725
 30
0.0
  0
VERTEX
  5
1AC0
  8
RIVERS
 10
1082630.147971265
 20
696958.48878172226
 30
0.0
  0
VERTEX
  5
1AC1
  8
RIVERS
 10
1082604.5557114601
 20
696942.60314225825
 30
0.0
  0
VERTEX
  5
1AC2
  8
RIVERS
 10
1082573.6729404801
 20
696936.39038801065
 30
0.0
  0
VERTEX
  5
1AC3
  8
RIVERS
 10
1082535.9849936671
 20
696926.24371339218
 30
0.0
  0
VERTEX
  5
1AC4
  8
RIVERS
 10
1082510.931187436
 20
696904.04889963567
 30
0.0
  0
VERTEX
  5
1AC5
  8
RIVERS
 10
1082490.4877504499
 20
696880.62513845286
 30
0.0
  0
VERTEX
  5
1AC6
  8
RIVERS
 10
1082484.3550144241
 20
696858.32119612175
 30
0.0
  0
VERTEX
  5
1AC7
  8
RIVERS
 10
1082469.6908556761
 20
696839.88590934791
 30
0.0
  0
VERTEX
  5
1AC8
  8
RIVERS
 10
1082448.514650238
 20
696824.68604992959
 30
0.0
  0
VERTEX
  5
1AC9
  8
RIVERS
 10
1082426.446836537
 20
696823.56589336076
 30
0.0
  0
VERTEX
  5
1ACA
  8
RIVERS
 10
1082385.186411008
 20
696822.99289356451
 30
0.0
  0
VERTEX
  5
1ACB
  8
RIVERS
 10
1082341.3878497111
 20
696822.1585110689
 30
0.0
  0
VERTEX
  5
1ACC
  8
RIVERS
 10
1082319.033136745
 20
696821.24735396926
 30
0.0
  0
VERTEX
  5
1ACD
  8
RIVERS
 10
1082286.0779430249
 20
696823.57620930264
 30
0.0
  0
VERTEX
  5
1ACE
  8
RIVERS
 10
1082269.517193838
 20
696829.58690339222
 30
0.0
  0
VERTEX
  5
1ACF
  8
RIVERS
 10
1082246.8644199891
 20
696844.65122697491
 30
0.0
  0
VERTEX
  5
1AD0
  8
RIVERS
 10
1082225.4095275591
 20
696854.02091032919
 30
0.0
  0
VERTEX
  5
1AD1
  8
RIVERS
 10
1082213.972158453
 20
696852.39739477285
 30
0.0
  0
VERTEX
  5
1AD2
  8
RIVERS
 10
1082185.5761429309
 20
696849.66944566846
 30
0.0
  0
VERTEX
  5
1AD3
  8
RIVERS
 10
1082164.6174615419
 20
696844.82564752374
 30
0.0
  0
VERTEX
  5
1AD4
  8
RIVERS
 10
1082154.0224355301
 20
696841.72380985518
 30
0.0
  0
VERTEX
  5
1AD5
  8
RIVERS
 10
1082138.791352333
 20
696837.68797269347
 30
0.0
  0
VERTEX
  5
1AD6
  8
RIVERS
 10
1082118.18533378
 20
696842.32023202849
 30
0.0
  0
VERTEX
  5
1AD7
  8
RIVERS
 10
1082097.2055008609
 20
696845.47059579636
 30
0.0
  0
VERTEX
  5
1AD8
  8
RIVERS
 10
1082087.8269325939
 20
696851.50795856502
 30
0.0
  0
VERTEX
  5
1AD9
  8
RIVERS
 10
1082064.6585044749
 20
696857.1768190033
 30
0.0
  0
VERTEX
  5
1ADA
  8
RIVERS
 10
1082051.0899914531
 20
696858.16354181315
 30
0.0
  0
VERTEX
  5
1ADB
  8
RIVERS
 10
1082026.295593462
 20
696850.94833853003
 30
0.0
  0
VERTEX
  5
1ADC
  8
RIVERS
 10
1082019.148674662
 20
696838.53497752675
 30
0.0
  0
VERTEX
  5
1ADD
  8
RIVERS
 10
1082001.9395128021
 20
696828.07181554311
 30
0.0
  0
VERTEX
  5
1ADE
  8
RIVERS
 10
1081980.5329123889
 20
696820.52112767415
 30
0.0
  0
VERTEX
  5
1ADF
  8
RIVERS
 10
1081962.9838834079
 20
696816.61076911888
 30
0.0
  0
VERTEX
  5
1AE0
  8
RIVERS
 10
1081933.6643440209
 20
696809.63324382459
 30
0.0
  0
VERTEX
  5
1AE1
  8
RIVERS
 10
1081915.78971062
 20
696803.08032007969
 30
0.0
  0
VERTEX
  5
1AE2
  8
RIVERS
 10
1081894.0605560711
 20
696792.8290466161
 30
0.0
  0
VERTEX
  5
1AE3
  8
RIVERS
 10
1081885.0498618069
 20
696784.19171615841
 30
0.0
  0
VERTEX
  5
1AE4
  8
RIVERS
 10
1081851.8673973819
 20
696773.42400774488
 30
0.0
  0
VERTEX
  5
1AE5
  8
RIVERS
 10
1081838.8803588371
 20
696779.7400895172
 30
0.0
  0
VERTEX
  5
1AE6
  8
RIVERS
 10
1081814.293311828
 20
696786.59003560676
 30
0.0
  0
VERTEX
  5
1AE7
  8
RIVERS
 10
1081804.645877349
 20
696794.83877951768
 30
0.0
  0
VERTEX
  5
1AE8
  8
RIVERS
 10
1081786.7867725759
 20
696803.33657462243
 30
0.0
  0
VERTEX
  5
1AE9
  8
RIVERS
 10
1081771.1064649411
 20
696811.53591204225
 30
0.0
  0
VERTEX
  5
1AEA
  8
RIVERS
 10
1081756.588509181
 20
696820.7863547646
 30
0.0
  0
VERTEX
  5
1AEB
  8
RIVERS
 10
1081743.9106210901
 20
696823.70648292254
 30
0.0
  0
VERTEX
  5
1AEC
  8
RIVERS
 10
1081722.759735618
 20
696823.16616191331
 30
0.0
  0
VERTEX
  5
1AED
  8
RIVERS
 10
1081700.5057637461
 20
696823.82720090437
 30
0.0
  0
VERTEX
  5
1AEE
  8
RIVERS
 10
1081682.941307148
 20
696824.31713458465
 30
0.0
  0
VERTEX
  5
1AEF
  8
RIVERS
 10
1081664.5695190311
 20
696829.73810108786
 30
0.0
  0
VERTEX
  5
1AF0
  8
RIVERS
 10
1081651.8082832401
 20
696848.47708449094
 30
0.0
  0
VERTEX
  5
1AF1
  8
RIVERS
 10
1081646.0214943199
 20
696866.93161457404
 30
0.0
  0
VERTEX
  5
1AF2
  8
RIVERS
 10
1081640.4373495621
 20
696888.92999622296
 30
0.0
  0
VERTEX
  5
1AF3
  8
RIVERS
 10
1081631.798830488
 20
696900.06591563707
 30
0.0
  0
VERTEX
  5
1AF4
  8
RIVERS
 10
1081616.3483529291
 20
696895.71073406632
 30
0.0
  0
VERTEX
  5
1AF5
  8
RIVERS
 10
1081590.58680022
 20
696874.75348272966
 30
0.0
  0
VERTEX
  5
1AF6
  8
RIVERS
 10
1081583.664314467
 20
696856.75711314811
 30
0.0
  0
VERTEX
  5
1AF7
  8
RIVERS
 10
1081570.7684106571
 20
696835.2876615019
 30
0.0
  0
VERTEX
  5
1AF8
  8
RIVERS
 10
1081566.052464372
 20
696814.66493518138
 30
0.0
  0
VERTEX
  5
1AF9
  8
RIVERS
 10
1081565.397353902
 20
696785.11556832097
 30
0.0
  0
VERTEX
  5
1AFA
  8
RIVERS
 10
1081574.310934298
 20
696763.45471217355
 30
0.0
  0
VERTEX
  5
1AFB
  8
RIVERS
 10
1081578.4389670209
 20
696739.35003743879
 30
0.0
  0
VERTEX
  5
1AFC
  8
RIVERS
 10
1081582.020979258
 20
696725.1709896503
 30
0.0
  0
VERTEX
  5
1AFD
  8
RIVERS
 10
1081598.6436652651
 20
696721.33963333908
 30
0.0
  0
VERTEX
  5
1AFE
  8
RIVERS
 10
1081616.386177754
 20
696702.04467180884
 30
0.0
  0
VERTEX
  5
1AFF
  8
RIVERS
 10
1081625.7368694169
 20
696691.05831035657
 30
0.0
  0
VERTEX
  5
1B00
  8
RIVERS
 10
1081631.44118711
 20
696677.49264294968
 30
0.0
  0
VERTEX
  5
1B01
  8
RIVERS
 10
1081626.4893646759
 20
696662.62428262609
 30
0.0
  0
VERTEX
  5
1B02
  8
RIVERS
 10
1081616.6829893501
 20
696653.75687487656
 30
0.0
  0
VERTEX
  5
1B03
  8
RIVERS
 10
1081576.689232372
 20
696659.02935367997
 30
0.0
  0
VERTEX
  5
1B04
  8
RIVERS
 10
1081542.3052042611
 20
696658.88045448903
 30
0.0
  0
VERTEX
  5
1B05
  8
RIVERS
 10
1081512.9346313069
 20
696654.01141503721
 30
0.0
  0
VERTEX
  5
1B06
  8
RIVERS
 10
1081487.939802988
 20
696649.89933094487
 30
0.0
  0
VERTEX
  5
1B07
  8
RIVERS
 10
1081468.6533498759
 20
696649.06886735465
 30
0.0
  0
VERTEX
  5
1B08
  8
RIVERS
 10
1081441.451141248
 20
696651.38733597356
 30
0.0
  0
VERTEX
  5
1B09
  8
RIVERS
 10
1081431.472608916
 20
696658.51575135905
 30
0.0
  0
VERTEX
  5
1B0A
  8
RIVERS
 10
1081412.463752107
 20
696669.95380657818
 30
0.0
  0
VERTEX
  5
1B0B
  8
RIVERS
 10
1081396.564146616
 20
696674.79010474728
 30
0.0
  0
VERTEX
  5
1B0C
  8
RIVERS
 10
1081385.2208217911
 20
696649.4168813373
 30
0.0
  0
VERTEX
  5
1B0D
  8
RIVERS
 10
1081388.0380411539
 20
696632.77826873399
 30
0.0
  0
VERTEX
  5
1B0E
  8
RIVERS
 10
1081387.555404536
 20
696620.01599245076
 30
0.0
  0
VERTEX
  5
1B0F
  8
RIVERS
 10
1081379.161902898
 20
696610.40060275269
 30
0.0
  0
VERTEX
  5
1B10
  8
RIVERS
 10
1081374.720821976
 20
696599.01441583235
 30
0.0
  0
VERTEX
  5
1B11
  8
RIVERS
 10
1081342.101918939
 20
696601.90243947529
 30
0.0
  0
VERTEX
  5
1B12
  8
RIVERS
 10
1081302.500126549
 20
696597.82122805598
 30
0.0
  0
VERTEX
  5
1B13
  8
RIVERS
 10
1081272.83145622
 20
696600.0451126832
 30
0.0
  0
VERTEX
  5
1B14
  8
RIVERS
 10
1081252.8845202271
 20
696597.88839774602
 30
0.0
  0
VERTEX
  5
1B15
  8
RIVERS
 10
1081226.059791154
 20
696589.06005974859
 30
0.0
  0
VERTEX
  5
1B16
  8
RIVERS
 10
1081215.448918086
 20
696564.74775358627
 30
0.0
  0
VERTEX
  5
1B17
  8
RIVERS
 10
1081198.0104269399
 20
696529.73057035205
 30
0.0
  0
VERTEX
  5
1B18
  8
RIVERS
 10
1081181.5759582841
 20
696527.97476217279
 30
0.0
  0
VERTEX
  5
1B19
  8
RIVERS
 10
1081132.1616536819
 20
696539.92867631221
 30
0.0
  0
VERTEX
  5
1B1A
  8
RIVERS
 10
1081108.2736300749
 20
696554.27391452901
 30
0.0
  0
VERTEX
  5
1B1B
  8
RIVERS
 10
1081088.9891801151
 20
696572.72477077541
 30
0.0
  0
VERTEX
  5
1B1C
  8
RIVERS
 10
1081072.774567886
 20
696592.26507004874
 30
0.0
  0
VERTEX
  5
1B1D
  8
RIVERS
 10
1081045.8931484241
 20
696610.52151763847
 30
0.0
  0
VERTEX
  5
1B1E
  8
RIVERS
 10
1081023.28511552
 20
696619.17394876794
 30
0.0
  0
VERTEX
  5
1B1F
  8
RIVERS
 10
1081009.517087369
 20
696618.22583615803
 30
0.0
  0
VERTEX
  5
1B20
  8
RIVERS
 10
1080970.73236214
 20
696601.52358433593
 30
0.0
  0
VERTEX
  5
1B21
  8
RIVERS
 10
1080959.442197629
 20
696583.70240828826
 30
0.0
  0
VERTEX
  5
1B22
  8
RIVERS
 10
1080926.5850572351
 20
696566.76954203972
 30
0.0
  0
VERTEX
  5
1B23
  8
RIVERS
 10
1080893.427497416
 20
696545.29524819995
 30
0.0
  0
VERTEX
  5
1B24
  8
RIVERS
 10
1080871.16686454
 20
696529.48383929743
 30
0.0
  0
VERTEX
  5
1B25
  8
RIVERS
 10
1080843.871585422
 20
696506.32032758452
 30
0.0
  0
VERTEX
  5
1B26
  8
RIVERS
 10
1080814.842365484
 20
696484.81244072248
 30
0.0
  0
VERTEX
  5
1B27
  8
RIVERS
 10
1080783.981235906
 20
696464.98341131466
 30
0.0
  0
VERTEX
  5
1B28
  8
RIVERS
 10
1080759.3988153441
 20
696450.99607237091
 30
0.0
  0
VERTEX
  5
1B29
  8
RIVERS
 10
1080713.368663203
 20
696437.88942505466
 30
0.0
  0
VERTEX
  5
1B2A
  8
RIVERS
 10
1080680.592475995
 20
696414.10434871225
 30
0.0
  0
VERTEX
  5
1B2B
  8
RIVERS
 10
1080649.2889123319
 20
696399.20995712106
 30
0.0
  0
VERTEX
  5
1B2C
  8
RIVERS
 10
1080617.6069560919
 20
696365.24991938542
 30
0.0
  0
VERTEX
  5
1B2D
  8
RIVERS
 10
1080596.501260801
 20
696338.60816306085
 30
0.0
  0
VERTEX
  5
1B2E
  8
RIVERS
 10
1080571.859260631
 20
696308.60253714304
 30
0.0
  0
VERTEX
  5
1B2F
  8
RIVERS
 10
1080548.231599448
 20
696274.57168504666
 30
0.0
  0
VERTEX
  5
1B30
  8
RIVERS
 10
1080548.787318215
 20
696246.947680154
 30
0.0
  0
VERTEX
  5
1B31
  8
RIVERS
 10
1080553.5626936071
 20
696209.84346729098
 30
0.0
  0
VERTEX
  5
1B32
  8
RIVERS
 10
1080560.4079156739
 20
696165.68571411795
 30
0.0
  0
VERTEX
  5
1B33
  8
RIVERS
 10
1080562.1110224959
 20
696118.57519198279
 30
0.0
  0
VERTEX
  5
1B34
  8
RIVERS
 10
1080534.628734855
 20
696078.46864657186
 30
0.0
  0
VERTEX
  5
1B35
  8
RIVERS
 10
1080497.946231931
 20
696018.56448467902
 30
0.0
  0
VERTEX
  5
1B36
  8
RIVERS
 10
1080505.4922200569
 20
695957.14166792226
 30
0.0
  0
VERTEX
  5
1B37
  8
RIVERS
 10
1080515.1265362829
 20
695879.68021643523
 30
0.0
  0
VERTEX
  5
1B38
  8
RIVERS
 10
1080505.6700674321
 20
695857.26449199033
 30
0.0
  0
VERTEX
  5
1B39
  8
RIVERS
 10
1080472.227701664
 20
695822.431828234
 30
0.0
  0
VERTEX
  5
1B3A
  8
RIVERS
 10
1080438.6557520691
 20
695800.81590344361
 30
0.0
  0
VERTEX
  5
1B3B
  8
RIVERS
 10
1080410.6992922509
 20
695791.90242647287
 30
0.0
  0
VERTEX
  5
1B3C
  8
RIVERS
 10
1080378.4372971901
 20
695774.84949940979
 30
0.0
  0
VERTEX
  5
1B3D
  8
RIVERS
 10
1080356.455863103
 20
695761.80644216866
 30
0.0
  0
VERTEX
  5
1B3E
  8
RIVERS
 10
1080328.8115837241
 20
695739.40325181105
 30
0.0
  0
VERTEX
  5
1B3F
  8
RIVERS
 10
1080295.2029637941
 20
695717.9627557199
 30
0.0
  0
VERTEX
  5
1B40
  8
RIVERS
 10
1080262.8806081091
 20
695698.98766356427
 30
0.0
  0
VERTEX
  5
1B41
  8
RIVERS
 10
1080245.948123296
 20
695692.07173885859
 30
0.0
  0
VERTEX
  5
1B42
  8
RIVERS
 10
1080238.3690377991
 20
695686.65991066315
 30
0.0
  0
VERTEX
  5
1B43
  8
RIVERS
 10
1080238.5623598611
 20
695669.46332440851
 30
0.0
  0
VERTEX
  5
1B44
  8
RIVERS
 10
1080251.2644787561
 20
695654.05435780622
 30
0.0
  0
VERTEX
  5
1B45
  8
RIVERS
 10
1080270.657975435
 20
695640.46887790854
 30
0.0
  0
VERTEX
  5
1B46
  8
RIVERS
 10
1080294.6997472059
 20
695627.87011799857
 30
0.0
  0
VERTEX
  5
1B47
  8
RIVERS
 10
1080322.356840865
 20
695613.48764481
 30
0.0
  0
VERTEX
  5
1B48
  8
RIVERS
 10
1080346.7381393239
 20
695594.94493543613
 30
0.0
  0
VERTEX
  5
1B49
  8
RIVERS
 10
1080345.5613932931
 20
695570.00356639293
 30
0.0
  0
VERTEX
  5
1B4A
  8
RIVERS
 10
1080329.41395895
 20
695543.33917006315
 30
0.0
  0
VERTEX
  5
1B4B
  8
RIVERS
 10
1080316.6826317811
 20
695522.5041809422
 30
0.0
  0
VERTEX
  5
1B4C
  8
RIVERS
 10
1080312.2834504831
 20
695498.39681010286
 30
0.0
  0
VERTEX
  5
1B4D
  8
RIVERS
 10
1080302.275658628
 20
695470.19671973062
 30
0.0
  0
VERTEX
  5
1B4E
  8
RIVERS
 10
1080311.4911658219
 20
695446.61382972007
 30
0.0
  0
VERTEX
  5
1B4F
  8
RIVERS
 10
1080331.2147853239
 20
695429.07357047277
 30
0.0
  0
VERTEX
  5
1B50
  8
RIVERS
 10
1080341.491815479
 20
695402.29523440357
 30
0.0
  0
VERTEX
  5
1B51
  8
RIVERS
 10
1080343.1097618139
 20
695377.2780266722
 30
0.0
  0
VERTEX
  5
1B52
  8
RIVERS
 10
1080336.1083554949
 20
695345.45158748061
 30
0.0
  0
VERTEX
  5
1B53
  8
RIVERS
 10
1080323.0024784231
 20
695318.55601757474
 30
0.0
  0
VERTEX
  5
1B54
  8
RIVERS
 10
1080318.188692105
 20
695287.59769170766
 30
0.0
  0
VERTEX
  5
1B55
  8
RIVERS
 10
1080311.4145796171
 20
695258.40562047658
 30
0.0
  0
VERTEX
  5
1B56
  8
RIVERS
 10
1080304.763075646
 20
695234.16880009393
 30
0.0
  0
VERTEX
  5
1B57
  8
RIVERS
 10
1080292.185175458
 20
695204.52516793855
 30
0.0
  0
VERTEX
  5
1B58
  8
RIVERS
 10
1080292.6405964161
 20
695227.24285440263
 30
0.0
  0
VERTEX
  5
1B59
  8
RIVERS
 10
1080293.3581770461
 20
695252.29237042682
 30
0.0
  0
VERTEX
  5
1B5A
  8
RIVERS
 10
1080295.093710806
 20
695278.71646399691
 30
0.0
  0
VERTEX
  5
1B5B
  8
RIVERS
 10
1080309.224568899
 20
695304.67087438225
 30
0.0
  0
VERTEX
  5
1B5C
  8
RIVERS
 10
1080319.2510953441
 20
695326.71763134212
 30
0.0
  0
VERTEX
  5
1B5D
  8
RIVERS
 10
1080323.128983828
 20
695351.60390238476
 30
0.0
  0
VERTEX
  5
1B5E
  8
RIVERS
 10
1080329.275734989
 20
695378.84263605031
 30
0.0
  0
VERTEX
  5
1B5F
  8
RIVERS
 10
1080319.7300536849
 20
695404.62863064022
 30
0.0
  0
VERTEX
  5
1B60
  8
RIVERS
 10
1080301.554225913
 20
695424.9844386637
 30
0.0
  0
VERTEX
  5
1B61
  8
RIVERS
 10
1080282.794910799
 20
695445.38730419241
 30
0.0
  0
VERTEX
  5
1B62
  8
RIVERS
 10
1080287.8245923149
 20
695471.34133819747
 30
0.0
  0
VERTEX
  5
1B63
  8
RIVERS
 10
1080296.2693976259
 20
695495.024145843
 30
0.0
  0
VERTEX
  5
1B64
  8
RIVERS
 10
1080305.1356828071
 20
695516.83167164156
 30
0.0
  0
VERTEX
  5
1B65
  8
RIVERS
 10
1080321.226591446
 20
695543.3407410814
 30
0.0
  0
VERTEX
  5
1B66
  8
RIVERS
 10
1080331.1885168001
 20
695566.11563786073
 30
0.0
  0
VERTEX
  5
1B67
  8
RIVERS
 10
1080332.6377532571
 20
695589.08674564317
 30
0.0
  0
VERTEX
  5
1B68
  8
RIVERS
 10
1080315.629539514
 20
695605.8487715401
 30
0.0
  0
VERTEX
  5
1B69
  8
RIVERS
 10
1080293.1931582401
 20
695618.34101295611
 30
0.0
  0
VERTEX
  5
1B6A
  8
RIVERS
 10
1080271.993242444
 20
695627.28146802867
 30
0.0
  0
VERTEX
  5
1B6B
  8
RIVERS
 10
1080248.3848911561
 20
695639.99268448644
 30
0.0
  0
VERTEX
  5
1B6C
  8
RIVERS
 10
1080227.2682156069
 20
695658.30927849095
 30
0.0
  0
VERTEX
  5
1B6D
  8
RIVERS
 10
1080213.6367244751
 20
695684.01937624207
 30
0.0
  0
VERTEX
  5
1B6E
  8
RIVERS
 10
1080220.737538622
 20
695704.54652169021
 30
0.0
  0
VERTEX
  5
1B6F
  8
RIVERS
 10
1080249.6202925569
 20
695710.64946690993
 30
0.0
  0
VERTEX
  5
1B70
  8
RIVERS
 10
1080277.498853548
 20
695718.80363570852
 30
0.0
  0
VERTEX
  5
1B71
  8
RIVERS
 10
1080304.783237987
 20
695731.73833043198
 30
0.0
  0
VERTEX
  5
1B72
  8
RIVERS
 10
1080328.77783832
 20
695748.73329036171
 30
0.0
  0
VERTEX
  5
1B73
  8
RIVERS
 10
1080348.747576959
 20
695766.51836373447
 30
0.0
  0
VERTEX
  5
1B74
  8
RIVERS
 10
1080368.2973443959
 20
695792.31865569984
 30
0.0
  0
VERTEX
  5
1B75
  8
RIVERS
 10
1080397.0133774681
 20
695797.06632486254
 30
0.0
  0
VERTEX
  5
1B76
  8
RIVERS
 10
1080428.3717853529
 20
695812.11959634325
 30
0.0
  0
VERTEX
  5
1B77
  8
RIVERS
 10
1080452.557612357
 20
695821.83681919333
 30
0.0
  0
VERTEX
  5
1B78
  8
RIVERS
 10
1080474.0096620021
 20
695841.42354474042
 30
0.0
  0
VERTEX
  5
1B79
  8
RIVERS
 10
1080486.254797868
 20
695857.76281107368
 30
0.0
  0
VERTEX
  5
1B7A
  8
RIVERS
 10
1080497.1893857729
 20
695870.02402862441
 30
0.0
  0
VERTEX
  5
1B7B
  8
RIVERS
 10
1080494.0729362499
 20
695922.07763721631
 30
0.0
  0
VERTEX
  5
1B7C
  8
RIVERS
 10
1080480.2112572889
 20
695964.6546550676
 30
0.0
  0
VERTEX
  5
1B7D
  8
RIVERS
 10
1080472.361835307
 20
695998.33240967942
 30
0.0
  0
VERTEX
  5
1B7E
  8
RIVERS
 10
1080470.5084489339
 20
696037.44941502437
 30
0.0
  0
VERTEX
  5
1B7F
  8
RIVERS
 10
1080488.966811778
 20
696068.33229857974
 30
0.0
  0
VERTEX
  5
1B80
  8
RIVERS
 10
1080507.1135572509
 20
696091.18235141423
 30
0.0
  0
VERTEX
  5
1B81
  8
RIVERS
 10
1080525.6714117059
 20
696112.74548844423
 30
0.0
  0
VERTEX
  5
1B82
  8
RIVERS
 10
1080535.208274561
 20
696141.03586026945
 30
0.0
  0
VERTEX
  5
1B83
  8
RIVERS
 10
1080535.167861888
 20
696178.62720174529
 30
0.0
  0
VERTEX
  5
1B84
  8
RIVERS
 10
1080528.31539212
 20
696209.50320126326
 30
0.0
  0
VERTEX
  5
1B85
  8
RIVERS
 10
1080527.541635718
 20
696242.30671106069
 30
0.0
  0
VERTEX
  5
1B86
  8
RIVERS
 10
1080532.4378527859
 20
696275.77754877438
 30
0.0
  0
VERTEX
  5
1B87
  8
RIVERS
 10
1080546.494633859
 20
696301.43134726177
 30
0.0
  0
VERTEX
  5
1B88
  8
RIVERS
 10
1080566.21165419
 20
696326.74333699397
 30
0.0
  0
VERTEX
  5
1B89
  8
RIVERS
 10
1080579.8843922131
 20
696349.29236688151
 30
0.0
  0
VERTEX
  5
1B8A
  8
RIVERS
 10
1080601.162138317
 20
696374.98589491064
 30
0.0
  0
VERTEX
  5
1B8B
  8
RIVERS
 10
1080624.350747487
 20
696397.69171400717
 30
0.0
  0
VERTEX
  5
1B8C
  8
RIVERS
 10
1080646.091929513
 20
696424.63185943535
 30
0.0
  0
VERTEX
  5
1B8D
  8
RIVERS
 10
1080656.5771960821
 20
696432.16774282546
 30
0.0
  0
VERTEX
  5
1B8E
  8
RIVERS
 10
1080670.5550064531
 20
696441.20560228976
 30
0.0
  0
VERTEX
  5
1B8F
  8
RIVERS
 10
1080695.415584293
 20
696452.1090489151
 30
0.0
  0
VERTEX
  5
1B90
  8
RIVERS
 10
1080735.6999116901
 20
696467.24665757734
 30
0.0
  0
VERTEX
  5
1B91
  8
RIVERS
 10
1080763.0028516171
 20
696479.55432216893
 30
0.0
  0
VERTEX
  5
1B92
  8
RIVERS
 10
1080789.383213615
 20
696495.39567195124
 30
0.0
  0
VERTEX
  5
1B93
  8
RIVERS
 10
1080815.23236218
 20
696517.32521162787
 30
0.0
  0
VERTEX
  5
1B94
  8
RIVERS
 10
1080845.6330890949
 20
696541.17044796026
 30
0.0
  0
VERTEX
  5
1B95
  8
RIVERS
 10
1080873.908474033
 20
696562.36105878209
 30
0.0
  0
VERTEX
  5
1B96
  8
RIVERS
 10
1080896.3264197761
 20
696575.19627182116
 30
0.0
  0
VERTEX
  5
1B97
  8
RIVERS
 10
1080923.5867064041
 20
696589.11981628195
 30
0.0
  0
VERTEX
  5
1B98
  8
RIVERS
 10
1080949.0683895559
 20
696606.6503722514
 30
0.0
  0
VERTEX
  5
1B99
  8
RIVERS
 10
1080970.0730874541
 20
696622.57656447752
 30
0.0
  0
VERTEX
  5
1B9A
  8
RIVERS
 10
1080991.031379445
 20
696638.50280758215
 30
0.0
  0
VERTEX
  5
1B9B
  8
RIVERS
 10
1081018.80236609
 20
696646.56658096972
 30
0.0
  0
VERTEX
  5
1B9C
  8
RIVERS
 10
1081043.4883873919
 20
696639.98578313808
 30
0.0
  0
VERTEX
  5
1B9D
  8
RIVERS
 10
1081067.493199209
 20
696620.28862315533
 30
0.0
  0
VERTEX
  5
1B9E
  8
RIVERS
 10
1081091.2442487541
 20
696600.33691319975
 30
0.0
  0
VERTEX
  5
1B9F
  8
RIVERS
 10
1081119.0060301949
 20
696579.5644690193
 30
0.0
  0
VERTEX
  5
1BA0
  8
RIVERS
 10
1081149.2557725389
 20
696559.46407298674
 30
0.0
  0
VERTEX
  5
1BA1
  8
RIVERS
 10
1081179.1537007999
 20
696550.10573526309
 30
0.0
  0
VERTEX
  5
1BA2
  8
RIVERS
 10
1081194.0663120761
 20
696567.31357250118
 30
0.0
  0
VERTEX
  5
1BA3
  8
RIVERS
 10
1081196.1907018761
 20
696601.18373393221
 30
0.0
  0
VERTEX
  5
1BA4
  8
RIVERS
 10
1081215.907272194
 20
696617.60089789296
 30
0.0
  0
VERTEX
  5
1BA5
  8
RIVERS
 10
1081246.7351117199
 20
696622.54572546575
 30
0.0
  0
VERTEX
  5
1BA6
  8
RIVERS
 10
1081274.976603192
 20
696627.08518229111
 30
0.0
  0
VERTEX
  5
1BA7
  8
RIVERS
 10
1081304.131034537
 20
696624.07328269223
 30
0.0
  0
VERTEX
  5
1BA8
  8
RIVERS
 10
1081329.234910721
 20
696621.21094356081
 30
0.0
  0
VERTEX
  5
1BA9
  8
RIVERS
 10
1081354.555698968
 20
696620.09910534229
 30
0.0
  0
VERTEX
  5
1BAA
  8
RIVERS
 10
1081375.2732957541
 20
696629.59613555728
 30
0.0
  0
VERTEX
  5
1BAB
  8
RIVERS
 10
1081374.1102081949
 20
696664.18732784386
 30
0.0
  0
VERTEX
  5
1BAC
  8
RIVERS
 10
1081383.124416576
 20
696687.54207643506
 30
0.0
  0
VERTEX
  5
1BAD
  8
RIVERS
 10
1081408.0347301911
 20
696690.37064749317
 30
0.0
  0
VERTEX
  5
1BAE
  8
RIVERS
 10
1081436.2671518859
 20
696675.45017136866
 30
0.0
  0
VERTEX
  5
1BAF
  8
RIVERS
 10
1081466.1921650621
 20
696664.82767114346
 30
0.0
  0
VERTEX
  5
1BB0
  8
RIVERS
 10
1081492.6354173711
 20
696666.93073353672
 30
0.0
  0
VERTEX
  5
1BB1
  8
RIVERS
 10
1081518.875189737
 20
696672.47255271999
 30
0.0
  0
VERTEX
  5
1BB2
  8
RIVERS
 10
1081544.592409143
 20
696679.56550024438
 30
0.0
  0
VERTEX
  5
1BB3
  8
RIVERS
 10
1081569.3988669789
 20
696677.33134900604
 30
0.0
  0
VERTEX
  5
1BB4
  8
RIVERS
 10
1081598.842118104
 20
696674.2610246992
 30
0.0
  0
VERTEX
  5
1BB5
  8
RIVERS
 10
1081620.392146972
 20
696677.73909626971
 30
0.0
  0
VERTEX
  5
1BB6
  8
RIVERS
 10
1081603.3688467999
 20
696703.50970553455
 30
0.0
  0
VERTEX
  5
1BB7
  8
RIVERS
 10
1081576.7904911961
 20
696715.94174173672
 30
0.0
  0
VERTEX
  5
1BB8
  8
RIVERS
 10
1081563.1995729019
 20
696740.39932794718
 30
0.0
  0
VERTEX
  5
1BB9
  8
RIVERS
 10
1081560.593826988
 20
696769.26097333664
 30
0.0
  0
VERTEX
  5
1BBA
  8
RIVERS
 10
1081550.521573816
 20
696800.63536159624
 30
0.0
  0
VERTEX
  5
1BBB
  8
RIVERS
 10
1081552.087058482
 20
696831.85358127463
 30
0.0
  0
VERTEX
  5
1BBC
  8
RIVERS
 10
1081560.2738388339
 20
696862.36453666922
 30
0.0
  0
VERTEX
  5
1BBD
  8
RIVERS
 10
1081581.6394842919
 20
696882.55656991946
 30
0.0
  0
VERTEX
  5
1BBE
  8
RIVERS
 10
1081593.6674569901
 20
696899.11184781825
 30
0.0
  0
VERTEX
  5
1BBF
  8
RIVERS
 10
1081615.07934403
 20
696920.00630635244
 30
0.0
  0
VERTEX
  5
1BC0
  8
RIVERS
 10
1081637.760688598
 20
696920.33763205505
 30
0.0
  0
VERTEX
  5
1BC1
  8
RIVERS
 10
1081647.1494878251
 20
696891.52418619988
 30
0.0
  0
VERTEX
  5
1BC2
  8
RIVERS
 10
1081660.9285291519
 20
696865.78643920505
 30
0.0
  0
VERTEX
  5
1BC3
  8
RIVERS
 10
1081675.337856008
 20
696842.49484516378
 30
0.0
  0
VERTEX
  5
1BC4
  8
RIVERS
 10
1081704.1532464011
 20
696839.86084142595
 30
0.0
  0
VERTEX
  5
1BC5
  8
RIVERS
 10
1081734.6619288761
 20
696839.72507184092
 30
0.0
  0
VERTEX
  5
1BC6
  8
RIVERS
 10
1081767.172307983
 20
696836.52278278058
 30
0.0
  0
VERTEX
  5
1BC7
  8
RIVERS
 10
1081792.460886453
 20
696821.28792294872
 30
0.0
  0
VERTEX
  5
1BC8
  8
RIVERS
 10
1081816.362144284
 20
696804.35508565977
 30
0.0
  0
VERTEX
  5
1BC9
  8
RIVERS
 10
1081837.170678183
 20
696790.00852753897
 30
0.0
  0
VERTEX
  5
1BCA
  8
RIVERS
 10
1081862.1039555611
 20
696787.72970027686
 30
0.0
  0
VERTEX
  5
1BCB
  8
RIVERS
 10
1081885.1866105769
 20
696807.27489022806
 30
0.0
  0
VERTEX
  5
1BCC
  8
RIVERS
 10
1081912.625708729
 20
696817.27171221864
 30
0.0
  0
VERTEX
  5
1BCD
  8
RIVERS
 10
1081938.9690748849
 20
696826.20084698184
 30
0.0
  0
VERTEX
  5
1BCE
  8
RIVERS
 10
1081963.790733902
 20
696834.6506822214
 30
0.0
  0
VERTEX
  5
1BCF
  8
RIVERS
 10
1081994.079253308
 20
696841.86647042795
 30
0.0
  0
VERTEX
  5
1BD0
  8
RIVERS
 10
1082017.947216131
 20
696862.00673218083
 30
0.0
  0
VERTEX
  5
1BD1
  8
RIVERS
 10
1082041.948430958
 20
696874.42202086141
 30
0.0
  0
VERTEX
  5
1BD2
  8
RIVERS
 10
1082071.224819856
 20
696874.34121719387
 30
0.0
  0
VERTEX
  5
1BD3
  8
RIVERS
 10
1082098.023655124
 20
696868.35804426996
 30
0.0
  0
VERTEX
  5
1BD4
  8
RIVERS
 10
1082120.174008101
 20
696856.12323023647
 30
0.0
  0
VERTEX
  5
1BD5
  8
RIVERS
 10
1082147.991177645
 20
696853.77996272268
 30
0.0
  0
VERTEX
  5
1BD6
  8
RIVERS
 10
1082176.9170901191
 20
696859.50350971729
 30
0.0
  0
VERTEX
  5
1BD7
  8
RIVERS
 10
1082207.362949664
 20
696865.91692168999
 30
0.0
  0
VERTEX
  5
1BD8
  8
RIVERS
 10
1082232.818430566
 20
696868.18435729935
 30
0.0
  0
VERTEX
  5
1BD9
  8
RIVERS
 10
1082259.6428218831
 20
696859.77779938607
 30
0.0
  0
VERTEX
  5
1BDA
  8
RIVERS
 10
1082278.416615193
 20
696842.92380304146
 30
0.0
  0
VERTEX
  5
1BDB
  8
RIVERS
 10
1082300.071843802
 20
696835.26932213246
 30
0.0
  0
VERTEX
  5
1BDC
  8
RIVERS
 10
1082330.063397923
 20
696829.42817143234
 30
0.0
  0
VERTEX
  5
1BDD
  8
RIVERS
 10
1082358.8007732211
 20
696828.93931540661
 30
0.0
  0
VERTEX
  5
1BDE
  8
RIVERS
 10
1082394.4515605229
 20
696831.36963565846
 30
0.0
  0
VERTEX
  5
1BDF
  8
RIVERS
 10
1082425.52016651
 20
696834.66479031567
 30
0.0
  0
VERTEX
  5
1BE0
  8
RIVERS
 10
1082456.197888372
 20
696838.98433244717
 30
0.0
  0
VERTEX
  5
1BE1
  8
RIVERS
 10
1082471.0165794119
 20
696857.08093231847
 30
0.0
  0
VERTEX
  5
1BE2
  8
RIVERS
 10
1082482.625725836
 20
696877.86687944084
 30
0.0
  0
VERTEX
  5
1BE3
  8
RIVERS
 10
1082495.069013397
 20
696902.56977267459
 30
0.0
  0
VERTEX
  5
1BE4
  8
RIVERS
 10
1082513.7685680429
 20
696923.01891054655
 30
0.0
  0
VERTEX
  5
1BE5
  8
RIVERS
 10
1082534.4551478969
 20
696943.36366858787
 30
0.0
  0
VERTEX
  5
1BE6
  8
RIVERS
 10
1082573.2168932159
 20
696948.74281283154
 30
0.0
  0
VERTEX
  5
1BE7
  8
RIVERS
 10
1082603.382983241
 20
696955.11637427181
 30
0.0
  0
VERTEX
  5
1BE8
  8
RIVERS
 10
1082625.6332605181
 20
696978.05376219854
 30
0.0
  0
VERTEX
  5
1BE9
  8
RIVERS
 10
1082621.1906395899
 20
697000.89194055996
 30
0.0
  0
VERTEX
  5
1BEA
  8
RIVERS
 10
1082606.484490002
 20
697024.14685870253
 30
0.0
  0
VERTEX
  5
1BEB
  8
RIVERS
 10
1082587.128665946
 20
697041.3366032897
 30
0.0
  0
VERTEX
  5
1BEC
  8
RIVERS
 10
1082565.7980244639
 20
697053.48432867811
 30
0.0
  0
VERTEX
  5
1BED
  8
RIVERS
 10
1082542.0386029179
 20
697055.52544709272
 30
0.0
  0
VERTEX
  5
1BEE
  8
RIVERS
 10
1082514.829974809
 20
697054.54072116385
 30
0.0
  0
VERTEX
  5
1BEF
  8
RIVERS
 10
1082486.161454685
 20
697055.10859877896
 30
0.0
  0
VERTEX
  5
1BF0
  8
RIVERS
 10
1082464.4925127181
 20
697067.05819748261
 30
0.0
  0
VERTEX
  5
1BF1
  8
RIVERS
 10
1082461.4931677449
 20
697087.63282211625
 30
0.0
  0
VERTEX
  5
1BF2
  8
RIVERS
 10
1082485.417702198
 20
697108.23934820655
 30
0.0
  0
VERTEX
  5
1BF3
  8
RIVERS
 10
1082505.9622240111
 20
697121.67868354032
 30
0.0
  0
VERTEX
  5
1BF4
  8
RIVERS
 10
1082526.1673611761
 20
697139.93073201575
 30
0.0
  0
VERTEX
  5
1BF5
  8
RIVERS
 10
1082547.1631220439
 20
697162.54703874781
 30
0.0
  0
VERTEX
  5
1BF6
  8
RIVERS
 10
1082561.1010565441
 20
697183.12132103858
 30
0.0
  0
VERTEX
  5
1BF7
  8
RIVERS
 10
1082581.2519087021
 20
697195.05347785004
 30
0.0
  0
VERTEX
  5
1BF8
  8
RIVERS
 10
1082608.415626338
 20
697203.1052912639
 30
0.0
  0
VERTEX
  5
1BF9
  8
RIVERS
 10
1082628.743423451
 20
697211.70608380018
 30
0.0
  0
VERTEX
  5
1BFA
  8
RIVERS
 10
1082647.988473977
 20
697215.68981469527
 30
0.0
  0
VERTEX
  5
1BFB
  8
RIVERS
 10
1082668.9178825549
 20
697239.25372712291
 30
0.0
  0
VERTEX
  5
1BFC
  8
RIVERS
 10
1082669.3272677939
 20
697263.77804583509
 30
0.0
  0
VERTEX
  5
1BFD
  8
RIVERS
 10
1082675.0319267211
 20
697293.51628285355
 30
0.0
  0
VERTEX
  5
1BFE
  8
RIVERS
 10
1082685.2109127019
 20
697318.95209719439
 30
0.0
  0
VERTEX
  5
1BFF
  8
RIVERS
 10
1082701.7727389981
 20
697329.13621611334
 30
0.0
  0
VERTEX
  5
1C00
  8
RIVERS
 10
1082712.916429779
 20
697306.20766998711
 30
0.0
  0
VERTEX
  5
1C01
  8
RIVERS
 10
1082732.0334812
 20
697287.65993460512
 30
0.0
  0
VERTEX
  5
1C02
  8
RIVERS
 10
1082747.6771454271
 20
697269.01749351656
 30
0.0
  0
VERTEX
  5
1C03
  8
RIVERS
 10
1082770.5181782129
 20
697246.9631149919
 30
0.0
  0
VERTEX
  5
1C04
  8
RIVERS
 10
1082796.3407125571
 20
697234.27845386998
 30
0.0
  0
VERTEX
  5
1C05
  8
RIVERS
 10
1082821.984887186
 20
697226.79221065901
 30
0.0
  0
VERTEX
  5
1C06
  8
RIVERS
 10
1082849.947782232
 20
697219.74523791845
 30
0.0
  0
VERTEX
  5
1C07
  8
RIVERS
 10
1082880.316312748
 20
697215.05844130891
 30
0.0
  0
VERTEX
  5
1C08
  8
RIVERS
 10
1082910.5580616179
 20
697215.35002146626
 30
0.0
  0
VERTEX
  5
1C09
  8
RIVERS
 10
1082934.882234049
 20
697218.02926678467
 30
0.0
  0
VERTEX
  5
1C0A
  8
RIVERS
 10
1082962.5135057601
 20
697223.06578786438
 30
0.0
  0
VERTEX
  5
1C0B
  8
RIVERS
 10
1082993.634682311
 20
697229.98870361852
 30
0.0
  0
VERTEX
  5
1C0C
  8
RIVERS
 10
1083016.280438059
 20
697209.52498047042
 30
0.0
  0
VERTEX
  5
1C0D
  8
RIVERS
 10
1083036.7353562589
 20
697191.11377083103
 30
0.0
  0
VERTEX
  5
1C0E
  8
RIVERS
 10
1083060.300373506
 20
697180.17976630933
 30
0.0
  0
VERTEX
  5
1C0F
  8
RIVERS
 10
1083094.9775329391
 20
697168.8386371067
 30
0.0
  0
VERTEX
  5
1C10
  8
RIVERS
 10
1083119.200786921
 20
697162.36096848093
 30
0.0
  0
VERTEX
  5
1C11
  8
RIVERS
 10
1083155.425179169
 20
697154.66825873475
 30
0.0
  0
VERTEX
  5
1C12
  8
RIVERS
 10
1083192.930199953
 20
697152.99789048487
 30
0.0
  0
VERTEX
  5
1C13
  8
RIVERS
 10
1083222.2437630109
 20
697155.38272199582
 30
0.0
  0
VERTEX
  5
1C14
  8
RIVERS
 10
1083249.7305232249
 20
697154.95898227475
 30
0.0
  0
VERTEX
  5
1C15
  8
RIVERS
 10
1083274.164236669
 20
697143.33840471797
 30
0.0
  0
VERTEX
  5
1C16
  8
RIVERS
 10
1083294.0265548341
 20
697128.30034992658
 30
0.0
  0
VERTEX
  5
1C17
  8
RIVERS
 10
1083310.833015467
 20
697105.34627675614
 30
0.0
  0
VERTEX
  5
1C18
  8
RIVERS
 10
1083320.073281402
 20
697080.28544656141
 30
0.0
  0
VERTEX
  5
1C19
  8
RIVERS
 10
1083323.018510496
 20
697059.43355075095
 30
0.0
  0
VERTEX
  5
1C1A
  8
RIVERS
 10
1083326.472703777
 20
697033.63091834052
 30
0.0
  0
VERTEX
  5
1C1B
  8
RIVERS
 10
1083340.586428328
 20
697021.28941955522
 30
0.0
  0
VERTEX
  5
1C1C
  8
RIVERS
 10
1083372.189123038
 20
697019.50745221146
 30
0.0
  0
VERTEX
  5
1C1D
  8
RIVERS
 10
1083402.0491199449
 20
697017.41887652164
 30
0.0
  0
VERTEX
  5
1C1E
  8
RIVERS
 10
1083429.5920657411
 20
697017.02087902254
 30
0.0
  0
VERTEX
  5
1C1F
  8
RIVERS
 10
1083457.960985407
 20
697016.97470629297
 30
0.0
  0
VERTEX
  5
1C20
  8
RIVERS
 10
1083477.935382504
 20
697019.45214012382
 30
0.0
  0
VERTEX
  5
1C21
  8
RIVERS
 10
1083500.024470808
 20
697036.40732453216
 30
0.0
  0
VERTEX
  5
1C22
  8
RIVERS
 10
1083523.501866783
 20
697067.18481934944
 30
0.0
  0
VERTEX
  5
1C23
  8
RIVERS
 10
1083556.5286091899
 20
697093.69458818028
 30
0.0
  0
VERTEX
  5
1C24
  8
RIVERS
 10
1083588.3770345
 20
697110.56770256651
 30
0.0
  0
VERTEX
  5
1C25
  8
RIVERS
 10
1083616.2460460539
 20
697108.59088477457
 30
0.0
  0
VERTEX
  5
1C26
  8
RIVERS
 10
1083644.2391988561
 20
697089.04176910303
 30
0.0
  0
VERTEX
  5
1C27
  8
RIVERS
 10
1083665.010286256
 20
697066.35832375311
 30
0.0
  0
VERTEX
  5
1C28
  8
RIVERS
 10
1083679.3355793529
 20
697038.79954645864
 30
0.0
  0
VERTEX
  5
1C29
  8
RIVERS
 10
1083691.1929544639
 20
697015.40207003802
 30
0.0
  0
VERTEX
  5
1C2A
  8
RIVERS
 10
1083700.836970184
 20
696991.46757726395
 30
0.0
  0
VERTEX
  5
1C2B
  8
RIVERS
 10
1083716.9903976051
 20
696971.89553422027
 30
0.0
  0
VERTEX
  5
1C2C
  8
RIVERS
 10
1083740.0534697771
 20
696959.34468725137
 30
0.0
  0
VERTEX
  5
1C2D
  8
RIVERS
 10
1083761.5972834839
 20
696946.51238827023
 30
0.0
  0
VERTEX
  5
1C2E
  8
RIVERS
 10
1083785.557692616
 20
696930.54589794029
 30
0.0
  0
VERTEX
  5
1C2F
  8
RIVERS
 10
1083801.763366706
 20
696913.16221562843
 30
0.0
  0
VERTEX
  5
1C30
  8
RIVERS
 10
1083821.8580266731
 20
696896.85960454179
 30
0.0
  0
VERTEX
  5
1C31
  8
RIVERS
 10
1083851.4812896959
 20
696909.69857424474
 30
0.0
  0
VERTEX
  5
1C32
  8
RIVERS
 10
1083882.609075191
 20
696919.95659969351
 30
0.0
  0
VERTEX
  5
1C33
  8
RIVERS
 10
1083918.101669004
 20
696934.19096355233
 30
0.0
  0
VERTEX
  5
1C34
  8
RIVERS
 10
1083943.1739869621
 20
696948.12612551975
 30
0.0
  0
VERTEX
  5
1C35
  8
RIVERS
 10
1083970.459578821
 20
696966.48448692926
 30
0.0
  0
VERTEX
  5
1C36
  8
RIVERS
 10
1083986.436888708
 20
696987.12185212714
 30
0.0
  0
VERTEX
  5
1C37
  8
RIVERS
 10
1083994.7159003769
 20
697014.20292600535
 30
0.0
  0
VERTEX
  5
1C38
  8
RIVERS
 10
1084011.056247151
 20
697036.21993871045
 30
0.0
  0
VERTEX
  5
1C39
  8
RIVERS
 10
1084024.6661585609
 20
697058.12397742085
 30
0.0
  0
VERTEX
  5
1C3A
  8
RIVERS
 10
1084037.7347409979
 20
697085.33284716541
 30
0.0
  0
VERTEX
  5
1C3B
  8
RIVERS
 10
1084051.26476243
 20
697110.31758378679
 30
0.0
  0
VERTEX
  5
1C3C
  8
RIVERS
 10
1084059.412182051
 20
697139.17595678882
 30
0.0
  0
VERTEX
  5
1C3D
  8
RIVERS
 10
1084074.1959499631
 20
697163.31699222489
 30
0.0
  0
VERTEX
  5
1C3E
  8
RIVERS
 10
1084096.6551882119
 20
697183.22491791984
 30
0.0
  0
VERTEX
  5
1C3F
  8
RIVERS
 10
1084106.3192990259
 20
697199.51592348411
 30
0.0
  0
VERTEX
  5
1C40
  8
RIVERS
 10
1084089.7137204481
 20
697222.59216482576
 30
0.0
  0
VERTEX
  5
1C41
  8
RIVERS
 10
1084067.7195413699
 20
697243.01154543145
 30
0.0
  0
VERTEX
  5
1C42
  8
RIVERS
 10
1084049.9558333361
 20
697258.41472866898
 30
0.0
  0
VERTEX
  5
1C43
  8
RIVERS
 10
1084031.2694648369
 20
697278.31272139214
 30
0.0
  0
VERTEX
  5
1C44
  8
RIVERS
 10
1084020.502770449
 20
697301.47849729354
 30
0.0
  0
VERTEX
  5
1C45
  8
RIVERS
 10
1084002.549658274
 20
697331.61297557713
 30
0.0
  0
VERTEX
  5
1C46
  8
RIVERS
 10
1083993.941244829
 20
697355.77106874401
 30
0.0
  0
VERTEX
  5
1C47
  8
RIVERS
 10
1083983.6941200381
 20
697394.66626587184
 30
0.0
  0
VERTEX
  5
1C48
  8
RIVERS
 10
1083981.375842409
 20
697430.98564574798
 30
0.0
  0
VERTEX
  5
1C49
  8
RIVERS
 10
1084000.688565139
 20
697493.20019669342
 30
0.0
  0
VERTEX
  5
1C4A
  8
RIVERS
 10
1084019.5479384731
 20
697525.75322388578
 30
0.0
  0
VERTEX
  5
1C4B
  8
RIVERS
 10
1084026.5216863269
 20
697599.18397304974
 30
0.0
  0
VERTEX
  5
1C4C
  8
RIVERS
 10
1084063.943672417
 20
697665.47510250192
 30
0.0
  0
VERTEX
  5
1C4D
  8
RIVERS
 10
1084065.207301568
 20
697683.69824761245
 30
0.0
  0
VERTEX
  5
1C4E
  8
RIVERS
 10
1084170.5623291221
 20
697730.27951293567
 30
0.0
  0
VERTEX
  5
1C4F
  8
RIVERS
 10
1084221.1419267941
 20
697732.25779164571
 30
0.0
  0
VERTEX
  5
1C50
  8
RIVERS
 10
1084233.729097045
 20
697726.94474018388
 30
0.0
  0
VERTEX
  5
1C51
  8
RIVERS
 10
1084268.1890411151
 20
697708.54901014653
 30
0.0
  0
SEQEND
  5
1C52
  8
RIVERS
  0
POLYLINE
  5
96
  8
RIVERS
 66
     1
 10
0.0
 20
0.0
 30
0.0
 40
10.012238877127929
 41
10.012238877127929
  0
VERTEX
  5
1C53
  8
RIVERS
 10
1084598.5072207709
 20
704224.86079104233
 30
0.0
  0
VERTEX
  5
1C54
  8
RIVERS
 10
1084566.58580675
 20
704216.07665809686
 30
0.0
  0
VERTEX
  5
1C55
  8
RIVERS
 10
1084513.3327541901
 20
704187.9266057238
 30
0.0
  0
VERTEX
  5
1C56
  8
RIVERS
 10
1084467.8600037131
 20
704158.68783106504
 30
0.0
  0
VERTEX
  5
1C57
  8
RIVERS
 10
1084363.6115480231
 20
704095.89625525405
 30
0.0
  0
VERTEX
  5
1C58
  8
RIVERS
 10
1084286.979163287
 20
704055.48575657338
 30
0.0
  0
VERTEX
  5
1C59
  8
RIVERS
 10
1084171.388476192
 20
703988.50058102713
 30
0.0
  0
VERTEX
  5
1C5A
  8
RIVERS
 10
1084106.38664678
 20
703966.68152077158
 30
0.0
  0
VERTEX
  5
1C5B
  8
RIVERS
 10
1084084.9198135149
 20
703959.74581340957
 30
0.0
  0
VERTEX
  5
1C5C
  8
RIVERS
 10
1084063.6858057899
 20
703953.95246706402
 30
0.0
  0
VERTEX
  5
1C5D
  8
RIVERS
 10
1084041.453307258
 20
703947.71667934256
 30
0.0
  0
VERTEX
  5
1C5E
  8
RIVERS
 10
1084017.9776822249
 20
703943.0386768434
 30
0.0
  0
VERTEX
  5
1C5F
  8
RIVERS
 10
1083997.004053008
 20
703942.248131737
 30
0.0
  0
VERTEX
  5
1C60
  8
RIVERS
 10
1083974.4891028439
 20
703947.91029583674
 30
0.0
  0
VERTEX
  5
1C61
  8
RIVERS
 10
1083948.7652270379
 20
703964.11216971127
 30
0.0
  0
VERTEX
  5
1C62
  8
RIVERS
 10
1083925.295432576
 20
703990.72331728123
 30
0.0
  0
VERTEX
  5
1C63
  8
RIVERS
 10
1083911.2987699211
 20
704020.14235533518
 30
0.0
  0
VERTEX
  5
1C64
  8
RIVERS
 10
1083903.8084236281
 20
704043.23155650543
 30
0.0
  0
VERTEX
  5
1C65
  8
RIVERS
 10
1083899.872299216
 20
704069.10583868239
 30
0.0
  0
VERTEX
  5
1C66
  8
RIVERS
 10
1083900.413515362
 20
704096.95149648411
 30
0.0
  0
VERTEX
  5
1C67
  8
RIVERS
 10
1083903.0748129729
 20
704120.86631315015
 30
0.0
  0
VERTEX
  5
1C68
  8
RIVERS
 10
1083904.019402303
 20
704145.05446083518
 30
0.0
  0
VERTEX
  5
1C69
  8
RIVERS
 10
1083897.9089867079
 20
704171.96589961473
 30
0.0
  0
VERTEX
  5
1C6A
  8
RIVERS
 10
1083882.235500253
 20
704192.80042560596
 30
0.0
  0
VERTEX
  5
1C6B
  8
RIVERS
 10
1083865.4701872361
 20
704215.39379365626
 30
0.0
  0
VERTEX
  5
1C6C
  8
RIVERS
 10
1083848.450510056
 20
704236.07917449542
 30
0.0
  0
VERTEX
  5
1C6D
  8
RIVERS
 10
1083829.4845345439
 20
704256.60843786458
 30
0.0
  0
VERTEX
  5
1C6E
  8
RIVERS
 10
1083809.697133627
 20
704279.99444821256
 30
0.0
  0
VERTEX
  5
1C6F
  8
RIVERS
 10
1083788.7961808071
 20
704303.18031345378
 30
0.0
  0
VERTEX
  5
1C70
  8
RIVERS
 10
1083768.2042261269
 20
704328.33229020308
 30
0.0
  0
VERTEX
  5
1C71
  8
RIVERS
 10
1083752.9275967509
 20
704348.46595624625
 30
0.0
  0
VERTEX
  5
1C72
  8
RIVERS
 10
1083735.6800817461
 20
704368.15163438208
 30
0.0
  0
VERTEX
  5
1C73
  8
RIVERS
 10
1083712.9077207921
 20
704396.00057227304
 30
0.0
  0
VERTEX
  5
1C74
  8
RIVERS
 10
1083692.329381533
 20
704418.69602813909
 30
0.0
  0
VERTEX
  5
1C75
  8
RIVERS
 10
1083673.43309581
 20
704439.9135416178
 30
0.0
  0
VERTEX
  5
1C76
  8
RIVERS
 10
1083651.1487761899
 20
704461.87608322816
 30
0.0
  0
VERTEX
  5
1C77
  8
RIVERS
 10
1083624.7178708951
 20
704476.72820649575
 30
0.0
  0
VERTEX
  5
1C78
  8
RIVERS
 10
1083602.2007095609
 20
704489.41998822661
 30
0.0
  0
VERTEX
  5
1C79
  8
RIVERS
 10
1083578.2217148801
 20
704501.6304900453
 30
0.0
  0
VERTEX
  5
1C7A
  8
RIVERS
 10
1083548.9185096379
 20
704508.48991310236
 30
0.0
  0
VERTEX
  5
1C7B
  8
RIVERS
 10
1083518.549430456
 20
704510.36072170257
 30
0.0
  0
VERTEX
  5
1C7C
  8
RIVERS
 10
1083486.8986882521
 20
704510.93087553675
 30
0.0
  0
VERTEX
  5
1C7D
  8
RIVERS
 10
1083456.8346472399
 20
704510.33868939802
 30
0.0
  0
VERTEX
  5
1C7E
  8
RIVERS
 10
1083422.222521248
 20
704507.82618423458
 30
0.0
  0
VERTEX
  5
1C7F
  8
RIVERS
 10
1083395.917432772
 20
704506.02860388078
 30
0.0
  0
VERTEX
  5
1C80
  8
RIVERS
 10
1083365.3526804231
 20
704504.01474051864
 30
0.0
  0
VERTEX
  5
1C81
  8
RIVERS
 10
1083325.8242476019
 20
704499.14268858917
 30
0.0
  0
VERTEX
  5
1C82
  8
RIVERS
 10
1083290.3897420019
 20
704496.50318501773
 30
0.0
  0
VERTEX
  5
1C83
  8
RIVERS
 10
1083258.671260457
 20
704508.52739138738
 30
0.0
  0
VERTEX
  5
1C84
  8
RIVERS
 10
1083236.655817946
 20
704522.46075333317
 30
0.0
  0
VERTEX
  5
1C85
  8
RIVERS
 10
1083227.656345339
 20
704544.11002301739
 30
0.0
  0
VERTEX
  5
1C86
  8
RIVERS
 10
1083224.711839292
 20
704573.39473756845
 30
0.0
  0
VERTEX
  5
1C87
  8
RIVERS
 10
1083225.5590429979
 20
704600.61177644494
 30
0.0
  0
VERTEX
  5
1C88
  8
RIVERS
 10
1083226.8786168019
 20
704629.94243042718
 30
0.0
  0
VERTEX
  5
1C89
  8
RIVERS
 10
1083227.9468493219
 20
704658.326077773
 30
0.0
  0
VERTEX
  5
1C8A
  8
RIVERS
 10
1083225.261700734
 20
704688.65773142956
 30
0.0
  0
VERTEX
  5
1C8B
  8
RIVERS
 10
1083220.9991400079
 20
704718.31139103638
 30
0.0
  0
VERTEX
  5
1C8C
  8
RIVERS
 10
1083215.550644208
 20
704748.93709412753
 30
0.0
  0
VERTEX
  5
1C8D
  8
RIVERS
 10
1083199.762946527
 20
704772.1444000639
 30
0.0
  0
VERTEX
  5
1C8E
  8
RIVERS
 10
1083183.7919709941
 20
704791.43717623991
 30
0.0
  0
VERTEX
  5
1C8F
  8
RIVERS
 10
1083167.31923732
 20
704812.75479647261
 30
0.0
  0
VERTEX
  5
1C90
  8
RIVERS
 10
1083151.047439541
 20
704832.39079063479
 30
0.0
  0
VERTEX
  5
1C91
  8
RIVERS
 10
1083128.2971895901
 20
704846.08302854386
 30
0.0
  0
VERTEX
  5
1C92
  8
RIVERS
 10
1083093.2093338009
 20
704848.12801852031
 30
0.0
  0
VERTEX
  5
1C93
  8
RIVERS
 10
1083063.970973308
 20
704846.83623810543
 30
0.0
  0
VERTEX
  5
1C94
  8
RIVERS
 10
1083035.409805899
 20
704840.45045420062
 30
0.0
  0
VERTEX
  5
1C95
  8
RIVERS
 10
1083008.171283548
 20
704831.22239963536
 30
0.0
  0
VERTEX
  5
1C96
  8
RIVERS
 10
1082977.8870826149
 20
704823.6119697697
 30
0.0
  0
VERTEX
  5
1C97
  8
RIVERS
 10
1082950.0704060241
 20
704821.30802288256
 30
0.0
  0
VERTEX
  5
1C98
  8
RIVERS
 10
1082920.6176714071
 20
704820.5514290987
 30
0.0
  0
VERTEX
  5
1C99
  8
RIVERS
 10
1082890.981314729
 20
704822.39111155865
 30
0.0
  0
VERTEX
  5
1C9A
  8
RIVERS
 10
1082866.050637024
 20
704829.06397131633
 30
0.0
  0
VERTEX
  5
1C9B
  8
RIVERS
 10
1082840.6946292219
 20
704839.70176639582
 30
0.0
  0
VERTEX
  5
1C9C
  8
RIVERS
 10
1082817.7151915031
 20
704853.86480340885
 30
0.0
  0
VERTEX
  5
1C9D
  8
RIVERS
 10
1082787.5555579551
 20
704873.77833581832
 30
0.0
  0
VERTEX
  5
1C9E
  8
RIVERS
 10
1082764.8192029339
 20
704887.97134772758
 30
0.0
  0
VERTEX
  5
1C9F
  8
RIVERS
 10
1082737.2652179799
 20
704902.46172507678
 30
0.0
  0
VERTEX
  5
1CA0
  8
RIVERS
 10
1082712.5142490731
 20
704906.9986079114
 30
0.0
  0
VERTEX
  5
1CA1
  8
RIVERS
 10
1082683.961887537
 20
704907.04731834342
 30
0.0
  0
VERTEX
  5
1CA2
  8
RIVERS
 10
1082655.212736334
 20
704899.66156783188
 30
0.0
  0
VERTEX
  5
1CA3
  8
RIVERS
 10
1082625.581137757
 20
704890.27565432922
 30
0.0
  0
VERTEX
  5
1CA4
  8
RIVERS
 10
1082596.0598034179
 20
704883.85642165563
 30
0.0
  0
VERTEX
  5
1CA5
  8
RIVERS
 10
1082567.155090875
 20
704878.17882762477
 30
0.0
  0
VERTEX
  5
1CA6
  8
RIVERS
 10
1082536.2170195819
 20
704878.85809461225
 30
0.0
  0
VERTEX
  5
1CA7
  8
RIVERS
 10
1082511.517441232
 20
704879.98583890684
 30
0.0
  0
VERTEX
  5
1CA8
  8
RIVERS
 10
1082486.8535482369
 20
704881.01594267716
 30
0.0
  0
VERTEX
  5
1CA9
  8
RIVERS
 10
1082459.1855424249
 20
704883.09379317646
 30
0.0
  0
VERTEX
  5
1CAA
  8
RIVERS
 10
1082432.5251190071
 20
704863.83172480774
 30
0.0
  0
VERTEX
  5
1CAB
  8
RIVERS
 10
1082414.369729327
 20
704838.13799324515
 30
0.0
  0
VERTEX
  5
1CAC
  8
RIVERS
 10
1082399.4111683611
 20
704813.91508998175
 30
0.0
  0
VERTEX
  5
1CAD
  8
RIVERS
 10
1082382.256943
 20
704778.45439436706
 30
0.0
  0
VERTEX
  5
1CAE
  8
RIVERS
 10
1082372.1733710649
 20
704745.44769235398
 30
0.0
  0
VERTEX
  5
1CAF
  8
RIVERS
 10
1082370.8257041911
 20
704714.6411094208
 30
0.0
  0
VERTEX
  5
1CB0
  8
RIVERS
 10
1082369.425048274
 20
704680.79245218635
 30
0.0
  0
VERTEX
  5
1CB1
  8
RIVERS
 10
1082357.976775222
 20
704650.74437615916
 30
0.0
  0
VERTEX
  5
1CB2
  8
RIVERS
 10
1082335.2912043619
 20
704624.14558880904
 30
0.0
  0
VERTEX
  5
1CB3
  8
RIVERS
 10
1082312.9638078129
 20
704606.78535388899
 30
0.0
  0
VERTEX
  5
1CB4
  8
RIVERS
 10
1082293.7883472601
 20
704589.66640482505
 30
0.0
  0
VERTEX
  5
1CB5
  8
RIVERS
 10
1082269.1373377261
 20
704570.97895757935
 30
0.0
  0
VERTEX
  5
1CB6
  8
RIVERS
 10
1082244.5630558101
 20
704546.16746376443
 30
0.0
  0
VERTEX
  5
1CB7
  8
RIVERS
 10
1082221.8041455881
 20
704523.98515685159
 30
0.0
  0
VERTEX
  5
1CB8
  8
RIVERS
 10
1082202.056020577
 20
704506.1307297626
 30
0.0
  0
VERTEX
  5
1CB9
  8
RIVERS
 10
1082181.1902564771
 20
704488.90746711567
 30
0.0
  0
VERTEX
  5
1CBA
  8
RIVERS
 10
1082155.1588849749
 20
704470.96165341826
 30
0.0
  0
VERTEX
  5
1CBB
  8
RIVERS
 10
1082131.9383299351
 20
704460.22309418686
 30
0.0
  0
VERTEX
  5
1CBC
  8
RIVERS
 10
1082106.382368793
 20
704448.08505299396
 30
0.0
  0
VERTEX
  5
1CBD
  8
RIVERS
 10
1082076.8701890011
 20
704437.49147344439
 30
0.0
  0
VERTEX
  5
1CBE
  8
RIVERS
 10
1082051.787784334
 20
704440.14176050702
 30
0.0
  0
VERTEX
  5
1CBF
  8
RIVERS
 10
1082030.7681975821
 20
704453.72706032777
 30
0.0
  0
VERTEX
  5
1CC0
  8
RIVERS
 10
1082013.35693061
 20
704473.33409796702
 30
0.0
  0
VERTEX
  5
1CC1
  8
RIVERS
 10
1081998.7106409851
 20
704499.87970924249
 30
0.0
  0
VERTEX
  5
1CC2
  8
RIVERS
 10
1081978.2196347869
 20
704524.25351499091
 30
0.0
  0
VERTEX
  5
1CC3
  8
RIVERS
 10
1081953.8132675011
 20
704544.3619846839
 30
0.0
  0
VERTEX
  5
1CC4
  8
RIVERS
 10
1081930.9655836511
 20
704560.95129009814
 30
0.0
  0
VERTEX
  5
1CC5
  8
RIVERS
 10
1081903.9769267619
 20
704576.18772243452
 30
0.0
  0
VERTEX
  5
1CC6
  8
RIVERS
 10
1081874.546081291
 20
704590.00211599295
 30
0.0
  0
VERTEX
  5
1CC7
  8
RIVERS
 10
1081849.417879282
 20
704594.14123452629
 30
0.0
  0
VERTEX
  5
1CC8
  8
RIVERS
 10
1081820.5316408779
 20
704594.48855311272
 30
0.0
  0
VERTEX
  5
1CC9
  8
RIVERS
 10
1081794.635780707
 20
704593.68589897652
 30
0.0
  0
VERTEX
  5
1CCA
  8
RIVERS
 10
1081764.4178625741
 20
704580.28414799203
 30
0.0
  0
VERTEX
  5
1CCB
  8
RIVERS
 10
1081741.1011221181
 20
704567.43561760138
 30
0.0
  0
VERTEX
  5
1CCC
  8
RIVERS
 10
1081715.6598506549
 20
704550.58976077579
 30
0.0
  0
VERTEX
  5
1CCD
  8
RIVERS
 10
1081688.401254158
 20
704530.64793523971
 30
0.0
  0
VERTEX
  5
1CCE
  8
RIVERS
 10
1081661.7402274969
 20
704511.93479861645
 30
0.0
  0
VERTEX
  5
1CCF
  8
RIVERS
 10
1081636.3112511749
 20
704496.44232131122
 30
0.0
  0
VERTEX
  5
1CD0
  8
RIVERS
 10
1081613.536705283
 20
704483.54010264308
 30
0.0
  0
VERTEX
  5
1CD1
  8
RIVERS
 10
1081589.22819041
 20
704467.5106312749
 30
0.0
  0
VERTEX
  5
1CD2
  8
RIVERS
 10
1081561.4087005181
 20
704449.55390355235
 30
0.0
  0
VERTEX
  5
1CD3
  8
RIVERS
 10
1081532.110767225
 20
704430.50024005771
 30
0.0
  0
VERTEX
  5
1CD4
  8
RIVERS
 10
1081504.8305230821
 20
704412.00870141375
 30
0.0
  0
VERTEX
  5
1CD5
  8
RIVERS
 10
1081476.0136638121
 20
704390.68785638246
 30
0.0
  0
VERTEX
  5
1CD6
  8
RIVERS
 10
1081454.813717372
 20
704374.41378436936
 30
0.0
  0
VERTEX
  5
1CD7
  8
RIVERS
 10
1081428.9301378541
 20
704355.65207389207
 30
0.0
  0
VERTEX
  5
1CD8
  8
RIVERS
 10
1081400.4053458651
 20
704335.51352055545
 30
0.0
  0
VERTEX
  5
1CD9
  8
RIVERS
 10
1081379.7924631061
 20
704320.39940648095
 30
0.0
  0
VERTEX
  5
1CDA
  8
RIVERS
 10
1081353.3034907321
 20
704301.66806791199
 30
0.0
  0
VERTEX
  5
1CDB
  8
RIVERS
 10
1081320.2542593949
 20
704276.46241056453
 30
0.0
  0
VERTEX
  5
1CDC
  8
RIVERS
 10
1081298.399710153
 20
704259.65700539085
 30
0.0
  0
VERTEX
  5
1CDD
  8
RIVERS
 10
1081271.9945587381
 20
704244.37114994344
 30
0.0
  0
VERTEX
  5
1CDE
  8
RIVERS
 10
1081240.75098137
 20
704230.60461467097
 30
0.0
  0
VERTEX
  5
1CDF
  8
RIVERS
 10
1081216.6124261781
 20
704222.72421469982
 30
0.0
  0
VERTEX
  5
1CE0
  8
RIVERS
 10
1081187.2997178449
 20
704214.92803182732
 30
0.0
  0
VERTEX
  5
1CE1
  8
RIVERS
 10
1081162.0877841511
 20
704209.34401141468
 30
0.0
  0
VERTEX
  5
1CE2
  8
RIVERS
 10
1081135.4979293309
 20
704220.10769775417
 30
0.0
  0
VERTEX
  5
1CE3
  8
RIVERS
 10
1081110.2866626929
 20
704221.95160497935
 30
0.0
  0
VERTEX
  5
1CE4
  8
RIVERS
 10
1081085.801119857
 20
704206.00995974988
 30
0.0
  0
VERTEX
  5
1CE5
  8
RIVERS
 10
1081058.2458734871
 20
704185.81952099886
 30
0.0
  0
VERTEX
  5
1CE6
  8
RIVERS
 10
1081025.0504862501
 20
704169.14955072792
 30
0.0
  0
VERTEX
  5
1CE7
  8
RIVERS
 10
1080993.3823926591
 20
704162.17587320774
 30
0.0
  0
VERTEX
  5
1CE8
  8
RIVERS
 10
1080962.010929869
 20
704162.61763578199
 30
0.0
  0
VERTEX
  5
1CE9
  8
RIVERS
 10
1080933.802846892
 20
704169.85715532198
 30
0.0
  0
VERTEX
  5
1CEA
  8
RIVERS
 10
1080910.687637514
 20
704181.58401766606
 30
0.0
  0
VERTEX
  5
1CEB
  8
RIVERS
 10
1080885.747881064
 20
704197.60157644562
 30
0.0
  0
VERTEX
  5
1CEC
  8
RIVERS
 10
1080862.8420836511
 20
704213.86128977558
 30
0.0
  0
VERTEX
  5
1CED
  8
RIVERS
 10
1080838.8030707859
 20
704236.68149539654
 30
0.0
  0
VERTEX
  5
1CEE
  8
RIVERS
 10
1080821.641163311
 20
704258.27007562621
 30
0.0
  0
VERTEX
  5
1CEF
  8
RIVERS
 10
1080807.2064627269
 20
704282.39220224915
 30
0.0
  0
VERTEX
  5
1CF0
  8
RIVERS
 10
1080793.6636274629
 20
704306.78270268068
 30
0.0
  0
VERTEX
  5
1CF1
  8
RIVERS
 10
1080781.518578046
 20
704330.00992527441
 30
0.0
  0
VERTEX
  5
1CF2
  8
RIVERS
 10
1080768.673077673
 20
704362.65967580164
 30
0.0
  0
VERTEX
  5
1CF3
  8
RIVERS
 10
1080758.9564282801
 20
704388.69411413081
 30
0.0
  0
VERTEX
  5
1CF4
  8
RIVERS
 10
1080744.947035732
 20
704415.52296023665
 30
0.0
  0
VERTEX
  5
1CF5
  8
RIVERS
 10
1080726.1992514881
 20
704432.56597120187
 30
0.0
  0
VERTEX
  5
1CF6
  8
RIVERS
 10
1080701.794964988
 20
704444.40123954765
 30
0.0
  0
VERTEX
  5
1CF7
  8
RIVERS
 10
1080673.8091753121
 20
704439.03811764473
 30
0.0
  0
VERTEX
  5
1CF8
  8
RIVERS
 10
1080647.524045265
 20
704424.71508686955
 30
0.0
  0
VERTEX
  5
1CF9
  8
RIVERS
 10
1080619.080023794
 20
704409.4434886364
 30
0.0
  0
VERTEX
  5
1CFA
  8
RIVERS
 10
1080586.652015704
 20
704391.88182585768
 30
0.0
  0
VERTEX
  5
1CFB
  8
RIVERS
 10
1080556.467813113
 20
704377.39801550924
 30
0.0
  0
VERTEX
  5
1CFC
  8
RIVERS
 10
1080527.527897245
 20
704368.87221137097
 30
0.0
  0
VERTEX
  5
1CFD
  8
RIVERS
 10
1080494.8116350779
 20
704375.64796676207
 30
0.0
  0
VERTEX
  5
1CFE
  8
RIVERS
 10
1080465.5718285979
 20
704383.51359993999
 30
0.0
  0
VERTEX
  5
1CFF
  8
RIVERS
 10
1080438.2279726651
 20
704387.58184802043
 30
0.0
  0
VERTEX
  5
1D00
  8
RIVERS
 10
1080401.584641587
 20
704392.7207340562
 30
0.0
  0
VERTEX
  5
1D01
  8
RIVERS
 10
1080364.6363237039
 20
704399.93842829484
 30
0.0
  0
VERTEX
  5
1D02
  8
RIVERS
 10
1080326.470747804
 20
704409.33243855345
 30
0.0
  0
VERTEX
  5
1D03
  8
RIVERS
 10
1080294.2847359539
 20
704418.29594070849
 30
0.0
  0
VERTEX
  5
1D04
  8
RIVERS
 10
1080267.731989274
 20
704420.43586744124
 30
0.0
  0
VERTEX
  5
1D05
  8
RIVERS
 10
1080241.054889705
 20
704412.19322794455
 30
0.0
  0
VERTEX
  5
1D06
  8
RIVERS
 10
1080224.260378255
 20
704383.74350032443
 30
0.0
  0
VERTEX
  5
1D07
  8
RIVERS
 10
1080207.2757444091
 20
704352.53484893742
 30
0.0
  0
VERTEX
  5
1D08
  8
RIVERS
 10
1080189.3792054059
 20
704321.84511046577
 30
0.0
  0
VERTEX
  5
1D09
  8
RIVERS
 10
1080183.7598553931
 20
704293.19935902453
 30
0.0
  0
VERTEX
  5
1D0A
  8
RIVERS
 10
1080191.4709868359
 20
704264.85633212852
 30
0.0
  0
VERTEX
  5
1D0B
  8
RIVERS
 10
1080204.2622544591
 20
704235.64671134704
 30
0.0
  0
VERTEX
  5
1D0C
  8
RIVERS
 10
1080199.8585838811
 20
704208.21074771811
 30
0.0
  0
VERTEX
  5
1D0D
  8
RIVERS
 10
1080184.8099692811
 20
704183.8685254989
 30
0.0
  0
VERTEX
  5
1D0E
  8
RIVERS
 10
1080168.0759637661
 20
704161.13890320063
 30
0.0
  0
VERTEX
  5
1D0F
  8
RIVERS
 10
1080143.994572852
 20
704141.07465258986
 30
0.0
  0
VERTEX
  5
1D10
  8
RIVERS
 10
1080125.415207213
 20
704121.37586245488
 30
0.0
  0
VERTEX
  5
1D11
  8
RIVERS
 10
1080100.9154872061
 20
704110.25289194495
 30
0.0
  0
VERTEX
  5
1D12
  8
RIVERS
 10
1080069.301994764
 20
704106.87704886985
 30
0.0
  0
VERTEX
  5
1D13
  8
RIVERS
 10
1080041.1510979121
 20
704107.30845239456
 30
0.0
  0
VERTEX
  5
1D14
  8
RIVERS
 10
1080012.204926735
 20
704108.73070108308
 30
0.0
  0
VERTEX
  5
1D15
  8
RIVERS
 10
1079985.8811543181
 20
704102.61054612754
 30
0.0
  0
VERTEX
  5
1D16
  8
RIVERS
 10
1079962.417093514
 20
704084.17428942653
 30
0.0
  0
VERTEX
  5
1D17
  8
RIVERS
 10
1079953.0958871839
 20
704055.75248380715
 30
0.0
  0
VERTEX
  5
1D18
  8
RIVERS
 10
1079950.188770242
 20
704026.84424515301
 30
0.0
  0
VERTEX
  5
1D19
  8
RIVERS
 10
1079951.4257013579
 20
703995.60816247843
 30
0.0
  0
VERTEX
  5
1D1A
  8
RIVERS
 10
1079958.463175887
 20
703958.70272997185
 30
0.0
  0
VERTEX
  5
1D1B
  8
RIVERS
 10
1079965.006781308
 20
703920.88213768811
 30
0.0
  0
VERTEX
  5
1D1C
  8
RIVERS
 10
1079974.1847321461
 20
703895.70372517116
 30
0.0
  0
VERTEX
  5
1D1D
  8
RIVERS
 10
1079987.1915100571
 20
703868.65224424214
 30
0.0
  0
VERTEX
  5
1D1E
  8
RIVERS
 10
1079990.8765232239
 20
703840.02052158455
 30
0.0
  0
VERTEX
  5
1D1F
  8
RIVERS
 10
1079991.649684475
 20
703815.55967795139
 30
0.0
  0
VERTEX
  5
1D20
  8
RIVERS
 10
1079984.9954748349
 20
703784.05173376296
 30
0.0
  0
VERTEX
  5
1D21
  8
RIVERS
 10
1079976.0791740229
 20
703757.30945567612
 30
0.0
  0
VERTEX
  5
1D22
  8
RIVERS
 10
1079968.8767084801
 20
703728.92792021402
 30
0.0
  0
VERTEX
  5
1D23
  8
RIVERS
 10
1079962.189041744
 20
703699.12137036328
 30
0.0
  0
VERTEX
  5
1D24
  8
RIVERS
 10
1079948.872792087
 20
703671.96535040694
 30
0.0
  0
VERTEX
  5
1D25
  8
RIVERS
 10
1079933.081892028
 20
703640.88958157855
 30
0.0
  0
VERTEX
  5
1D26
  8
RIVERS
 10
1079917.072049119
 20
703609.87032361457
 30
0.0
  0
VERTEX
  5
1D27
  8
RIVERS
 10
1079907.2478906331
 20
703579.49554089445
 30
0.0
  0
VERTEX
  5
1D28
  8
RIVERS
 10
1079892.522198393
 20
703559.05425986112
 30
0.0
  0
VERTEX
  5
1D29
  8
RIVERS
 10
1079873.9637474071
 20
703537.18306684715
 30
0.0
  0
VERTEX
  5
1D2A
  8
RIVERS
 10
1079851.3303110891
 20
703511.76443922496
 30
0.0
  0
VERTEX
  5
1D2B
  8
RIVERS
 10
1079821.267516084
 20
703503.06399562245
 30
0.0
  0
VERTEX
  5
1D2C
  8
RIVERS
 10
1079789.648533148
 20
703500.11376566673
 30
0.0
  0
VERTEX
  5
1D2D
  8
RIVERS
 10
1079753.123681535
 20
703499.20634780161
 30
0.0
  0
VERTEX
  5
1D2E
  8
RIVERS
 10
1079725.0033105649
 20
703507.17425416026
 30
0.0
  0
VERTEX
  5
1D2F
  8
RIVERS
 10
1079699.019985958
 20
703521.81413474388
 30
0.0
  0
VERTEX
  5
1D30
  8
RIVERS
 10
1079676.6489532341
 20
703538.81695069443
 30
0.0
  0
VERTEX
  5
1D31
  8
RIVERS
 10
1079657.3112316551
 20
703553.43661596859
 30
0.0
  0
VERTEX
  5
1D32
  8
RIVERS
 10
1079636.824155936
 20
703567.61968263285
 30
0.0
  0
VERTEX
  5
1D33
  8
RIVERS
 10
1079608.798845927
 20
703584.48058039742
 30
0.0
  0
VERTEX
  5
1D34
  8
RIVERS
 10
1079584.0912434091
 20
703591.77180846652
 30
0.0
  0
VERTEX
  5
1D35
  8
RIVERS
 10
1079557.9226313089
 20
703600.42992040655
 30
0.0
  0
VERTEX
  5
1D36
  8
RIVERS
 10
1079529.306032391
 20
703586.61247738719
 30
0.0
  0
VERTEX
  5
1D37
  8
RIVERS
 10
1079507.5208447441
 20
703570.56421818887
 30
0.0
  0
VERTEX
  5
1D38
  8
RIVERS
 10
1079484.79044107
 20
703557.96589862381
 30
0.0
  0
VERTEX
  5
1D39
  8
RIVERS
 10
1079461.809454645
 20
703540.29955153249
 30
0.0
  0
VERTEX
  5
1D3A
  8
RIVERS
 10
1079446.3881610241
 20
703526.82717373013
 30
0.0
  0
VERTEX
  5
1D3B
  8
RIVERS
 10
1079434.137014875
 20
703512.21010645188
 30
0.0
  0
VERTEX
  5
1D3C
  8
RIVERS
 10
1079417.325691327
 20
703496.88289909263
 30
0.0
  0
VERTEX
  5
1D3D
  8
RIVERS
 10
1079395.2512188531
 20
703483.56861547264
 30
0.0
  0
VERTEX
  5
1D3E
  8
RIVERS
 10
1079369.2990422191
 20
703473.02265946253
 30
0.0
  0
VERTEX
  5
1D3F
  8
RIVERS
 10
1079345.8436270831
 20
703465.92265392886
 30
0.0
  0
VERTEX
  5
1D40
  8
RIVERS
 10
1079325.5232821701
 20
703453.66049416468
 30
0.0
  0
VERTEX
  5
1D41
  8
RIVERS
 10
1079312.445873806
 20
703433.90876347502
 30
0.0
  0
VERTEX
  5
1D42
  8
RIVERS
 10
1079302.833648934
 20
703408.01918998593
 30
0.0
  0
VERTEX
  5
1D43
  8
RIVERS
 10
1079294.3934345751
 20
703384.20936170709
 30
0.0
  0
VERTEX
  5
1D44
  8
RIVERS
 10
1079278.018398423
 20
703367.15955785534
 30
0.0
  0
VERTEX
  5
1D45
  8
RIVERS
 10
1079253.072681742
 20
703356.83378595195
 30
0.0
  0
VERTEX
  5
1D46
  8
RIVERS
 10
1079226.1186744471
 20
703355.0888366875
 30
0.0
  0
VERTEX
  5
1D47
  8
RIVERS
 10
1079193.875138144
 20
703354.86337012739
 30
0.0
  0
VERTEX
  5
1D48
  8
RIVERS
 10
1079161.4277708861
 20
703353.37097460066
 30
0.0
  0
VERTEX
  5
1D49
  8
RIVERS
 10
1079128.4873947599
 20
703353.69882234815
 30
0.0
  0
VERTEX
  5
1D4A
  8
RIVERS
 10
1079101.451174042
 20
703355.85439841286
 30
0.0
  0
VERTEX
  5
1D4B
  8
RIVERS
 10
1079076.41647431
 20
703357.00375834224
 30
0.0
  0
VERTEX
  5
1D4C
  8
RIVERS
 10
1079044.0220172389
 20
703354.18102777738
 30
0.0
  0
VERTEX
  5
1D4D
  8
RIVERS
 10
1079015.191715101
 20
703344.95072535961
 30
0.0
  0
VERTEX
  5
1D4E
  8
RIVERS
 10
1078992.1897991791
 20
703332.7960406068
 30
0.0
  0
VERTEX
  5
1D4F
  8
RIVERS
 10
1078968.513213716
 20
703316.84681038791
 30
0.0
  0
VERTEX
  5
1D50
  8
RIVERS
 10
1078947.5491976121
 20
703297.19835548894
 30
0.0
  0
VERTEX
  5
1D51
  8
RIVERS
 10
1078928.763068672
 20
703279.04431491066
 30
0.0
  0
VERTEX
  5
1D52
  8
RIVERS
 10
1078911.1414595791
 20
703257.78353796154
 30
0.0
  0
VERTEX
  5
1D53
  8
RIVERS
 10
1078908.0840283979
 20
703233.84957007028
 30
0.0
  0
VERTEX
  5
1D54
  8
RIVERS
 10
1078910.4370412501
 20
703206.82087484037
 30
0.0
  0
VERTEX
  5
1D55
  8
RIVERS
 10
1078910.469194432
 20
703181.38310196111
 30
0.0
  0
VERTEX
  5
1D56
  8
RIVERS
 10
1078910.522492389
 20
703155.16920057766
 30
0.0
  0
VERTEX
  5
1D57
  8
RIVERS
 10
1078911.032059073
 20
703131.43819697271
 30
0.0
  0
VERTEX
  5
1D58
  8
RIVERS
 10
1078912.0367109061
 20
703105.41494112345
 30
0.0
  0
VERTEX
  5
1D59
  8
RIVERS
 10
1078916.6364630789
 20
703076.89209413726
 30
0.0
  0
VERTEX
  5
1D5A
  8
RIVERS
 10
1078921.7950609031
 20
703053.35843590088
 30
0.0
  0
VERTEX
  5
1D5B
  8
RIVERS
 10
1078924.9302697971
 20
703028.01163110533
 30
0.0
  0
VERTEX
  5
1D5C
  8
RIVERS
 10
1078925.5246078831
 20
703002.23785651394
 30
0.0
  0
VERTEX
  5
1D5D
  8
RIVERS
 10
1078925.303035304
 20
702976.91605775524
 30
0.0
  0
VERTEX
  5
1D5E
  8
RIVERS
 10
1078923.3151813641
 20
702949.84266859677
 30
0.0
  0
VERTEX
  5
1D5F
  8
RIVERS
 10
1078917.108142561
 20
702923.76764182316
 30
0.0
  0
VERTEX
  5
1D60
  8
RIVERS
 10
1078901.088247725
 20
702901.42906528921
 30
0.0
  0
VERTEX
  5
1D61
  8
RIVERS
 10
1078879.6840137639
 20
702880.36152248457
 30
0.0
  0
VERTEX
  5
1D62
  8
RIVERS
 10
1078852.4975324429
 20
702864.94062994816
 30
0.0
  0
VERTEX
  5
1D63
  8
RIVERS
 10
1078826.5028206969
 20
702851.62422738085
 30
0.0
  0
VERTEX
  5
1D64
  8
RIVERS
 10
1078801.527461705
 20
702842.87706771062
 30
0.0
  0
VERTEX
  5
1D65
  8
RIVERS
 10
1078773.3567329191
 20
702834.07072823006
 30
0.0
  0
VERTEX
  5
1D66
  8
RIVERS
 10
1078749.7421380649
 20
702819.21048658132
 30
0.0
  0
VERTEX
  5
1D67
  8
RIVERS
 10
1078739.716498262
 20
702791.86563404661
 30
0.0
  0
VERTEX
  5
1D68
  8
RIVERS
 10
1078738.237086558
 20
702758.37873495591
 30
0.0
  0
VERTEX
  5
1D69
  8
RIVERS
 10
1078723.2481335739
 20
702733.64246172737
 30
0.0
  0
VERTEX
  5
1D6A
  8
RIVERS
 10
1078707.5602010321
 20
702710.84582508681
 30
0.0
  0
VERTEX
  5
1D6B
  8
RIVERS
 10
1078687.1375996671
 20
702692.18373440322
 30
0.0
  0
VERTEX
  5
1D6C
  8
RIVERS
 10
1078666.634953171
 20
702672.33228123235
 30
0.0
  0
VERTEX
  5
1D6D
  8
RIVERS
 10
1078648.151636879
 20
702646.47155358363
 30
0.0
  0
VERTEX
  5
1D6E
  8
RIVERS
 10
1078627.5114797601
 20
702618.20493464614
 30
0.0
  0
VERTEX
  5
1D6F
  8
RIVERS
 10
1078608.821988279
 20
702588.86993860034
 30
0.0
  0
VERTEX
  5
1D70
  8
RIVERS
 10
1078591.44978286
 20
702563.67692584998
 30
0.0
  0
VERTEX
  5
1D71
  8
RIVERS
 10
1078576.0961148101
 20
702538.80357629643
 30
0.0
  0
VERTEX
  5
1D72
  8
RIVERS
 10
1078558.5496107279
 20
702517.31617192179
 30
0.0
  0
VERTEX
  5
1D73
  8
RIVERS
 10
1078536.2335442251
 20
702494.00351877499
 30
0.0
  0
VERTEX
  5
1D74
  8
RIVERS
 10
1078512.6427592039
 20
702475.47510827205
 30
0.0
  0
VERTEX
  5
1D75
  8
RIVERS
 10
1078484.6636671191
 20
702458.02384292765
 30
0.0
  0
VERTEX
  5
1D76
  8
RIVERS
 10
1078458.2706333259
 20
702438.75162208616
 30
0.0
  0
VERTEX
  5
1D77
  8
RIVERS
 10
1078435.3948504899
 20
702420.97293177957
 30
0.0
  0
VERTEX
  5
1D78
  8
RIVERS
 10
1078406.4093639229
 20
702400.91889494425
 30
0.0
  0
VERTEX
  5
1D79
  8
RIVERS
 10
1078382.182616306
 20
702384.7554822322
 30
0.0
  0
VERTEX
  5
1D7A
  8
RIVERS
 10
1078351.7219197149
 20
702360.50980213005
 30
0.0
  0
VERTEX
  5
1D7B
  8
RIVERS
 10
1078325.1828164749
 20
702336.71698635316
 30
0.0
  0
VERTEX
  5
1D7C
  8
RIVERS
 10
1078303.7773596731
 20
702312.97873380419
 30
0.0
  0
VERTEX
  5
1D7D
  8
RIVERS
 10
1078297.072730968
 20
702289.67914281378
 30
0.0
  0
VERTEX
  5
1D7E
  8
RIVERS
 10
1078304.5698554281
 20
702263.30984862207
 30
0.0
  0
VERTEX
  5
1D7F
  8
RIVERS
 10
1078325.03226279
 20
702249.09986756044
 30
0.0
  0
VERTEX
  5
1D80
  8
RIVERS
 10
1078344.7282980301
 20
702230.87783986737
 30
0.0
  0
VERTEX
  5
1D81
  8
RIVERS
 10
1078359.4504569459
 20
702213.13101847249
 30
0.0
  0
VERTEX
  5
1D82
  8
RIVERS
 10
1078384.5659018441
 20
702201.02953822259
 30
0.0
  0
VERTEX
  5
1D83
  8
RIVERS
 10
1078414.9850719839
 20
702192.95055848558
 30
0.0
  0
VERTEX
  5
1D84
  8
RIVERS
 10
1078440.218758821
 20
702178.1453004597
 30
0.0
  0
VERTEX
  5
1D85
  8
RIVERS
 10
1078450.9808724939
 20
702157.40143090917
 30
0.0
  0
VERTEX
  5
1D86
  8
RIVERS
 10
1078451.7782295281
 20
702129.71726642794
 30
0.0
  0
VERTEX
  5
1D87
  8
RIVERS
 10
1078444.942012534
 20
702104.44570244791
 30
0.0
  0
VERTEX
  5
1D88
  8
RIVERS
 10
1078430.725846444
 20
702081.17666884791
 30
0.0
  0
VERTEX
  5
1D89
  8
RIVERS
 10
1078410.7326107309
 20
702058.74617252895
 30
0.0
  0
VERTEX
  5
1D8A
  8
RIVERS
 10
1078389.87070091
 20
702040.17617365706
 30
0.0
  0
VERTEX
  5
1D8B
  8
RIVERS
 10
1078364.0973276671
 20
702028.7654346663
 30
0.0
  0
VERTEX
  5
1D8C
  8
RIVERS
 10
1078333.643131274
 20
702030.45797785779
 30
0.0
  0
VERTEX
  5
1D8D
  8
RIVERS
 10
1078311.4765980809
 20
702046.93791402795
 30
0.0
  0
VERTEX
  5
1D8E
  8
RIVERS
 10
1078293.6282372179
 20
702065.86005815584
 30
0.0
  0
VERTEX
  5
1D8F
  8
RIVERS
 10
1078277.789727526
 20
702088.49327366042
 30
0.0
  0
VERTEX
  5
1D90
  8
RIVERS
 10
1078263.308590644
 20
702107.38243409886
 30
0.0
  0
VERTEX
  5
1D91
  8
RIVERS
 10
1078243.755112899
 20
702118.65953198681
 30
0.0
  0
VERTEX
  5
1D92
  8
RIVERS
 10
1078233.104123181
 20
702123.20190166926
 30
0.0
  0
VERTEX
  5
1D93
  8
RIVERS
 10
1078197.6933913031
 20
702130.39731799997
 30
0.0
  0
VERTEX
  5
1D94
  8
RIVERS
 10
1078160.6484611649
 20
702134.28109267785
 30
0.0
  0
VERTEX
  5
1D95
  8
RIVERS
 10
1078129.7941070171
 20
702133.75919728039
 30
0.0
  0
VERTEX
  5
1D96
  8
RIVERS
 10
1078117.3268981201
 20
702125.75892383244
 30
0.0
  0
VERTEX
  5
1D97
  8
RIVERS
 10
1078116.1777735751
 20
702110.07251704473
 30
0.0
  0
VERTEX
  5
1D98
  8
RIVERS
 10
1078120.2719209511
 20
702091.46635629353
 30
0.0
  0
VERTEX
  5
1D99
  8
RIVERS
 10
1078135.793998281
 20
702067.93759809434
 30
0.0
  0
VERTEX
  5
1D9A
  8
RIVERS
 10
1078151.4349681791
 20
702049.52270758373
 30
0.0
  0
VERTEX
  5
1D9B
  8
RIVERS
 10
1078164.4501130581
 20
702032.19372241828
 30
0.0
  0
VERTEX
  5
1D9C
  8
RIVERS
 10
1078179.222430767
 20
702013.17843757384
 30
0.0
  0
VERTEX
  5
1D9D
  8
RIVERS
 10
1078182.3640839781
 20
701991.42567851953
 30
0.0
  0
VERTEX
  5
1D9E
  8
RIVERS
 10
1078164.789815523
 20
701960.48725098872
 30
0.0
  0
VERTEX
  5
1D9F
  8
RIVERS
 10
1078155.7798243191
 20
701955.86538448185
 30
0.0
  0
VERTEX
  5
1DA0
  8
RIVERS
 10
1078134.31763322
 20
701951.8297921198
 30
0.0
  0
VERTEX
  5
1DA1
  8
RIVERS
 10
1078105.854175563
 20
701952.39186492865
 30
0.0
  0
VERTEX
  5
1DA2
  8
RIVERS
 10
1078064.982097198
 20
701953.67849624576
 30
0.0
  0
VERTEX
  5
1DA3
  8
RIVERS
 10
1078045.4998874769
 20
701956.43547058699
 30
0.0
  0
VERTEX
  5
1DA4
  8
RIVERS
 10
1078034.896576982
 20
701958.7241561485
 30
0.0
  0
VERTEX
  5
1DA5
  8
RIVERS
 10
1078026.8261586321
 20
701955.76150653802
 30
0.0
  0
VERTEX
  5
1DA6
  8
RIVERS
 10
1078012.5016280911
 20
701951.43229354033
 30
0.0
  0
VERTEX
  5
1DA7
  8
RIVERS
 10
1077998.479572081
 20
701938.72304663179
 30
0.0
  0
VERTEX
  5
1DA8
  8
RIVERS
 10
1078010.920979925
 20
701956.82804269413
 30
0.0
  0
VERTEX
  5
1DA9
  8
RIVERS
 10
1078032.1718951489
 20
701963.57781954284
 30
0.0
  0
VERTEX
  5
1DAA
  8
RIVERS
 10
1078058.847781928
 20
701959.36827990296
 30
0.0
  0
VERTEX
  5
1DAB
  8
RIVERS
 10
1078089.879541883
 20
701957.70513857855
 30
0.0
  0
VERTEX
  5
1DAC
  8
RIVERS
 10
1078116.9633260921
 20
701957.12555676105
 30
0.0
  0
VERTEX
  5
1DAD
  8
RIVERS
 10
1078144.098083694
 20
701957.95738509065
 30
0.0
  0
VERTEX
  5
1DAE
  8
RIVERS
 10
1078167.559562051
 20
701972.99959443987
 30
0.0
  0
VERTEX
  5
1DAF
  8
RIVERS
 10
1078178.040394993
 20
701996.60234988027
 30
0.0
  0
VERTEX
  5
1DB0
  8
RIVERS
 10
1078170.2096380841
 20
702019.92296854581
 30
0.0
  0
VERTEX
  5
1DB1
  8
RIVERS
 10
1078149.8388009979
 20
702043.69524276885
 30
0.0
  0
VERTEX
  5
1DB2
  8
RIVERS
 10
1078128.9895039271
 20
702070.61294793396
 30
0.0
  0
VERTEX
  5
1DB3
  8
RIVERS
 10
1078112.4195566941
 20
702096.11765301658
 30
0.0
  0
VERTEX
  5
1DB4
  8
RIVERS
 10
1078108.338220462
 20
702121.3090883455
 30
0.0
  0
VERTEX
  5
1DB5
  8
RIVERS
 10
1078116.24599898
 20
702137.42340002686
 30
0.0
  0
VERTEX
  5
1DB6
  8
RIVERS
 10
1078144.5483617771
 20
702141.68513021362
 30
0.0
  0
VERTEX
  5
1DB7
  8
RIVERS
 10
1078172.198156053
 20
702138.12965876213
 30
0.0
  0
VERTEX
  5
1DB8
  8
RIVERS
 10
1078198.212982656
 20
702134.40662125766
 30
0.0
  0
VERTEX
  5
1DB9
  8
RIVERS
 10
1078228.292967025
 20
702129.70228751074
 30
0.0
  0
VERTEX
  5
1DBA
  8
RIVERS
 10
1078243.661226172
 20
702124.49813936395
 30
0.0
  0
VERTEX
  5
1DBB
  8
RIVERS
 10
1078259.0727856599
 20
702119.45659253735
 30
0.0
  0
VERTEX
  5
1DBC
  8
RIVERS
 10
1078281.0725256209
 20
702105.97183866275
 30
0.0
  0
VERTEX
  5
1DBD
  8
RIVERS
 10
1078304.4514716619
 20
702084.34653195343
 30
0.0
  0
VERTEX
  5
1DBE
  8
RIVERS
 10
1078321.1942048911
 20
702064.60090176784
 30
0.0
  0
VERTEX
  5
1DBF
  8
RIVERS
 10
1078344.1629337829
 20
702041.20885112195
 30
0.0
  0
VERTEX
  5
1DC0
  8
RIVERS
 10
1078372.2686463059
 20
702035.69284900825
 30
0.0
  0
VERTEX
  5
1DC1
  8
RIVERS
 10
1078400.228972689
 20
702056.16624315386
 30
0.0
  0
VERTEX
  5
1DC2
  8
RIVERS
 10
1078418.342837722
 20
702073.64703684871
 30
0.0
  0
VERTEX
  5
1DC3
  8
RIVERS
 10
1078434.5491386671
 20
702102.710509439
 30
0.0
  0
VERTEX
  5
1DC4
  8
RIVERS
 10
1078436.2492341241
 20
702136.11118626897
 30
0.0
  0
VERTEX
  5
1DC5
  8
RIVERS
 10
1078428.21689615
 20
702159.20212377713
 30
0.0
  0
VERTEX
  5
1DC6
  8
RIVERS
 10
1078411.980789318
 20
702178.43542954617
 30
0.0
  0
VERTEX
  5
1DC7
  8
RIVERS
 10
1078382.714759975
 20
702189.06149004621
 30
0.0
  0
VERTEX
  5
1DC8
  8
RIVERS
 10
1078355.940869895
 20
702200.18306520185
 30
0.0
  0
VERTEX
  5
1DC9
  8
RIVERS
 10
1078337.358388813
 20
702215.74529228325
 30
0.0
  0
VERTEX
  5
1DCA
  8
RIVERS
 10
1078314.9997386041
 20
702233.90562910144
 30
0.0
  0
VERTEX
  5
1DCB
  8
RIVERS
 10
1078300.850335195
 20
702250.03155304038
 30
0.0
  0
VERTEX
  5
1DCC
  8
RIVERS
 10
1078284.49194564
 20
702272.66885222157
 30
0.0
  0
VERTEX
  5
1DCD
  8
RIVERS
 10
1078289.316298957
 20
702307.18599637132
 30
0.0
  0
VERTEX
  5
1DCE
  8
RIVERS
 10
1078310.0809974149
 20
702329.67212884256
 30
0.0
  0
VERTEX
  5
1DCF
  8
RIVERS
 10
1078329.2588973441
 20
702349.65510808385
 30
0.0
  0
VERTEX
  5
1DD0
  8
RIVERS
 10
1078346.1882624701
 20
702372.74314914551
 30
0.0
  0
VERTEX
  5
1DD1
  8
RIVERS
 10
1078372.1047049649
 20
702394.72364703286
 30
0.0
  0
VERTEX
  5
1DD2
  8
RIVERS
 10
1078399.961611999
 20
702412.76051503466
 30
0.0
  0
VERTEX
  5
1DD3
  8
RIVERS
 10
1078424.5509272851
 20
702431.1183855359
 30
0.0
  0
VERTEX
  5
1DD4
  8
RIVERS
 10
1078450.6487986019
 20
702453.45527784619
 30
0.0
  0
VERTEX
  5
1DD5
  8
RIVERS
 10
1078476.074533077
 20
702476.16764435812
 30
0.0
  0
VERTEX
  5
1DD6
  8
RIVERS
 10
1078502.824934636
 20
702497.40667903854
 30
0.0
  0
VERTEX
  5
1DD7
  8
RIVERS
 10
1078526.732292508
 20
702515.62705136556
 30
0.0
  0
VERTEX
  5
1DD8
  8
RIVERS
 10
1078550.620918243
 20
702534.73512522934
 30
0.0
  0
VERTEX
  5
1DD9
  8
RIVERS
 10
1078570.8447865299
 20
702557.52439732675
 30
0.0
  0
VERTEX
  5
1DDA
  8
RIVERS
 10
1078588.6763921331
 20
702586.07935577747
 30
0.0
  0
VERTEX
  5
1DDB
  8
RIVERS
 10
1078601.428463802
 20
702611.96217885893
 30
0.0
  0
VERTEX
  5
1DDC
  8
RIVERS
 10
1078618.2520358921
 20
702638.37667507434
 30
0.0
  0
VERTEX
  5
1DDD
  8
RIVERS
 10
1078640.5430108369
 20
702664.33049353398
 30
0.0
  0
VERTEX
  5
1DDE
  8
RIVERS
 10
1078660.5258623611
 20
702684.57064644992
 30
0.0
  0
VERTEX
  5
1DDF
  8
RIVERS
 10
1078681.6468876561
 20
702705.07051456766
 30
0.0
  0
VERTEX
  5
1DE0
  8
RIVERS
 10
1078708.5931656249
 20
702727.70694884134
 30
0.0
  0
VERTEX
  5
1DE1
  8
RIVERS
 10
1078727.5365883841
 20
702752.57556269888
 30
0.0
  0
VERTEX
  5
1DE2
  8
RIVERS
 10
1078729.6536073021
 20
702787.50041630992
 30
0.0
  0
VERTEX
  5
1DE3
  8
RIVERS
 10
1078733.710690968
 20
702814.17139196442
 30
0.0
  0
VERTEX
  5
1DE4
  8
RIVERS
 10
1078753.0137558731
 20
702834.66453570058
 30
0.0
  0
VERTEX
  5
1DE5
  8
RIVERS
 10
1078779.6493850709
 20
702846.68723728729
 30
0.0
  0
VERTEX
  5
1DE6
  8
RIVERS
 10
1078809.0359419519
 20
702857.45321417239
 30
0.0
  0
VERTEX
  5
1DE7
  8
RIVERS
 10
1078833.9757875351
 20
702872.25983984175
 30
0.0
  0
VERTEX
  5
1DE8
  8
RIVERS
 10
1078856.360671358
 20
702888.25985449075
 30
0.0
  0
VERTEX
  5
1DE9
  8
RIVERS
 10
1078876.903074875
 20
702908.55981533206
 30
0.0
  0
VERTEX
  5
1DEA
  8
RIVERS
 10
1078898.155512078
 20
702932.94609441818
 30
0.0
  0
VERTEX
  5
1DEB
  8
RIVERS
 10
1078912.2019805671
 20
702955.78572665725
 30
0.0
  0
VERTEX
  5
1DEC
  8
RIVERS
 10
1078914.358684534
 20
702979.79258606595
 30
0.0
  0
VERTEX
  5
1DED
  8
RIVERS
 10
1078914.5721994119
 20
703011.10771051946
 30
0.0
  0
VERTEX
  5
1DEE
  8
RIVERS
 10
1078910.5997933019
 20
703036.73274403287
 30
0.0
  0
VERTEX
  5
1DEF
  8
RIVERS
 10
1078904.061683709
 20
703061.05649567628
 30
0.0
  0
VERTEX
  5
1DF0
  8
RIVERS
 10
1078900.277186831
 20
703076.92259889701
 30
0.0
  0
VERTEX
  5
1DF1
  8
RIVERS
 10
1078877.182076646
 20
703083.76974698994
 30
0.0
  0
VERTEX
  5
1DF2
  8
RIVERS
 10
1078849.245293298
 20
703078.86276613874
 30
0.0
  0
VERTEX
  5
1DF3
  8
RIVERS
 10
1078821.7861549361
 20
703073.77571280452
 30
0.0
  0
VERTEX
  5
1DF4
  8
RIVERS
 10
1078791.430444059
 20
703069.61520038708
 30
0.0
  0
VERTEX
  5
1DF5
  8
RIVERS
 10
1078761.283945374
 20
703066.83237823797
 30
0.0
  0
VERTEX
  5
1DF6
  8
RIVERS
 10
1078729.7712087829
 20
703070.3257061796
 30
0.0
  0
VERTEX
  5
1DF7
  8
RIVERS
 10
1078697.02540682
 20
703085.80317851575
 30
0.0
  0
VERTEX
  5
1DF8
  8
RIVERS
 10
1078667.418095916
 20
703094.62715035956
 30
0.0
  0
VERTEX
  5
1DF9
  8
RIVERS
 10
1078636.055489867
 20
703100.80349616206
 30
0.0
  0
VERTEX
  5
1DFA
  8
RIVERS
 10
1078610.615994313
 20
703103.69015821698
 30
0.0
  0
VERTEX
  5
1DFB
  8
RIVERS
 10
1078582.9749113719
 20
703102.21808958973
 30
0.0
  0
VERTEX
  5
1DFC
  8
RIVERS
 10
1078548.743913583
 20
703094.59294312506
 30
0.0
  0
VERTEX
  5
1DFD
  8
RIVERS
 10
1078521.017421596
 20
703084.59364390303
 30
0.0
  0
VERTEX
  5
1DFE
  8
RIVERS
 10
1078495.4577730731
 20
703071.61736009689
 30
0.0
  0
VERTEX
  5
1DFF
  8
RIVERS
 10
1078472.989470467
 20
703057.11264530034
 30
0.0
  0
VERTEX
  5
1E00
  8
RIVERS
 10
1078450.45775613
 20
703041.08277294145
 30
0.0
  0
VERTEX
  5
1E01
  8
RIVERS
 10
1078424.5884686559
 20
703027.00387547887
 30
0.0
  0
VERTEX
  5
1E02
  8
RIVERS
 10
1078397.2156202409
 20
703017.33575709665
 30
0.0
  0
VERTEX
  5
1E03
  8
RIVERS
 10
1078364.383926529
 20
703007.07481117896
 30
0.0
  0
VERTEX
  5
1E04
  8
RIVERS
 10
1078329.344166168
 20
702998.30453549686
 30
0.0
  0
VERTEX
  5
1E05
  8
RIVERS
 10
1078299.5425888151
 20
702991.14567389351
 30
0.0
  0
VERTEX
  5
1E06
  8
RIVERS
 10
1078267.6116490781
 20
702987.25003839459
 30
0.0
  0
VERTEX
  5
1E07
  8
RIVERS
 10
1078236.608868551
 20
702984.69062974618
 30
0.0
  0
VERTEX
  5
1E08
  8
RIVERS
 10
1078201.91923151
 20
702982.57659412082
 30
0.0
  0
VERTEX
  5
1E09
  8
RIVERS
 10
1078173.4328714749
 20
702978.33407917491
 30
0.0
  0
VERTEX
  5
1E0A
  8
RIVERS
 10
1078146.1869554841
 20
702969.64629340556
 30
0.0
  0
VERTEX
  5
1E0B
  8
RIVERS
 10
1078120.842359229
 20
702958.51954210864
 30
0.0
  0
VERTEX
  5
1E0C
  8
RIVERS
 10
1078097.8120723551
 20
702947.84126678936
 30
0.0
  0
VERTEX
  5
1E0D
  8
RIVERS
 10
1078072.529879512
 20
702931.17997751932
 30
0.0
  0
VERTEX
  5
1E0E
  8
RIVERS
 10
1078038.632549627
 20
702921.70686396689
 30
0.0
  0
VERTEX
  5
1E0F
  8
RIVERS
 10
1077998.9160060531
 20
702912.00722047919
 30
0.0
  0
VERTEX
  5
1E10
  8
RIVERS
 10
1077938.637491538
 20
702912.11417344247
 30
0.0
  0
VERTEX
  5
1E11
  8
RIVERS
 10
1077916.1375510769
 20
702919.4240072238
 30
0.0
  0
VERTEX
  5
1E12
  8
RIVERS
 10
1077886.3197751171
 20
702926.28992629051
 30
0.0
  0
VERTEX
  5
1E13
  8
RIVERS
 10
1077853.5349195499
 20
702938.09700392641
 30
0.0
  0
VERTEX
  5
1E14
  8
RIVERS
 10
1077824.474203968
 20
702950.75807474379
 30
0.0
  0
VERTEX
  5
1E15
  8
RIVERS
 10
1077781.8173170511
 20
702953.91474955867
 30
0.0
  0
VERTEX
  5
1E16
  8
RIVERS
 10
1077746.0548011379
 20
702957.78449946258
 30
0.0
  0
VERTEX
  5
1E17
  8
RIVERS
 10
1077677.7963023919
 20
702959.52612105652
 30
0.0
  0
VERTEX
  5
1E18
  8
RIVERS
 10
1077618.8755139911
 20
702957.93488754716
 30
0.0
  0
SEQEND
  5
1E19
  8
RIVERS
  0
ENDSEC
  0
EOF
