  0
SECTION
  2
HEADER
  9
$ACADVER
  1
AC1009
  9
$INSBASE
 10
0.0
 20
0.0
 30
0.0
  9
$EXTMIN
 10
773630.1878465018235147
 20
1118627.6958022960461676
 30
-0.0000234999999975
  9
$EXTMAX
 10
1547647.1138363329228014
 20
2237564.6966300001367927
 30
1000.7229999999999563
  9
$LIMMIN
 10
0.0
 20
0.0
  9
$LIMMAX
 10
12.0
 20
9.0
  9
$ORTHOMODE
 70
     0
  9
$REGENMODE
 70
     1
  9
$FILLMODE
 70
     1
  9
$QTEXTMODE
 70
     0
  9
$MIRRTEXT
 70
     1
  9
$DRAGMODE
 70
     2
  9
$LTSCALE
 40
1.0
  9
$OSMODE
 70
    37
  9
$ATTMODE
 70
     1
  9
$TEXTSIZE
 40
0.2
  9
$TRACEWID
 40
0.05
  9
$TEXTSTYLE
  7
STANDARD
  9
$CLAYER
  8
0
  9
$CELTYPE
  6
BYLAYER
  9
$CECOLOR
 62
   256
  9
$DIMSCALE
 40
1.0
  9
$DIMASZ
 40
0.18
  9
$DIMEXO
 40
0.0625
  9
$DIMDLI
 40
0.38
  9
$DIMRND
 40
0.0
  9
$DIMDLE
 40
0.0
  9
$DIMEXE
 40
0.18
  9
$DIMTP
 40
0.0
  9
$DIMTM
 40
0.0
  9
$DIMTXT
 40
0.18
  9
$DIMCEN
 40
0.09
  9
$DIMTSZ
 40
0.0
  9
$DIMTOL
 70
     0
  9
$DIMLIM
 70
     0
  9
$DIMTIH
 70
     1
  9
$DIMTOH
 70
     1
  9
$DIMSE1
 70
     0
  9
$DIMSE2
 70
     0
  9
$DIMTAD
 70
     0
  9
$DIMZIN
 70
     0
  9
$DIMBLK
  1

  9
$DIMASO
 70
     1
  9
$DIMSHO
 70
     1
  9
$DIMPOST
  1

  9
$DIMAPOST
  1

  9
$DIMALT
 70
     0
  9
$DIMALTD
 70
     2
  9
$DIMALTF
 40
25.3999999999999986
  9
$DIMLFAC
 40
1.0
  9
$DIMTOFL
 70
     0
  9
$DIMTVP
 40
0.0
  9
$DIMTIX
 70
     0
  9
$DIMSOXD
 70
     0
  9
$DIMSAH
 70
     0
  9
$DIMBLK1
  1

  9
$DIMBLK2
  1

  9
$DIMSTYLE
  2
STANDARD
  9
$DIMCLRD
 70
     0
  9
$DIMCLRE
 70
     0
  9
$DIMCLRT
 70
     0
  9
$DIMTFAC
 40
1.0
  9
$DIMGAP
 40
0.09
  9
$LUNITS
 70
     2
  9
$LUPREC
 70
     4
  9
$SKETCHINC
 40
0.1
  9
$FILLETRAD
 40
0.0
  9
$AUNITS
 70
     0
  9
$AUPREC
 70
     0
  9
$MENU
  1
.
  9
$ELEVATION
 40
0.0
  9
$PELEVATION
 40
0.0
  9
$THICKNESS
 40
0.0
  9
$LIMCHECK
 70
     0
  9
$BLIPMODE
 70
     0
  9
$CHAMFERA
 40
0.0
  9
$CHAMFERB
 40
0.0
  9
$SKPOLY
 70
     0
  9
$TDCREATE
 40
2459986.0066319438628852
  9
$TDUPDATE
 40
2459986.4115162040106952
  9
$TDINDWG
 40
0.0540509375
  9
$TDUSRTIMER
 40
0.0540509375
  9
$USRTIMER
 70
     1
  9
$ANGBASE
 50
0.0
  9
$ANGDIR
 70
     0
  9
$PDMODE
 70
    33
  9
$PDSIZE
 40
-3.0
  9
$PLINEWID
 40
0.0
  9
$COORDS
 70
     1
  9
$SPLFRAME
 70
     0
  9
$SPLINETYPE
 70
     6
  9
$SPLINESEGS
 70
     8
  9
$ATTDIA
 70
     1
  9
$ATTREQ
 70
     1
  9
$HANDLING
 70
     1
  9
$HANDSEED
  5
5F1
  9
$SURFTAB1
 70
     6
  9
$SURFTAB2
 70
     6
  9
$SURFTYPE
 70
     6
  9
$SURFU
 70
     6
  9
$SURFV
 70
     6
  9
$UCSNAME
  2

  9
$UCSORG
 10
0.0
 20
0.0
 30
0.0
  9
$UCSXDIR
 10
1.0
 20
0.0
 30
0.0
  9
$UCSYDIR
 10
0.0
 20
1.0
 30
0.0
  9
$PUCSNAME
  2

  9
$PUCSORG
 10
0.0
 20
0.0
 30
0.0
  9
$PUCSXDIR
 10
1.0
 20
0.0
 30
0.0
  9
$PUCSYDIR
 10
0.0
 20
1.0
 30
0.0
  9
$USERI1
 70
     0
  9
$USERI2
 70
     0
  9
$USERI3
 70
     0
  9
$USERI4
 70
     0
  9
$USERI5
 70
     0
  9
$USERR1
 40
0.0
  9
$USERR2
 40
0.0
  9
$USERR3
 40
0.0
  9
$USERR4
 40
0.0
  9
$USERR5
 40
0.0
  9
$WORLDVIEW
 70
     1
  9
$SHADEDGE
 70
     3
  9
$SHADEDIF
 70
    70
  9
$TILEMODE
 70
     1
  9
$MAXACTVP
 70
    64
  9
$PLIMCHECK
 70
     0
  9
$PEXTMIN
 10
1.0000000000000000E+20
 20
1.0000000000000000E+20
 30
1.0000000000000000E+20
  9
$PEXTMAX
 10
-1.0000000000000000E+20
 20
-1.0000000000000000E+20
 30
-1.0000000000000000E+20
  9
$PLIMMIN
 10
0.0
 20
0.0
  9
$PLIMMAX
 10
12.0
 20
9.0
  9
$UNITMODE
 70
     0
  9
$VISRETAIN
 70
     1
  9
$PLINEGEN
 70
     0
  9
$PSLTSCALE
 70
     1
  0
ENDSEC
  0
SECTION
  2
TABLES
  0
TABLE
  2
VPORT
 70
     1
  0
VPORT
  2
*ACTIVE
 70
     0
 10
0.0
 20
0.0
 11
1.0
 21
1.0
 12
773605.1572289621690288
 22
1118672.6154156778939068
 13
0.0
 23
0.0
 14
0.5
 24
0.5
 15
0.5
 25
0.5
 16
0.0
 26
0.0
 36
1.0
 17
0.0
 27
0.0
 37
0.0
 40
702.0966540529358326
 41
1.351198871650211
 42
50.0
 43
0.0
 44
0.0
 50
0.0
 51
0.0
 71
     0
 72
   100
 73
     1
 74
     3
 75
     0
 76
     0
 77
     0
 78
     0
  0
ENDTAB
  0
TABLE
  2
LTYPE
 70
     1
  0
LTYPE
  2
CONTINUOUS
 70
     0
  3
Solid line
 72
    65
 73
     0
 40
0.0
  0
ENDTAB
  0
TABLE
  2
LAYER
 70
     2
  0
LAYER
  2
0
 70
     0
 62
    -7
  6
CONTINUOUS
  0
LAYER
  2
RASGOS
 70
     0
 62
     6
  6
CONTINUOUS
  0
ENDTAB
  0
TABLE
  2
STYLE
 70
     2
  0
STYLE
  2
STANDARD
 70
     0
 40
0.0
 41
1.0
 50
0.0
 71
     0
 42
0.2
  3
txt
  4

  0
STYLE
  2
ANNOTATIVE
 70
     0
 40
0.0
 41
1.0
 50
0.0
 71
     0
 42
0.2
  3
txt
  4

  0
ENDTAB
  0
TABLE
  2
VIEW
 70
     0
  0
ENDTAB
  0
TABLE
  2
UCS
 70
     0
  0
ENDTAB
  0
TABLE
  2
APPID
 70
     7
  0
APPID
  2
ACAD
 70
     0
  0
APPID
  2
ACADANNOTATIVE
 70
     0
  0
APPID
  2
ACAD_NAV_VCDISPLAY
 70
     0
  0
APPID
  2
ACAD_MLEADERVER
 70
     0
  0
APPID
  2
ACAUTHENVIRON
 70
     0
  0
APPID
  2
ACDBDYNAMICBLOCKTRUENAME
 70
     0
  0
APPID
  2
ACDBDYNAMICBLOCKGUID
 70
     0
  0
ENDTAB
  0
TABLE
  2
DIMSTYLE
 70
     2
  0
DIMSTYLE
  2
STANDARD
 70
     0
  3

  4

  5

  6

  7

 40
1.0
 41
0.18
 42
0.0625
 43
0.38
 44
0.18
 45
0.0
 46
0.0
 47
0.0
 48
0.0
140
0.18
141
0.09
142
0.0
143
25.3999999999999986
144
1.0
145
0.0
146
1.0
147
0.09
 71
     0
 72
     0
 73
     1
 74
     1
 75
     0
 76
     0
 77
     0
 78
     0
170
     0
171
     2
172
     0
173
     0
174
     0
175
     0
176
     0
177
     0
178
     0
  0
DIMSTYLE
  2
ANNOTATIVE
 70
     0
  3

  4

  5

  6

  7

 40
1.0
 41
0.18
 42
0.0625
 43
0.38
 44
0.18
 45
0.0
 46
0.0
 47
0.0
 48
0.0
140
0.18
141
0.09
142
0.0
143
25.3999999999999986
144
1.0
145
0.0
146
1.0
147
0.09
 71
     0
 72
     0
 73
     1
 74
     1
 75
     0
 76
     0
 77
     0
 78
     0
170
     0
171
     2
172
     0
173
     0
174
     0
175
     0
176
     0
177
     0
178
     0
  0
ENDTAB
  0
ENDSEC
  0
SECTION
  2
BLOCKS
  0
BLOCK
  8
0
  2
$MODEL_SPACE
 70
     0
 10
0.0
 20
0.0
 30
0.0
  3
$MODEL_SPACE
  1

  0
ENDBLK
  5
45F
  8
0
  0
BLOCK
 67
     1
  8
0
  2
$PAPER_SPACE
 70
     0
 10
0.0
 20
0.0
 30
0.0
  3
$PAPER_SPACE
  1

  0
ENDBLK
  5
45B
 67
     1
  8
0
  0
BLOCK
  8
0
  2
RASGOS_TXT
 70
     0
 10
0.0
 20
0.0
 30
0.0
  3
RASGOS_TXT
  1

  0
TEXT
  5
49A
  8
RASGOS
 10
773696.3128666670527309
 20
1118752.1084000000264496
 30
-0.0000234999999975
 40
2.0
  1
M13
 72
     1
 11
773698.646200000308454
 21
1118752.1084000000264496
 31
-0.0000234999999975
  0
TEXT
  5
49B
  8
RASGOS
 10
773642.603833333356306
 20
1118716.3154000008944422
 30
-0.0000234999999975
 40
2.0
  1
M10
 72
     1
 11
773644.7704999998677522
 21
1118716.3154000008944422
 31
-0.0000234999999975
  0
TEXT
  5
49C
  8
RASGOS
 10
773641.3168333334615454
 20
1118751.8236000000033528
 30
-0.0000234999999975
 40
2.0
  1
M9
 72
     1
 11
773642.9835000002058223
 21
1118751.8236000000033528
 31
-0.0000234999999975
  0
TEXT
  5
49D
  8
RASGOS
 10
773666.2862333331722766
 20
1118754.1171999999787658
 30
-0.0000234999999975
 40
2.0
  1
M8
 72
     1
 11
773667.9528999999165535
 21
1118754.1171999999787658
 31
-0.0000234999999975
  0
TEXT
  5
49E
  8
RASGOS
 10
773664.4048333328682929
 20
1118769.6578999999910593
 30
-0.0000234999999975
 40
2.0
  1
M7
 72
     1
 11
773666.0714999994961545
 21
1118769.6578999999910593
 31
-0.0000234999999975
  0
TEXT
  5
49F
  8
RASGOS
 10
773682.951533333864063
 20
1118782.643099999986589
 30
-0.0000234999999975
 40
2.0
  1
M6
 72
     1
 11
773684.6182000004919246
 21
1118782.643099999986589
 31
-0.0000234999999975
  0
TEXT
  5
4A0
  8
RASGOS
 10
773688.7055333334719762
 20
1118794.9886000000406057
 30
-0.0000234999999975
 40
2.0
  1
M4
 72
     1
 11
773690.3721999999834225
 21
1118794.9886000000406057
 31
-0.0000234999999975
  0
TEXT
  5
4A1
  8
RASGOS
 10
773755.9110333335120231
 20
1118799.0435000010766089
 30
-0.0000234999999975
 40
2.0
  1
M5
 72
     1
 11
773757.5777000002563
 21
1118799.0435000010766089
 31
-0.0000234999999975
  0
TEXT
  5
4A2
  8
RASGOS
 10
773741.2733666667481884
 20
1118775.8134999999310821
 30
-0.0000234999999975
 40
2.0
  1
M1
 72
     1
 11
773742.6067000001203269
 21
1118775.8134999999310821
 31
-0.0000234999999975
  0
TEXT
  5
4A3
  8
RASGOS
 10
773724.7701333337463439
 20
1118758.3976000009570271
 30
-0.0000234999999975
 40
2.0
  1
M2
 72
     1
 11
773726.4368000002577901
 21
1118758.3976000009570271
 31
-0.0000234999999975
  0
TEXT
  5
4A4
  8
RASGOS
 10
773709.4917333330959082
 20
1118777.8932000009808689
 30
-0.0000234999999975
 40
2.0
  1
M3
 72
     1
 11
773711.1583999997237697
 21
1118777.8932000009808689
 31
-0.0000234999999975
  0
TEXT
  5
4A5
  8
RASGOS
 10
773634.2834000004222617
 20
1118695.6129000000655651
 30
-0.0000234999999975
 40
2.0
  1
M11
 72
     1
 11
773636.2834000003058463
 21
1118695.6129000000655651
 31
-0.0000234999999975
  0
TEXT
  5
4A6
  8
RASGOS
 10
773640.35896666708868
 20
1118675.5231999999377877
 30
-0.0000234999999975
 40
2.0
  1
M17
 72
     1
 11
773642.6923000003444031
 21
1118675.5231999999377877
 31
-0.0000234999999975
  0
TEXT
  5
4A7
  8
RASGOS
 10
773656.8359666669275612
 20
1118686.2985000000335276
 30
-0.0000234999999975
 40
2.0
  1
M18
 72
     1
 11
773659.1693000004161149
 21
1118686.2985000000335276
 31
-0.0000234999999975
  0
TEXT
  5
4A8
  8
RASGOS
 10
773666.97726666694507
 20
1118674.5307000000029802
 30
-0.0000234999999975
 40
2.0
  1
M19
 72
     1
 11
773669.3106000004336238
 21
1118674.5307000000029802
 31
-0.0000234999999975
  0
TEXT
  5
4A9
  8
RASGOS
 10
773669.8489666668465361
 20
1118744.4108000008855015
 30
-0.0000234999999975
 40
2.0
  1
M14
 72
     1
 11
773672.1823000003350899
 21
1118744.4108000008855015
 31
-0.0000234999999975
  0
TEXT
  5
4AA
  8
RASGOS
 10
773697.2658000000519678
 20
1118685.0673999988939613
 30
-0.0000234999999975
 40
2.0
  1
M20
 72
     1
 11
773699.7658000000519678
 21
1118685.0673999988939613
 31
-0.0000234999999975
  0
TEXT
  5
4AB
  8
RASGOS
 10
773708.899533333373256
 20
1118757.919500001007691
 30
-0.0000234999999975
 40
2.0
  1
M26
 72
     1
 11
773711.5662000000011176
 21
1118757.919500001007691
 31
-0.0000234999999975
  0
TEXT
  5
4AC
  8
RASGOS
 10
773684.450666666845791
 20
1118737.4761000000871718
 30
-0.0000234999999975
 40
2.0
  1
M15
 72
     1
 11
773686.7840000001015142
 21
1118737.4761000000871718
 31
-0.0000234999999975
  0
TEXT
  5
4AD
  8
RASGOS
 10
773725.0374333331128582
 20
1118743.1580000000540167
 30
-0.0000234999999975
 40
2.0
  1
M25
 72
     1
 11
773727.7040999997407198
 21
1118743.1580000000540167
 31
-0.0000234999999975
  0
TEXT
  5
4AE
  8
RASGOS
 10
773772.6634666663594544
 20
1118756.9406000000890344
 30
-0.0000234999999975
 40
2.0
  1
M12
 72
     1
 11
773774.9967999998480082
 21
1118756.9406000000890344
 31
-0.0000234999999975
  0
TEXT
  5
4AF
  8
RASGOS
 10
773725.635966666857712
 20
1118804.6018000000622123
 30
-0.0000234999999975
 40
2.0
  1
M16
 72
     1
 11
773727.9693000002298504
 21
1118804.6018000000622123
 31
-0.0000234999999975
  0
TEXT
  5
4B0
  8
RASGOS
 10
773741.7391333336709067
 20
1118813.3574000000953674
 30
-0.0000234999999975
 40
2.0
  1
Plaza
 72
     1
 11
773745.9058000002987683
 21
1118813.3574000000953674
 31
-0.0000234999999975
  0
TEXT
  5
4B1
  8
RASGOS
 10
773660.5373666665982455
 20
1118655.9077999999281019
 30
-0.0000234999999975
 40
2.0
  1
M21
 72
     1
 11
773662.8706999999703839
 21
1118655.9077999999281019
 31
-0.0000234999999975
  0
TEXT
  5
4B2
  8
RASGOS
 10
773644.0130333334673196
 20
1118651.0670000000391155
 30
-0.0000234999999975
 40
2.0
  1
M22
 72
     1
 11
773646.6797000002115965
 21
1118651.0670000000391155
 31
-0.0000234999999975
  0
TEXT
  5
4B3
  8
RASGOS
 10
773637.0642333331052214
 20
1118633.9706999999471009
 30
-0.0000234999999975
 40
2.0
  1
M23
 72
     1
 11
773639.730899999733083
 21
1118633.9706999999471009
 31
-0.0000234999999975
  0
TEXT
  5
4B4
  8
RASGOS
 10
773674.750833333353512
 20
1118662.6035999990999699
 30
-0.0000234999999975
 40
2.0
  1
M24
 72
     1
 11
773677.4174999999813735
 21
1118662.6035999990999699
 31
-0.0000234999999975
  0
ENDBLK
  5
358
  8
0
  0
ENDSEC
  0
SECTION
  2
ENTITIES
  0
POLYLINE
  5
70
  8
RASGOS
 66
     1
 10
0.0
 20
0.0
 30
0.0
 70
     9
  0
VERTEX
  5
79
  8
RASGOS
 10
773697.7784464261494577
 20
1118745.0615866100415587
 30
999.0899999999999181
 70
    32
  0
VERTEX
  5
7A
  8
RASGOS
 10
773695.4284738529240713
 20
1118746.0802415949292481
 30
999.0899999999999181
 70
    32
  0
VERTEX
  5
7B
  8
RASGOS
 10
773693.1540216953726485
 20
1118748.3132374659180641
 30
999.0899999999999181
 70
    32
  0
VERTEX
  5
7C
  8
RASGOS
 10
773691.6555072962073609
 20
1118752.0931637489702553
 30
999.0899999999999181
 70
    32
  0
VERTEX
  5
7D
  8
RASGOS
 10
773691.7129023704910651
 20
1118754.1948366649448872
 30
999.0899999999999181
 70
    32
  0
VERTEX
  5
7E
  8
RASGOS
 10
773692.6464699257630855
 20
1118756.3706486099399626
 30
999.0899999999999181
 70
    32
  0
VERTEX
  5
7F
  8
RASGOS
 10
773694.6273929580347613
 20
1118757.7758922809734941
 30
999.0899999999999181
 70
    32
  0
VERTEX
  5
80
  8
RASGOS
 10
773696.3546488793799654
 20
1118758.4852907101158053
 30
999.0899999999999181
 70
    32
  0
VERTEX
  5
81
  8
RASGOS
 10
773698.9620379320112988
 20
1118759.0259429300203919
 30
999.0899999999999181
 70
    32
  0
VERTEX
  5
82
  8
RASGOS
 10
773701.820379203883931
 20
1118758.0154269121121615
 30
999.0899999999999181
 70
    32
  0
VERTEX
  5
83
  8
RASGOS
 10
773704.4423557397676632
 20
1118755.6989383299369365
 30
999.0899999999999181
 70
    32
  0
VERTEX
  5
84
  8
RASGOS
 10
773705.9438480923417956
 20
1118752.6786319129168987
 30
999.0899999999999181
 70
    32
  0
VERTEX
  5
85
  8
RASGOS
 10
773705.1924133932916448
 20
1118749.5509155339095742
 30
999.0899999999999181
 70
    32
  0
VERTEX
  5
86
  8
RASGOS
 10
773703.2242458797991276
 20
1118746.7587646869942546
 30
999.0899999999999181
 70
    32
  0
VERTEX
  5
87
  8
RASGOS
 10
773699.770530964480713
 20
1118745.2532864029053599
 30
999.0899999999999181
 70
    32
  0
VERTEX
  5
88
  8
RASGOS
 10
773697.8651281212223694
 20
1118745.0623838449828327
 30
999.0899999999999181
 70
    32
  0
SEQEND
  5
89
  8
RASGOS
  0
POLYLINE
  5
8A
  8
RASGOS
 66
     1
 10
0.0
 20
0.0
 30
0.0
 70
     9
  0
VERTEX
  5
93
  8
RASGOS
 10
773640.0353544868994504
 20
1118720.3126988150179386
 30
998.8680000000000518
 70
    32
  0
VERTEX
  5
94
  8
RASGOS
 10
773641.4025453362846747
 20
1118721.7052714130841196
 30
998.8680000000000518
 70
    32
  0
VERTEX
  5
95
  8
RASGOS
 10
773643.9422095556510612
 20
1118722.577858739066869
 30
998.8662852697673316
 70
    32
  0
VERTEX
  5
96
  8
RASGOS
 10
773645.6424780256347731
 20
1118722.381188791943714
 30
998.865013336254151
 70
    32
  0
VERTEX
  5
97
  8
RASGOS
 10
773647.4527961594285443
 20
1118721.7609160460997373
 30
998.8639086770662061
 70
    32
  0
VERTEX
  5
98
  8
RASGOS
 10
773649.376092619728297
 20
1118720.3986062160693109
 30
998.8639086770662061
 70
    32
  0
VERTEX
  5
99
  8
RASGOS
 10
773650.7715939672198147
 20
1118718.7129809730686247
 30
998.8626153896910864
 70
    32
  0
VERTEX
  5
9A
  8
RASGOS
 10
773651.3228183332830667
 20
1118716.4888221670407802
 30
998.8609999999996489
 70
    32
  0
VERTEX
  5
9B
  8
RASGOS
 10
773650.9137322278693318
 20
1118713.4725008499808609
 30
998.8999999999999773
 70
    32
  0
VERTEX
  5
9C
  8
RASGOS
 10
773648.187582693528384
 20
1118711.0802404088899493
 30
998.9550000000001546
 70
    32
  0
VERTEX
  5
9D
  8
RASGOS
 10
773644.5466622106032446
 20
1118710.2157260889653116
 30
998.8799999999998818
 70
    32
  0
VERTEX
  5
9E
  8
RASGOS
 10
773642.2480613427469507
 20
1118710.5669062770903111
 30
998.5739999999999554
 70
    32
  0
VERTEX
  5
9F
  8
RASGOS
 10
773640.4338384936563671
 20
1118711.6117581529542804
 30
998.6685010645811644
 70
    32
  0
VERTEX
  5
A0
  8
RASGOS
 10
773639.251603067968972
 20
1118713.1931910139974207
 30
998.7930000000000064
 70
    32
  0
VERTEX
  5
A1
  8
RASGOS
 10
773638.2728711820673198
 20
1118715.7318789910059422
 30
998.6739999999997508
 70
    32
  0
VERTEX
  5
A2
  8
RASGOS
 10
773638.5688524176366627
 20
1118718.1761368040461093
 30
998.6201113651036394
 70
    32
  0
VERTEX
  5
A3
  8
RASGOS
 10
773639.8053016676567495
 20
1118720.3490941969212145
 30
998.5879999999998518
 70
    32
  0
SEQEND
  5
A4
  8
RASGOS
  0
POLYLINE
  5
A5
  8
RASGOS
 66
     1
 10
0.0
 20
0.0
 30
0.0
 70
     9
  0
VERTEX
  5
AE
  8
RASGOS
 10
773645.8823264874517918
 20
1118755.9892463630530983
 30
997.5760000000001355
 70
    32
  0
VERTEX
  5
AF
  8
RASGOS
 10
773648.4293484974186867
 20
1118753.7568774460814893
 30
997.6000000000000227
 70
    32
  0
VERTEX
  5
B0
  8
RASGOS
 10
773648.1943583127576858
 20
1118749.8747491349931806
 30
997.7809999999999491
 70
    32
  0
VERTEX
  5
B1
  8
RASGOS
 10
773646.7657085118116811
 20
1118748.2374371790792793
 30
997.7569528354846398
 70
    32
  0
VERTEX
  5
B2
  8
RASGOS
 10
773644.7907348604639992
 20
1118747.1364912989083678
 30
997.7380000000000564
 70
    32
  0
VERTEX
  5
B3
  8
RASGOS
 10
773642.3571721053449437
 20
1118746.8434137660078704
 30
997.6231770433754491
 70
    32
  0
VERTEX
  5
B4
  8
RASGOS
 10
773639.9161410407396033
 20
1118747.3623536240775138
 30
997.5149999999996453
 70
    32
  0
VERTEX
  5
B5
  8
RASGOS
 10
773637.6576125875581056
 20
1118749.972186726052314
 30
997.5979999999999563
 70
    32
  0
VERTEX
  5
B6
  8
RASGOS
 10
773637.7920261919498444
 20
1118752.6664927660021931
 30
997.5319999999999254
 70
    32
  0
VERTEX
  5
B7
  8
RASGOS
 10
773638.6718625094508752
 20
1118755.110843091038987
 30
997.5649999999999409
 70
    32
  0
VERTEX
  5
B8
  8
RASGOS
 10
773640.0152669176459312
 20
1118756.2059802759904414
 30
997.5015377431883508
 70
    32
  0
VERTEX
  5
B9
  8
RASGOS
 10
773641.544098585145548
 20
1118756.7614322078879923
 30
997.4420000000000073
 70
    32
  0
VERTEX
  5
BA
  8
RASGOS
 10
773643.8005322887329385
 20
1118756.6919536630157381
 30
997.5123314917118478
 70
    32
  0
VERTEX
  5
BB
  8
RASGOS
 10
773645.8806668376782909
 20
1118756.1696946779266
 30
997.5760000000001355
 70
    32
  0
SEQEND
  5
BC
  8
RASGOS
  0
POLYLINE
  5
BD
  8
RASGOS
 66
     1
 10
0.0
 20
0.0
 30
0.0
 70
     9
  0
VERTEX
  5
C6
  8
RASGOS
 10
773665.6437761132838205
 20
1118747.5273461709730327
 30
998.5510000000000446
 70
    32
  0
VERTEX
  5
C7
  8
RASGOS
 10
773662.7987380415434018
 20
1118748.5021463059820235
 30
998.5029294580513124
 70
    32
  0
VERTEX
  5
C8
  8
RASGOS
 10
773661.6983396186260507
 20
1118750.2437174499500543
 30
998.4610199320883339
 70
    32
  0
VERTEX
  5
C9
  8
RASGOS
 10
773661.0402798636350781
 20
1118752.1846405239775777
 30
998.4239999999997508
 70
    32
  0
VERTEX
  5
CA
  8
RASGOS
 10
773661.2429494097596034
 20
1118754.4102239140775055
 30
998.3996212272846833
 70
    32
  0
VERTEX
  5
CB
  8
RASGOS
 10
773661.8003072695573792
 20
1118757.0054816429037601
 30
998.3830000000001519
 70
    32
  0
VERTEX
  5
CC
  8
RASGOS
 10
773663.9547176809282973
 20
1118758.8561015978921205
 30
998.433678320663148
 70
    32
  0
VERTEX
  5
CD
  8
RASGOS
 10
773665.7410669820383191
 20
1118760.1905345700215548
 30
998.4689999999998236
 70
    32
  0
VERTEX
  5
CE
  8
RASGOS
 10
773668.6116927230032161
 20
1118760.4003838000353426
 30
998.4464371950862187
 70
    32
  0
VERTEX
  5
CF
  8
RASGOS
 10
773670.7676786591764539
 20
1118760.0124081301037222
 30
998.4230000000000018
 70
    32
  0
VERTEX
  5
D0
  8
RASGOS
 10
773673.0475981453200802
 20
1118758.7729044749867171
 30
998.4505807628321463
 70
    32
  0
VERTEX
  5
D1
  8
RASGOS
 10
773674.5895951869897544
 20
1118757.0674069870728999
 30
998.4899999999998954
 70
    32
  0
VERTEX
  5
D2
  8
RASGOS
 10
773675.430551552795805
 20
1118753.6231592169497162
 30
998.5602893190355189
 70
    32
  0
VERTEX
  5
D3
  8
RASGOS
 10
773674.7044377401471138
 20
1118750.9472359190694988
 30
998.6280000000000427
 70
    32
  0
SEQEND
  5
D4
  8
RASGOS
  0
POLYLINE
  5
D5
  8
RASGOS
 66
     1
 10
0.0
 20
0.0
 30
0.0
 70
     9
  0
VERTEX
  5
DE
  8
RASGOS
 10
773667.9879501932300627
 20
1118775.0203264600131661
 30
998.2599999999996498
 70
    32
  0
VERTEX
  5
DF
  8
RASGOS
 10
773667.9942607190459967
 20
1118775.0510651909280568
 30
998.1870000000000118
 70
    32
  0
VERTEX
  5
E0
  8
RASGOS
 10
773670.1906276843510568
 20
1118773.5809596620965749
 30
998.2045265342783296
 70
    32
  0
VERTEX
  5
E1
  8
RASGOS
 10
773671.3756805704906583
 20
1118771.6943454321008176
 30
998.2214384742460425
 70
    32
  0
VERTEX
  5
E2
  8
RASGOS
 10
773671.7440718868747354
 20
1118769.581413788953796
 30
998.242366096977662
 70
    32
  0
VERTEX
  5
E3
  8
RASGOS
 10
773671.2632896470604464
 20
1118768.0442468130495399
 30
998.2649999999996453
 70
    32
  0
VERTEX
  5
E4
  8
RASGOS
 10
773670.6955970871495083
 20
1118766.2874743400607258
 30
998.3060246045695294
 70
    32
  0
VERTEX
  5
E5
  8
RASGOS
 10
773669.3927837962983176
 20
1118765.1077910400927067
 30
998.3579999999999472
 70
    32
  0
VERTEX
  5
E6
  8
RASGOS
 10
773666.7764183001127094
 20
1118763.9160264700185508
 30
998.3800000000002228
 70
    32
  0
VERTEX
  5
E7
  8
RASGOS
 10
773663.2655582828447223
 20
1118764.7595111320260912
 30
998.29767238643376
 70
    32
  0
VERTEX
  5
E8
  8
RASGOS
 10
773661.3520967583172023
 20
1118766.4934632189106196
 30
998.2896001373911758
 70
    32
  0
VERTEX
  5
E9
  8
RASGOS
 10
773660.6008676448836923
 20
1118768.8219551690854132
 30
998.2835473687832746
 70
    32
  0
VERTEX
  5
EA
  8
RASGOS
 10
773660.4334394383477047
 20
1118771.1558165880851448
 30
998.2788390295662566
 70
    32
  0
VERTEX
  5
EB
  8
RASGOS
 10
773661.8701214238535613
 20
1118773.6503943889401853
 30
998.2734556393046432
 70
    32
  0
VERTEX
  5
EC
  8
RASGOS
 10
773663.6134700319962576
 20
1118774.542204363970086
 30
998.2671759627825168
 70
    32
  0
VERTEX
  5
ED
  8
RASGOS
 10
773665.5573782183928415
 20
1118775.1188837389927357
 30
998.2636737277490511
 70
    32
  0
SEQEND
  5
EE
  8
RASGOS
  0
POLYLINE
  5
EF
  8
RASGOS
 66
     1
 10
0.0
 20
0.0
 30
0.0
 70
     9
  0
VERTEX
  5
F8
  8
RASGOS
 10
773688.1920567475026473
 20
1118778.0370885129086673
 30
998.625
 70
    32
  0
VERTEX
  5
F9
  8
RASGOS
 10
773685.0664387763245031
 20
1118776.8843900770880282
 30
998.7149999999999181
 70
    32
  0
VERTEX
  5
FA
  8
RASGOS
 10
773681.7357830428518355
 20
1118777.4426833430770785
 30
998.5139999999998963
 70
    32
  0
VERTEX
  5
FB
  8
RASGOS
 10
773680.1532540367916226
 20
1118778.7087374390102923
 30
998.5385716635537392
 70
    32
  0
VERTEX
  5
FC
  8
RASGOS
 10
773678.980463607236743
 20
1118780.3894360479898751
 30
998.5629999999999882
 70
    32
  0
VERTEX
  5
FD
  8
RASGOS
 10
773678.6937595823546872
 20
1118782.5234122020192444
 30
998.5333423473905441
 70
    32
  0
VERTEX
  5
FE
  8
RASGOS
 10
773678.8973592303227633
 20
1118784.2378908330574632
 30
998.5019999999999527
 70
    32
  0
VERTEX
  5
FF
  8
RASGOS
 10
773679.6434827374760062
 20
1118785.7370670710224658
 30
998.4981075837763456
 70
    32
  0
VERTEX
  5
100
  8
RASGOS
 10
773680.9672904690960422
 20
1118786.9956006070133299
 30
998.4949999999998909
 70
    32
  0
VERTEX
  5
101
  8
RASGOS
 10
773682.6488077858230099
 20
1118788.0793731450103223
 30
998.5108625826823072
 70
    32
  0
VERTEX
  5
102
  8
RASGOS
 10
773683.9816218235064298
 20
1118788.3587085129693151
 30
998.5198072224529824
 70
    32
  0
VERTEX
  5
103
  8
RASGOS
 10
773685.2286928687244654
 20
1118788.2811530469916761
 30
998.5291481437330958
 70
    32
  0
VERTEX
  5
104
  8
RASGOS
 10
773686.8342922780429944
 20
1118787.9398185280151665
 30
998.5407818366001038
 70
    32
  0
VERTEX
  5
105
  8
RASGOS
 10
773688.3525111901108176
 20
1118787.4196291980333626
 30
998.5515323878205436
 70
    32
  0
VERTEX
  5
106
  8
RASGOS
 10
773689.4313712641596794
 20
1118786.2722199230920523
 30
998.5613148799242254
 70
    32
  0
VERTEX
  5
107
  8
RASGOS
 10
773690.5282438589492813
 20
1118783.1664140720386058
 30
998.5735203503971888
 70
    32
  0
VERTEX
  5
108
  8
RASGOS
 10
773690.2873897580429912
 20
1118780.3153810219373554
 30
998.5765603956862151
 70
    32
  0
VERTEX
  5
109
  8
RASGOS
 10
773688.1722446070052683
 20
1118777.9812624570913613
 30
998.5900000000000318
 70
    32
  0
SEQEND
  5
10A
  8
RASGOS
  0
POLYLINE
  5
10B
  8
RASGOS
 66
     1
 10
0.0
 20
0.0
 30
0.0
 70
     9
  0
VERTEX
  5
114
  8
RASGOS
 10
773684.377812264370732
 20
1118797.7679473210591823
 30
998.2079999999998563
 70
    32
  0
VERTEX
  5
115
  8
RASGOS
 10
773686.3550761432852596
 20
1118799.8138668069150299
 30
998.2153283374215107
 70
    32
  0
VERTEX
  5
116
  8
RASGOS
 10
773688.3302323436364532
 20
1118800.9149155579507351
 30
998.2229999999999563
 70
    32
  0
VERTEX
  5
117
  8
RASGOS
 10
773690.6754479287192225
 20
1118801.0267263539135456
 30
998.379930284984539
 70
    32
  0
VERTEX
  5
118
  8
RASGOS
 10
773692.9345807004719973
 20
1118800.6865446090232581
 30
998.4832042088464732
 70
    32
  0
VERTEX
  5
119
  8
RASGOS
 10
773694.8394228826509789
 20
1118799.6211829290259629
 30
998.5594194608463567
 70
    32
  0
VERTEX
  5
11A
  8
RASGOS
 10
773695.9610209425445646
 20
1118798.0324943829327822
 30
998.6230000000000473
 70
    32
  0
VERTEX
  5
11B
  8
RASGOS
 10
773696.7289855751441792
 20
1118796.2211776711046696
 30
998.5812046973339875
 70
    32
  0
VERTEX
  5
11C
  8
RASGOS
 10
773696.6826833436498418
 20
1118794.4726037180516869
 30
998.5280000000001337
 70
    32
  0
VERTEX
  5
11D
  8
RASGOS
 10
773696.3174645217368379
 20
1118792.5673446720466018
 30
998.5290000000002237
 70
    32
  0
VERTEX
  5
11E
  8
RASGOS
 10
773695.001347750891
 20
1118790.7973900840152055
 30
998.5290000000002237
 70
    32
  0
VERTEX
  5
11F
  8
RASGOS
 10
773693.3203267748467624
 20
1118789.3348579560406506
 30
998.5149999999999864
 70
    32
  0
VERTEX
  5
120
  8
RASGOS
 10
773689.9322752695297822
 20
1118788.7502592890523374
 30
998.5109999999999673
 70
    32
  0
VERTEX
  5
121
  8
RASGOS
 10
773686.4199740698095411
 20
1118789.9736397101078182
 30
998.4579999999997426
 70
    32
  0
VERTEX
  5
122
  8
RASGOS
 10
773685.0228191569913179
 20
1118791.3061282590497285
 30
998.2956832092451123
 70
    32
  0
VERTEX
  5
123
  8
RASGOS
 10
773684.293481097673066
 20
1118793.1689566420391202
 30
998.1849999999999454
 70
    32
  0
VERTEX
  5
124
  8
RASGOS
 10
773684.1129015167243779
 20
1118795.7586015008855611
 30
998.1972997744253462
 70
    32
  0
SEQEND
  5
125
  8
RASGOS
  0
POLYLINE
  5
126
  8
RASGOS
 66
     1
 10
0.0
 20
0.0
 30
0.0
 70
     9
  0
VERTEX
  5
12F
  8
RASGOS
 10
773748.4782203402137384
 20
1118795.6927675870247185
 30
999.8569999999997435
 70
    32
  0
VERTEX
  5
130
  8
RASGOS
 10
773748.2977552143856883
 20
1118795.6911077259574085
 30
999.9360000000001492
 70
    32
  0
VERTEX
  5
131
  8
RASGOS
 10
773747.640399407595396
 20
1118798.4825076540000737
 30
1000.1020470027179954
 70
    32
  0
VERTEX
  5
132
  8
RASGOS
 10
773748.1477675077039748
 20
1118802.1870223260484636
 30
1000.2493777247840399
 70
    32
  0
VERTEX
  5
133
  8
RASGOS
 10
773750.1054960171459243
 20
1118805.1829555169679224
 30
1000.4610000000000127
 70
    32
  0
VERTEX
  5
134
  8
RASGOS
 10
773754.5913962299237028
 20
1118808.0216619709972292
 30
1000.3419999999999845
 70
    32
  0
VERTEX
  5
135
  8
RASGOS
 10
773758.6468822004972026
 20
1118808.6004046620801091
 30
1000.3364676301680447
 70
    32
  0
VERTEX
  5
136
  8
RASGOS
 10
773761.9954466278431937
 20
1118807.5483215560670942
 30
1000.3319999999999936
 70
    32
  0
VERTEX
  5
137
  8
RASGOS
 10
773765.0484220150392503
 20
1118805.1302159980405122
 30
1000.1240000000000236
 70
    32
  0
VERTEX
  5
138
  8
RASGOS
 10
773766.8259094421518967
 20
1118802.3588188819121569
 30
999.5929999999998472
 70
    32
  0
VERTEX
  5
139
  8
RASGOS
 10
773767.5743279478047043
 20
1118799.4780158940702677
 30
999.70527143182494
 70
    32
  0
VERTEX
  5
13A
  8
RASGOS
 10
773766.8898142538964748
 20
1118795.4109104808885604
 30
999.8559999999998809
 70
    32
  0
VERTEX
  5
13B
  8
RASGOS
 10
773763.9285911474144086
 20
1118791.9784795579034835
 30
999.9500000000000455
 70
    32
  0
VERTEX
  5
13C
  8
RASGOS
 10
773760.9826001664623618
 20
1118790.122645904077217
 30
999.8866055724352009
 70
    32
  0
VERTEX
  5
13D
  8
RASGOS
 10
773756.745818967348896
 20
1118789.6324765291064978
 30
999.7949999999998454
 70
    32
  0
VERTEX
  5
13E
  8
RASGOS
 10
773752.0396167086437345
 20
1118791.1232740089762956
 30
999.8619999999999663
 70
    32
  0
VERTEX
  5
13F
  8
RASGOS
 10
773749.8418933423236012
 20
1118792.9808319041039795
 30
999.8586437749222569
 70
    32
  0
SEQEND
  5
140
  8
RASGOS
  0
POLYLINE
  5
141
  8
RASGOS
 66
     1
 10
0.0
 20
0.0
 30
0.0
 70
     9
  0
VERTEX
  5
14A
  8
RASGOS
 10
773758.8025372078409418
 20
1118772.0545536740683019
 30
1000.0979999999999563
 70
    32
  0
VERTEX
  5
14B
  8
RASGOS
 10
773757.2926509570097551
 20
1118769.4237006308976561
 30
1000.1839526441240196
 70
    32
  0
VERTEX
  5
14C
  8
RASGOS
 10
773754.6966542132431641
 20
1118767.1438190171029419
 30
1000.2740000000000009
 70
    32
  0
VERTEX
  5
14D
  8
RASGOS
 10
773751.2935438356362283
 20
1118764.3150729399640113
 30
1000.0309999999999491
 70
    32
  0
VERTEX
  5
14E
  8
RASGOS
 10
773746.5319656195351854
 20
1118762.0152738150209188
 30
999.8829999999999245
 70
    32
  0
VERTEX
  5
14F
  8
RASGOS
 10
773741.6798965489724651
 20
1118761.1563899780157954
 30
999.6710000000000491
 70
    32
  0
VERTEX
  5
150
  8
RASGOS
 10
773736.9656546182231978
 20
1118762.1077689530793577
 30
999.629719716777231
 70
    32
  0
VERTEX
  5
151
  8
RASGOS
 10
773732.6137444026535377
 20
1118764.3237472849432379
 30
999.5810000000000173
 70
    32
  0
VERTEX
  5
152
  8
RASGOS
 10
773729.4265583482338116
 20
1118767.4528397659305483
 30
999.5965023245505563
 70
    32
  0
VERTEX
  5
153
  8
RASGOS
 10
773726.9521036416990682
 20
1118771.5811294000595808
 30
999.6109999999997626
 70
    32
  0
VERTEX
  5
154
  8
RASGOS
 10
773726.2822997737675905
 20
1118775.72601717710495
 30
999.1430000000001428
 70
    32
  0
VERTEX
  5
155
  8
RASGOS
 10
773728.2271149886073545
 20
1118781.1911007240414619
 30
999.1179999999999382
 70
    32
  0
VERTEX
  5
156
  8
RASGOS
 10
773732.2192687755450606
 20
1118786.7520439100917429
 30
999.1900000000000546
 70
    32
  0
VERTEX
  5
157
  8
RASGOS
 10
773736.3540899308864027
 20
1118789.3546807789243758
 30
999.4270000000000209
 70
    32
  0
VERTEX
  5
158
  8
RASGOS
 10
773740.4644121767487377
 20
1118790.640751593047753
 30
999.4769999999999754
 70
    32
  0
VERTEX
  5
159
  8
RASGOS
 10
773743.8350929082371294
 20
1118790.3258901929948479
 30
999.6532606063050252
 70
    32
  0
VERTEX
  5
15A
  8
RASGOS
 10
773747.3649518253514543
 20
1118789.1852340060286224
 30
999.7960000000000491
 70
    32
  0
VERTEX
  5
15B
  8
RASGOS
 10
773750.9986158928368241
 20
1118787.6958242189139128
 30
999.8139999999998508
 70
    32
  0
VERTEX
  5
15C
  8
RASGOS
 10
773755.2550213489448652
 20
1118784.9262742479331791
 30
999.8020000000000209
 70
    32
  0
VERTEX
  5
15D
  8
RASGOS
 10
773757.728647152078338
 20
1118780.8882164999376982
 30
999.9839999999998099
 70
    32
  0
VERTEX
  5
15E
  8
RASGOS
 10
773758.7610414809314534
 20
1118776.5661822149995714
 30
1000.0141818453439555
 70
    32
  0
SEQEND
  5
15F
  8
RASGOS
  0
POLYLINE
  5
160
  8
RASGOS
 66
     1
 10
0.0
 20
0.0
 30
0.0
 70
     9
  0
VERTEX
  5
169
  8
RASGOS
 10
773732.8476475781062618
 20
1118758.8209306260105222
 30
999.5770000000002256
 70
    32
  0
VERTEX
  5
16A
  8
RASGOS
 10
773732.2550955474143848
 20
1118756.2571998878847808
 30
999.5002459834227011
 70
    32
  0
VERTEX
  5
16B
  8
RASGOS
 10
773731.0671936280559748
 20
1118754.4701025520917028
 30
999.3680000000000518
 70
    32
  0
VERTEX
  5
16C
  8
RASGOS
 10
773730.0036053905496374
 20
1118753.5220290489960462
 30
999.3401552722825727
 70
    32
  0
VERTEX
  5
16D
  8
RASGOS
 10
773728.3936134743271396
 20
1118752.9717988769989461
 30
999.313717158616214
 70
    32
  0
VERTEX
  5
16E
  8
RASGOS
 10
773726.4210603071842343
 20
1118752.7010092730633914
 30
999.2630000000000337
 70
    32
  0
VERTEX
  5
16F
  8
RASGOS
 10
773724.4932196065783501
 20
1118752.8584049290511757
 30
999.2161064563603077
 70
    32
  0
VERTEX
  5
170
  8
RASGOS
 10
773722.5597419693367556
 20
1118753.628691972931847
 30
999.1639999999999873
 70
    32
  0
VERTEX
  5
171
  8
RASGOS
 10
773721.4994076333241537
 20
1118754.6696995489764959
 30
999.155236895559824
 70
    32
  0
VERTEX
  5
172
  8
RASGOS
 10
773720.7369219297543168
 20
1118756.022183327935636
 30
999.1427939503947755
 70
    32
  0
VERTEX
  5
173
  8
RASGOS
 10
773720.4481760220369324
 20
1118759.1403332049958408
 30
999.125
 70
    32
  0
VERTEX
  5
174
  8
RASGOS
 10
773720.9177022667136043
 20
1118760.7937817079946399
 30
999.1078364855908376
 70
    32
  0
VERTEX
  5
175
  8
RASGOS
 10
773721.8039908140199259
 20
1118762.5336758980993181
 30
999.0879999999999654
 70
    32
  0
VERTEX
  5
176
  8
RASGOS
 10
773723.4389846411067992
 20
1118763.8490492959972471
 30
999.1391437111345795
 70
    32
  0
VERTEX
  5
177
  8
RASGOS
 10
773725.6510833683423698
 20
1118764.2444655760191381
 30
999.1839999999998554
 70
    32
  0
VERTEX
  5
178
  8
RASGOS
 10
773727.7722731354879215
 20
1118763.9755934220738709
 30
999.2485779729436217
 70
    32
  0
VERTEX
  5
179
  8
RASGOS
 10
773729.6810551054077223
 20
1118763.1833615389186889
 30
999.3279999999999745
 70
    32
  0
VERTEX
  5
17A
  8
RASGOS
 10
773731.6093888910254464
 20
1118761.4969024939928204
 30
999.4578518301024133
 70
    32
  0
VERTEX
  5
17B
  8
RASGOS
 10
773732.3947748665232211
 20
1118760.1112709499429911
 30
999.51585742202235
 70
    32
  0
SEQEND
  5
17C
  8
RASGOS
  0
POLYLINE
  5
17D
  8
RASGOS
 66
     1
 10
0.0
 20
0.0
 30
0.0
 70
     9
  0
VERTEX
  5
186
  8
RASGOS
 10
773717.5545545503264293
 20
1118781.5661813020706177
 30
999.2770000000000437
 70
    32
  0
VERTEX
  5
187
  8
RASGOS
 10
773717.5561490714317188
 20
1118781.3928178839851171
 30
998.9119999999999209
 70
    32
  0
VERTEX
  5
188
  8
RASGOS
 10
773717.7406741299200803
 20
1118780.1808684770949185
 30
998.9130131708193403
 70
    32
  0
VERTEX
  5
189
  8
RASGOS
 10
773717.8393147273454815
 20
1118778.8814400960691273
 30
998.9142607196287145
 70
    32
  0
VERTEX
  5
18A
  8
RASGOS
 10
773717.8520708576543257
 20
1118777.4945327478926629
 30
998.9152796471006468
 70
    32
  0
VERTEX
  5
18B
  8
RASGOS
 10
773717.5244781910441816
 20
1118775.4109826979693025
 30
998.9168832859795657
 70
    32
  0
VERTEX
  5
18C
  8
RASGOS
 10
773716.759490669821389
 20
1118773.756854928098619
 30
998.9184087988611509
 70
    32
  0
VERTEX
  5
18D
  8
RASGOS
 10
773715.8640521895140409
 20
1118772.5296145570464432
 30
998.92006180718829
 70
    32
  0
VERTEX
  5
18E
  8
RASGOS
 10
773714.5119149277452379
 20
1118771.8518537399359047
 30
998.9277366476319457
 70
    32
  0
VERTEX
  5
18F
  8
RASGOS
 10
773713.2270665368996561
 20
1118771.3837614071089774
 30
998.9360000000001492
 70
    32
  0
VERTEX
  5
190
  8
RASGOS
 10
773711.6707821012241766
 20
1118770.9360023210756481
 30
999.0870274328511869
 70
    32
  0
VERTEX
  5
191
  8
RASGOS
 10
773709.9355535082286224
 20
1118771.0934206659439951
 30
999.1910237462274154
 70
    32
  0
VERTEX
  5
192
  8
RASGOS
 10
773708.5605715453857556
 20
1118771.5768229740206152
 30
999.3255537156276205
 70
    32
  0
VERTEX
  5
193
  8
RASGOS
 10
773707.4114198283059523
 20
1118772.1971624488942325
 30
999.4489999999998417
 70
    32
  0
VERTEX
  5
194
  8
RASGOS
 10
773706.1056014631176367
 20
1118773.1958863970357925
 30
999.2851073325381321
 70
    32
  0
VERTEX
  5
195
  8
RASGOS
 10
773705.290387274697423
 20
1118774.3628561371006072
 30
999.1554386155916063
 70
    32
  0
VERTEX
  5
196
  8
RASGOS
 10
773704.5206280030542985
 20
1118775.4647576680872589
 30
999.0330000000000155
 70
    32
  0
VERTEX
  5
197
  8
RASGOS
 10
773704.0688825929537416
 20
1118777.4544504769146442
 30
999.1171304476659998
 70
    32
  0
VERTEX
  5
198
  8
RASGOS
 10
773704.1396191283129156
 20
1118779.1888817280996591
 30
999.193086569814227
 70
    32
  0
VERTEX
  5
199
  8
RASGOS
 10
773704.8998229352291673
 20
1118781.3630995620042086
 30
999.2011750092341344
 70
    32
  0
VERTEX
  5
19A
  8
RASGOS
 10
773706.1880895324284211
 20
1118782.675283984048292
 30
999.2132874957021613
 70
    32
  0
VERTEX
  5
19B
  8
RASGOS
 10
773708.6898999609984457
 20
1118783.9986301059834659
 30
999.2216655943743717
 70
    32
  0
VERTEX
  5
19C
  8
RASGOS
 10
773710.7638827457558364
 20
1118784.711218036012724
 30
999.2285580485838636
 70
    32
  0
VERTEX
  5
19D
  8
RASGOS
 10
773713.2792467214167118
 20
1118784.5609752449672669
 30
999.2396395521307113
 70
    32
  0
VERTEX
  5
19E
  8
RASGOS
 10
773715.1075351855251938
 20
1118783.710900689009577
 30
999.2513704891625821
 70
    32
  0
VERTEX
  5
19F
  8
RASGOS
 10
773716.5032123915152624
 20
1118782.7701580920256674
 30
999.2614615630670869
 70
    32
  0
SEQEND
  5
1A0
  8
RASGOS
  0
POLYLINE
  5
1A1
  8
RASGOS
 66
     1
 10
0.0
 20
0.0
 30
0.0
 70
     9
  0
VERTEX
  5
1AA
  8
RASGOS
 10
773633.2018756684847176
 20
1118689.9960407000035048
 30
997.9890000000001464
 70
    32
  0
VERTEX
  5
1AB
  8
RASGOS
 10
773631.0594569490058348
 20
1118692.0994116170331836
 30
997.9910957887295808
 70
    32
  0
VERTEX
  5
1AC
  8
RASGOS
 10
773630.1878465018235147
 20
1118694.5329310500528663
 30
997.9910957887295808
 70
    32
  0
VERTEX
  5
1AD
  8
RASGOS
 10
773630.4799233376979828
 20
1118697.401767608942464
 30
997.9929741284477132
 70
    32
  0
VERTEX
  5
1AE
  8
RASGOS
 10
773631.6299438519636169
 20
1118699.3231111420318484
 30
997.9949250861219525
 70
    32
  0
VERTEX
  5
1AF
  8
RASGOS
 10
773633.1003509785514325
 20
1118701.0350938399787992
 30
997.9969999999998436
 70
    32
  0
VERTEX
  5
1B0
  8
RASGOS
 10
773635.0050991197349504
 20
1118701.6895339670591056
 30
998.0143507166950485
 70
    32
  0
VERTEX
  5
1B1
  8
RASGOS
 10
773637.6027102658990771
 20
1118701.8152090490330011
 30
998.0419999999998026
 70
    32
  0
VERTEX
  5
1B2
  8
RASGOS
 10
773640.5373165428172797
 20
1118700.3604148649610579
 30
998.0499999999999545
 70
    32
  0
VERTEX
  5
1B3
  8
RASGOS
 10
773641.7224804202560335
 20
1118698.4605476181022823
 30
998.1148142131996792
 70
    32
  0
VERTEX
  5
1B4
  8
RASGOS
 10
773642.3818015272263438
 20
1118696.0250755839515477
 30
998.1870000000000118
 70
    32
  0
VERTEX
  5
1B5
  8
RASGOS
 10
773642.1880598006537184
 20
1118694.0063729439862072
 30
998.1983342178066323
 70
    32
  0
VERTEX
  5
1B6
  8
RASGOS
 10
773641.2754879738204181
 20
1118691.6133065361063927
 30
998.2129999999997381
 70
    32
  0
VERTEX
  5
1B7
  8
RASGOS
 10
773637.5567387407645583
 20
1118689.7176304259337485
 30
998.1828398098738262
 70
    32
  0
VERTEX
  5
1B8
  8
RASGOS
 10
773635.4367724290350452
 20
1118689.3796723170671612
 30
998.1761031201209562
 70
    32
  0
VERTEX
  5
1B9
  8
RASGOS
 10
773633.3099727989174426
 20
1118689.7847274111118168
 30
998.1699999999999591
 70
    32
  0
SEQEND
  5
1BA
  8
RASGOS
  0
POLYLINE
  5
1BB
  8
RASGOS
 66
     1
 10
0.0
 20
0.0
 30
0.0
 70
     9
  0
VERTEX
  5
1C4
  8
RASGOS
 10
773637.5055200062924996
 20
1118672.201795028988272
 30
998.4189999999997553
 70
    32
  0
VERTEX
  5
1C5
  8
RASGOS
 10
773637.6116647537564859
 20
1118672.2027712070848793
 30
998.1780000000002246
 70
    32
  0
VERTEX
  5
1C6
  8
RASGOS
 10
773636.7420070155058056
 20
1118674.4240014220122248
 30
998.1793327845516615
 70
    32
  0
VERTEX
  5
1C7
  8
RASGOS
 10
773637.0379890673793852
 20
1118676.8682591039687395
 30
998.1808936317927419
 70
    32
  0
VERTEX
  5
1C8
  8
RASGOS
 10
773637.9747442865045741
 20
1118678.8937949249520898
 30
998.1822018563584606
 70
    32
  0
VERTEX
  5
1C9
  8
RASGOS
 10
773640.8211287504527718
 20
1118681.0430468779522926
 30
998.1834746178285513
 70
    32
  0
VERTEX
  5
1CA
  8
RASGOS
 10
773643.7912293678382412
 20
1118681.2826696028932929
 30
998.1845663520583685
 70
    32
  0
VERTEX
  5
1CB
  8
RASGOS
 10
773647.0934309287695214
 20
1118680.0391943450085819
 30
998.2044992614471539
 70
    32
  0
VERTEX
  5
1CC
  8
RASGOS
 10
773648.3866916784318164
 20
1118677.928013474913314
 30
998.2469999999998436
 70
    32
  0
VERTEX
  5
1CD
  8
RASGOS
 10
773648.4208580579143018
 20
1118674.2129470489453524
 30
998.31899999999996
 70
    32
  0
VERTEX
  5
1CE
  8
RASGOS
 10
773647.483126500970684
 20
1118672.2935558459721506
 30
998.3296592449175932
 70
    32
  0
VERTEX
  5
1CF
  8
RASGOS
 10
773645.3768264632672071
 20
1118670.469571476103738
 30
998.3410000000001219
 70
    32
  0
VERTEX
  5
1D0
  8
RASGOS
 10
773642.7300409198505804
 20
1118669.702153790043667
 30
998.3500000000001364
 70
    32
  0
VERTEX
  5
1D1
  8
RASGOS
 10
773639.3275519027374685
 20
1118670.3077846190426499
 30
998.3881625533997521
 70
    32
  0
SEQEND
  5
1D2
  8
RASGOS
  0
POLYLINE
  5
1D3
  8
RASGOS
 66
     1
 10
0.0
 20
0.0
 30
0.0
 70
     9
  0
VERTEX
  5
1DC
  8
RASGOS
 10
773653.7133181265089661
 20
1118686.5521040700841695
 30
998.5660000000001446
 70
    32
  0
VERTEX
  5
1DD
  8
RASGOS
 10
773653.8857991152908653
 20
1118688.3875058169942349
 30
998.5950000000000273
 70
    32
  0
VERTEX
  5
1DE
  8
RASGOS
 10
773656.5213414685567841
 20
1118691.7259709460195154
 30
998.7260000000002265
 70
    32
  0
VERTEX
  5
1DF
  8
RASGOS
 10
773658.3168878103606403
 20
1118692.1788763129152358
 30
998.7527029661096094
 70
    32
  0
VERTEX
  5
1E0
  8
RASGOS
 10
773660.9301489844219759
 20
1118691.7997397999279201
 30
998.7624705227739241
 70
    32
  0
VERTEX
  5
1E1
  8
RASGOS
 10
773662.9801273744087666
 20
1118690.4082370419055223
 30
998.7674608948071864
 70
    32
  0
VERTEX
  5
1E2
  8
RASGOS
 10
773664.0957122110994533
 20
1118688.3813158669508994
 30
998.773348131333023
 70
    32
  0
VERTEX
  5
1E3
  8
RASGOS
 10
773664.5845251077553257
 20
1118686.3486303649842739
 30
998.7743507559528098
 70
    32
  0
VERTEX
  5
1E4
  8
RASGOS
 10
773664.1375033061485738
 20
1118683.8372194939292967
 30
998.7753901179629565
 70
    32
  0
VERTEX
  5
1E5
  8
RASGOS
 10
773662.9026933676796034
 20
1118681.7886822400614619
 30
998.7753901179629565
 70
    32
  0
VERTEX
  5
1E6
  8
RASGOS
 10
773660.408575356239453
 20
1118680.3553884089924395
 30
998.7769491609776651
 70
    32
  0
VERTEX
  5
1E7
  8
RASGOS
 10
773657.7404716365272179
 20
1118680.8009692179039121
 30
998.7790653144295447
 70
    32
  0
VERTEX
  5
1E8
  8
RASGOS
 10
773655.378548574517481
 20
1118682.032896975055337
 30
998.7790653144295447
 70
    32
  0
VERTEX
  5
1E9
  8
RASGOS
 10
773654.2629639214137569
 20
1118684.0598180640954524
 30
998.7828888560642326
 70
    32
  0
VERTEX
  5
1EA
  8
RASGOS
 10
773653.9279619241133332
 20
1118686.4073304058983922
 30
998.7849999999998545
 70
    32
  0
SEQEND
  5
1EB
  8
RASGOS
  0
POLYLINE
  5
1EC
  8
RASGOS
 66
     1
 10
0.0
 20
0.0
 30
0.0
 70
     9
  0
VERTEX
  5
1F5
  8
RASGOS
 10
773676.5801605540327728
 20
1118673.9734516530297697
 30
999.0039999999997917
 70
    32
  0
VERTEX
  5
1F6
  8
RASGOS
 10
773676.0200916399480775
 20
1118671.3824697840027511
 30
998.9845691227055795
 70
    32
  0
VERTEX
  5
1F7
  8
RASGOS
 10
773674.3703641690080985
 20
1118669.3653640700504184
 30
998.9778928012301549
 70
    32
  0
VERTEX
  5
1F8
  8
RASGOS
 10
773672.8561027712421492
 20
1118668.0927485169377178
 30
998.9679062366584503
 70
    32
  0
VERTEX
  5
1F9
  8
RASGOS
 10
773670.8590736710466444
 20
1118667.3108702749013901
 30
998.9583552599129916
 70
    32
  0
VERTEX
  5
1FA
  8
RASGOS
 10
773667.9961447943933308
 20
1118667.2845409619621933
 30
998.8929999999999154
 70
    32
  0
VERTEX
  5
1FB
  8
RASGOS
 10
773665.2572641355218366
 20
1118668.0710475880187005
 30
998.8289999999999509
 70
    32
  0
VERTEX
  5
1FC
  8
RASGOS
 10
773662.7578236723784357
 20
1118671.4823461358901113
 30
998.9489999999999554
 70
    32
  0
VERTEX
  5
1FD
  8
RASGOS
 10
773662.0721134347841144
 20
1118675.1950877918861806
 30
998.8769999999999527
 70
    32
  0
VERTEX
  5
1FE
  8
RASGOS
 10
773663.3550874738721177
 20
1118678.9400725059676915
 30
998.7029999999999745
 70
    32
  0
VERTEX
  5
1FF
  8
RASGOS
 10
773666.0868024026276544
 20
1118681.2173706348985434
 30
998.6239999999997963
 70
    32
  0
VERTEX
  5
200
  8
RASGOS
 10
773668.8323246623622254
 20
1118681.9933456259313971
 30
998.7119999999999891
 70
    32
  0
VERTEX
  5
201
  8
RASGOS
 10
773671.0873778314562514
 20
1118681.6804291869048029
 30
998.8147337616189816
 70
    32
  0
VERTEX
  5
202
  8
RASGOS
 10
773673.1802197725046426
 20
1118680.8655374948866665
 30
998.8669228674493752
 70
    32
  0
VERTEX
  5
203
  8
RASGOS
 10
773675.0320460398215801
 20
1118679.0474623520858586
 30
998.9107952066833604
 70
    32
  0
VERTEX
  5
204
  8
RASGOS
 10
773675.970999350422062
 20
1118676.7205082839354873
 30
998.9492577161778399
 70
    32
  0
VERTEX
  5
205
  8
RASGOS
 10
773676.4967537020565942
 20
1118673.9726845850236714
 30
998.9919999999997344
 70
    32
  0
SEQEND
  5
206
  8
RASGOS
  0
POLYLINE
  5
207
  8
RASGOS
 66
     1
 10
0.0
 20
0.0
 30
0.0
 70
     9
  0
VERTEX
  5
210
  8
RASGOS
 10
773667.4397840696619824
 20
1118739.4004123609047383
 30
999.8669999999999618
 70
    32
  0
VERTEX
  5
211
  8
RASGOS
 10
773667.3202336253598332
 20
1118739.4994131159037352
 30
999.8669999999999618
 70
    32
  0
VERTEX
  5
212
  8
RASGOS
 10
773666.0953580744098872
 20
1118742.7451869389042258
 30
999.8590000000000373
 70
    32
  0
VERTEX
  5
213
  8
RASGOS
 10
773665.777657033642754
 20
1118745.3702553920447826
 30
1000.3830000000000382
 70
    32
  0
VERTEX
  5
214
  8
RASGOS
 10
773666.4679878201568499
 20
1118747.0099977010395378
 30
1000.3983408970970004
 70
    32
  0
VERTEX
  5
215
  8
RASGOS
 10
773667.3826369369635358
 20
1118748.9709822139702737
 30
1000.41700000000003
 70
    32
  0
VERTEX
  5
216
  8
RASGOS
 10
773671.1320330823073164
 20
1118750.8121058370452374
 30
1000.4439150705020438
 70
    32
  0
VERTEX
  5
217
  8
RASGOS
 10
773673.9028424825519323
 20
1118750.8449372730683535
 30
1000.4600000000000364
 70
    32
  0
VERTEX
  5
218
  8
RASGOS
 10
773676.3134763083653525
 20
1118749.4500567980576307
 30
1000.5916370935000259
 70
    32
  0
VERTEX
  5
219
  8
RASGOS
 10
773677.7270807926543057
 20
1118747.6689327179919928
 30
1000.7229999999999563
 70
    32
  0
VERTEX
  5
21A
  8
RASGOS
 10
773678.5522598491515964
 20
1118744.4583651579450816
 30
1000.6515783744359851
 70
    32
  0
VERTEX
  5
21B
  8
RASGOS
 10
773678.0793867384782061
 20
1118741.1038557980209589
 30
1000.5520000000000209
 70
    32
  0
VERTEX
  5
21C
  8
RASGOS
 10
773676.7174677437869832
 20
1118739.5858415779657662
 30
1000.082995665703038
 70
    32
  0
VERTEX
  5
21D
  8
RASGOS
 10
773675.0345664194319397
 20
1118738.8864128619898111
 30
999.6662942873656448
 70
    32
  0
VERTEX
  5
21E
  8
RASGOS
 10
773672.5601237954106182
 20
1118738.1338418868836015
 30
999.0000000000012506
 70
    32
  0
VERTEX
  5
21F
  8
RASGOS
 10
773669.7843843754380941
 20
1118738.4002380119636655
 30
999.4372815226013245
 70
    32
  0
SEQEND
  5
220
  8
RASGOS
  0
POLYLINE
  5
221
  8
RASGOS
 66
     1
 10
0.0
 20
0.0
 30
0.0
 70
     9
  0
VERTEX
  5
22A
  8
RASGOS
 10
773702.1725402078591287
 20
1118689.3069834280759096
 30
1000.0049999999999955
 70
    32
  0
VERTEX
  5
22B
  8
RASGOS
 10
773699.3009065969381481
 20
1118680.7447131550870836
 30
1000.0610000000000355
 70
    32
  0
VERTEX
  5
22C
  8
RASGOS
 10
773698.2748683295212686
 20
1118682.4800339969806373
 30
999.7190000000000509
 70
    32
  0
VERTEX
  5
22D
  8
RASGOS
 10
773698.0864390054484829
 20
1118684.744327788008377
 30
999.6830000000002201
 70
    32
  0
VERTEX
  5
22E
  8
RASGOS
 10
773699.4305743162985891
 20
1118687.1903921100310981
 30
999.8440000000000509
 70
    32
  0
SEQEND
  5
22F
  8
RASGOS
  0
POLYLINE
  5
230
  8
RASGOS
 66
     1
 10
0.0
 20
0.0
 30
0.0
 70
     9
  0
VERTEX
  5
239
  8
RASGOS
 10
773716.4267536834813654
 20
1118753.3818699449766427
 30
999.2179999999998472
 70
    32
  0
VERTEX
  5
23A
  8
RASGOS
 10
773713.9056636145105585
 20
1118751.3077820350881666
 30
999.4339999999997417
 70
    32
  0
VERTEX
  5
23B
  8
RASGOS
 10
773710.4018077164655551
 20
1118751.3589698860887438
 30
999.6340000000000146
 70
    32
  0
VERTEX
  5
23C
  8
RASGOS
 10
773708.4777357797138393
 20
1118751.9230354418978095
 30
999.0109999999997399
 70
    32
  0
VERTEX
  5
23D
  8
RASGOS
 10
773706.6221509312745184
 20
1118753.7447985040489584
 30
999.0075291463457461
 70
    32
  0
VERTEX
  5
23E
  8
RASGOS
 10
773705.3027948014205322
 20
1118756.4003643579781055
 30
999.0030000000000427
 70
    32
  0
VERTEX
  5
23F
  8
RASGOS
 10
773705.6120511239860207
 20
1118760.4775932680349797
 30
999.3155765207408194
 70
    32
  0
VERTEX
  5
240
  8
RASGOS
 10
773706.8910408121300861
 20
1118762.5911657509859651
 30
999.5430000000000064
 70
    32
  0
VERTEX
  5
241
  8
RASGOS
 10
773709.8526410446502268
 20
1118764.2821077089756727
 30
999.4484235668797965
 70
    32
  0
VERTEX
  5
242
  8
RASGOS
 10
773712.7395700516644865
 20
1118764.5713499579578638
 30
999.3149999999999409
 70
    32
  0
VERTEX
  5
243
  8
RASGOS
 10
773715.1975777623010799
 20
1118763.8934507879894227
 30
999.2895938677950198
 70
    32
  0
VERTEX
  5
244
  8
RASGOS
 10
773716.6929588905768469
 20
1118762.1399114790838212
 30
999.2636706048615451
 70
    32
  0
VERTEX
  5
245
  8
RASGOS
 10
773717.6727668042294681
 20
1118759.2881847911048681
 30
999.2580802655836578
 70
    32
  0
VERTEX
  5
246
  8
RASGOS
 10
773717.6068134418455884
 20
1118757.0336631040554494
 30
999.2514592425100091
 70
    32
  0
VERTEX
  5
247
  8
RASGOS
 10
773716.3408692150842398
 20
1118753.2943909950554371
 30
999.2179999999998472
 70
    32
  0
SEQEND
  5
248
  8
RASGOS
  0
POLYLINE
  5
249
  8
RASGOS
 66
     1
 10
0.0
 20
0.0
 30
0.0
 70
     9
  0
VERTEX
  5
252
  8
RASGOS
 10
773691.4301714088069275
 20
1118737.808010898064822
 30
998.9550000000001546
 70
    32
  0
VERTEX
  5
253
  8
RASGOS
 10
773682.5485661873826757
 20
1118735.3841161238960922
 30
998.8479999999999563
 70
    32
  0
VERTEX
  5
254
  8
RASGOS
 10
773683.5501100812107325
 20
1118736.8686461520846933
 30
998.880444315495879
 70
    32
  0
VERTEX
  5
255
  8
RASGOS
 10
773685.0992192167323083
 20
1118738.0965398829430342
 30
998.9119999999999209
 70
    32
  0
VERTEX
  5
256
  8
RASGOS
 10
773686.7381989689311013
 20
1118738.9785041250288486
 30
998.9178180797305231
 70
    32
  0
VERTEX
  5
257
  8
RASGOS
 10
773688.6451961102429777
 20
1118738.9960431950166821
 30
998.9230000000000018
 70
    32
  0
SEQEND
  5
258
  8
RASGOS
  0
POLYLINE
  5
259
  8
RASGOS
 66
     1
 10
0.0
 20
0.0
 30
0.0
 70
     9
  0
VERTEX
  5
262
  8
RASGOS
 10
773731.2597793394234031
 20
1118744.4649853929877281
 30
0.0
 70
    32
  0
VERTEX
  5
263
  8
RASGOS
 10
773724.1436169780790806
 20
1118741.2774971269536763
 30
0.0
 70
    32
  0
VERTEX
  5
264
  8
RASGOS
 10
773723.658238454721868
 20
1118740.8818188519217074
 30
0.0
 70
    32
  0
VERTEX
  5
265
  8
RASGOS
 10
773724.8798036015359685
 20
1118741.8585152078885585
 30
0.0
 70
    32
  0
VERTEX
  5
266
  8
RASGOS
 10
773725.843790986109525
 20
1118742.5156782250851393
 30
0.0
 70
    32
  0
VERTEX
  5
267
  8
RASGOS
 10
773726.5935576161136851
 20
1118743.0039905090816319
 30
0.0
 70
    32
  0
VERTEX
  5
268
  8
RASGOS
 10
773727.4397682395065203
 20
1118743.5081007711123675
 30
0.0
 70
    32
  0
VERTEX
  5
269
  8
RASGOS
 10
773728.466993727022782
 20
1118743.9207294709049165
 30
0.0
 70
    32
  0
VERTEX
  5
26A
  8
RASGOS
 10
773729.9184188469080254
 20
1118744.2763600049074739
 30
0.0
 70
    32
  0
SEQEND
  5
26B
  8
RASGOS
  0
POLYLINE
  5
26C
  8
RASGOS
 66
     1
 10
0.0
 20
0.0
 30
0.0
 70
     9
  0
VERTEX
  5
275
  8
RASGOS
 10
773771.496810492943041
 20
1118761.9858609288930893
 30
0.0
 70
    32
  0
VERTEX
  5
276
  8
RASGOS
 10
773771.5974879554705694
 20
1118761.8870185299310833
 30
0.0
 70
    32
  0
VERTEX
  5
277
  8
RASGOS
 10
773773.6841887303162366
 20
1118762.8041261050384492
 30
0.0
 70
    32
  0
VERTEX
  5
278
  8
RASGOS
 10
773775.5796274641761556
 20
1118762.8215592359192669
 30
0.0
 70
    32
  0
VERTEX
  5
279
  8
RASGOS
 10
773777.3789764251559973
 20
1118762.4390350899193436
 30
0.0
 70
    32
  0
VERTEX
  5
27A
  8
RASGOS
 10
773778.2804859804455191
 20
1118762.0482531399466097
 30
0.0
 70
    32
  0
VERTEX
  5
27B
  8
RASGOS
 10
773779.5837878856109455
 20
1118761.3618615008890629
 30
0.0
 70
    32
  0
VERTEX
  5
27C
  8
RASGOS
 10
773780.5905625822488219
 20
1118760.3734374390915036
 30
0.0
 70
    32
  0
VERTEX
  5
27D
  8
RASGOS
 10
773781.404240109724924
 20
1118758.684858727036044
 30
0.0
 70
    32
  0
VERTEX
  5
27E
  8
RASGOS
 10
773781.8207129186484963
 20
1118756.7930899979546666
 30
0.0
 70
    32
  0
VERTEX
  5
27F
  8
RASGOS
 10
773780.9467291771434247
 20
1118754.1910738421138376
 30
0.0
 70
    32
  0
VERTEX
  5
280
  8
RASGOS
 10
773779.7652078530518338
 20
1118752.4841445859055966
 30
0.0
 70
    32
  0
VERTEX
  5
281
  8
RASGOS
 10
773777.4817395989084616
 20
1118751.2659222870133817
 30
0.0
 70
    32
  0
VERTEX
  5
282
  8
RASGOS
 10
773774.5923715890385211
 20
1118750.8402743639890105
 30
0.0
 70
    32
  0
VERTEX
  5
283
  8
RASGOS
 10
773772.8909475891850889
 20
1118751.4232360569294542
 30
0.0
 70
    32
  0
VERTEX
  5
284
  8
RASGOS
 10
773770.7858962663449347
 20
1118752.5013272908981889
 30
0.0
 70
    32
  0
VERTEX
  5
285
  8
RASGOS
 10
773769.2784870171453804
 20
1118753.6846835690084845
 30
0.0
 70
    32
  0
VERTEX
  5
286
  8
RASGOS
 10
773768.5664046201854944
 20
1118755.1746598170138896
 30
0.0
 70
    32
  0
VERTEX
  5
287
  8
RASGOS
 10
773768.3558744341135025
 20
1118756.3699439039919525
 30
0.0
 70
    32
  0
VERTEX
  5
288
  8
RASGOS
 10
773768.4418714356143028
 20
1118757.8672603589948267
 30
0.0
 70
    32
  0
VERTEX
  5
289
  8
RASGOS
 10
773768.5287859493400902
 20
1118759.2648168869782239
 30
0.0
 70
    32
  0
VERTEX
  5
28A
  8
RASGOS
 10
773769.3140199470799416
 20
1118760.6687961360439658
 30
0.0
 70
    32
  0
VERTEX
  5
28B
  8
RASGOS
 10
773770.4049564505694434
 20
1118761.3772084920201451
 30
0.0
 70
    32
  0
SEQEND
  5
28C
  8
RASGOS
  0
POLYLINE
  5
28D
  8
RASGOS
 66
     1
 10
0.0
 20
0.0
 30
0.0
 70
     9
  0
VERTEX
  5
296
  8
RASGOS
 10
773724.3054996817372739
 20
1118810.0827790519688278
 30
0.0
 70
    32
  0
VERTEX
  5
297
  8
RASGOS
 10
773724.4827170661883429
 20
1118810.0640864039305598
 30
0.0
 70
    32
  0
VERTEX
  5
298
  8
RASGOS
 10
773725.8260559577029198
 20
1118810.6544861369766295
 30
0.0
 70
    32
  0
VERTEX
  5
299
  8
RASGOS
 10
773725.2498329747468233
 20
1118810.4565048280637711
 30
0.0
 70
    32
  0
VERTEX
  5
29A
  8
RASGOS
 10
773727.3620598884299397
 20
1118811.2466579789761454
 30
0.0
 70
    32
  0
VERTEX
  5
29B
  8
RASGOS
 10
773729.4831473140511662
 20
1118811.0734859979711473
 30
0.0
 70
    32
  0
VERTEX
  5
29C
  8
RASGOS
 10
773730.8353467338019982
 20
1118810.7005605990998447
 30
0.0
 70
    32
  0
VERTEX
  5
29D
  8
RASGOS
 10
773732.967066778219305
 20
1118809.3713983809575438
 30
0.0
 70
    32
  0
VERTEX
  5
29E
  8
RASGOS
 10
773734.5824641792569309
 20
1118806.7922342109959573
 30
0.0
 70
    32
  0
VERTEX
  5
29F
  8
RASGOS
 10
773734.7471264332998544
 20
1118804.3780561790335923
 30
0.0
 70
    32
  0
VERTEX
  5
2A0
  8
RASGOS
 10
773734.0048195952549577
 20
1118801.2883272180333734
 30
0.0
 70
    32
  0
VERTEX
  5
2A1
  8
RASGOS
 10
773732.2832388108363375
 20
1118799.9237232450395823
 30
0.0
 70
    32
  0
VERTEX
  5
2A2
  8
RASGOS
 10
773729.4074399136006832
 20
1118798.3558218250982463
 30
0.0
 70
    32
  0
VERTEX
  5
2A3
  8
RASGOS
 10
773725.5559114173520356
 20
1118798.1277152919210494
 30
0.0
 70
    32
  0
VERTEX
  5
2A4
  8
RASGOS
 10
773723.2332986770197749
 20
1118799.262440524995327
 30
0.0
 70
    32
  0
VERTEX
  5
2A5
  8
RASGOS
 10
773721.6689414870925248
 20
1118801.7529091651085764
 30
0.0
 70
    32
  0
VERTEX
  5
2A6
  8
RASGOS
 10
773721.2676627107430249
 20
1118803.483350174035877
 30
0.0
 70
    32
  0
VERTEX
  5
2A7
  8
RASGOS
 10
773721.2552581216441467
 20
1118804.8320053059142083
 30
0.0
 70
    32
  0
VERTEX
  5
2A8
  8
RASGOS
 10
773721.8137602211209014
 20
1118806.9566367790102959
 30
0.0
 70
    32
  0
VERTEX
  5
2A9
  8
RASGOS
 10
773723.1464665540261194
 20
1118808.7030265969224274
 30
0.0
 70
    32
  0
SEQEND
  5
2AA
  8
RASGOS
  0
POLYLINE
  5
2AB
  8
RASGOS
 66
     1
 10
0.0
 20
0.0
 30
0.0
 70
     9
  0
VERTEX
  5
2B4
  8
RASGOS
 10
773733.3835355321643874
 20
1118810.2798509621061385
 30
0.0
 70
    32
  0
VERTEX
  5
2B5
  8
RASGOS
 10
773746.1832054541446269
 20
1118821.4389800908975303
 30
0.0
 70
    32
  0
VERTEX
  5
2B6
  8
RASGOS
 10
773756.3042944518383592
 20
1118813.5921886959113181
 30
0.0
 70
    32
  0
VERTEX
  5
2B7
  8
RASGOS
 10
773751.1512358681065962
 20
1118807.3417576178908348
 30
0.0
 70
    32
  0
SEQEND
  5
2B8
  8
RASGOS
  0
POLYLINE
  5
2B9
  8
RASGOS
 66
     1
 10
0.0
 20
0.0
 30
0.0
 70
     9
  0
VERTEX
  5
2C2
  8
RASGOS
 10
773669.5862303484464064
 20
1118660.4275539489462972
 30
0.0
 70
    32
  0
VERTEX
  5
2C3
  8
RASGOS
 10
773660.7245467661414295
 20
1118648.5116174130234867
 30
0.0
 70
    32
  0
VERTEX
  5
2C4
  8
RASGOS
 10
773659.6616418093908578
 20
1118649.9334278190508485
 30
0.0
 70
    32
  0
VERTEX
  5
2C5
  8
RASGOS
 10
773658.8885402331361547
 20
1118650.9761472758837044
 30
0.0
 70
    32
  0
VERTEX
  5
2C6
  8
RASGOS
 10
773658.397343355929479
 20
1118652.4986543860286474
 30
0.0
 70
    32
  0
VERTEX
  5
2C7
  8
RASGOS
 10
773658.3833012290997431
 20
1118654.0255496520549059
 30
0.0
 70
    32
  0
VERTEX
  5
2C8
  8
RASGOS
 10
773658.4655676742549986
 20
1118655.4578915969468653
 30
0.0
 70
    32
  0
VERTEX
  5
2C9
  8
RASGOS
 10
773658.9295579195022583
 20
1118656.8937440870795399
 30
0.0
 70
    32
  0
VERTEX
  5
2CA
  8
RASGOS
 10
773660.1569957898464054
 20
1118658.336617681896314
 30
0.0
 70
    32
  0
VERTEX
  5
2CB
  8
RASGOS
 10
773661.3853112945798784
 20
1118659.684060350060463
 30
0.0
 70
    32
  0
VERTEX
  5
2CC
  8
RASGOS
 10
773663.0960474157473072
 20
1118660.4633054928854108
 30
0.0
 70
    32
  0
VERTEX
  5
2CD
  8
RASGOS
 10
773665.6674174685031176
 20
1118661.0595874900463969
 30
0.0
 70
    32
  0
VERTEX
  5
2CE
  8
RASGOS
 10
773667.5769143155775964
 20
1118660.9817093079909682
 30
0.0
 70
    32
  0
SEQEND
  5
2CF
  8
RASGOS
  0
POLYLINE
  5
2D0
  8
RASGOS
 66
     1
 10
0.0
 20
0.0
 30
0.0
 70
     9
  0
VERTEX
  5
2D9
  8
RASGOS
 10
773653.4586298854555935
 20
1118649.8763818540610373
 30
0.0
 70
    32
  0
VERTEX
  5
2DA
  8
RASGOS
 10
773653.364076564903371
 20
1118649.7800732729956508
 30
0.0
 70
    32
  0
VERTEX
  5
2DB
  8
RASGOS
 10
773653.2712785045150667
 20
1118649.4929027929902077
 30
0.0
 70
    32
  0
VERTEX
  5
2DC
  8
RASGOS
 10
773652.3397873596986756
 20
1118647.0029218080453575
 30
0.0
 70
    32
  0
VERTEX
  5
2DD
  8
RASGOS
 10
773650.4452104220399633
 20
1118645.4584740840364248
 30
0.0
 70
    32
  0
VERTEX
  5
2DE
  8
RASGOS
 10
773648.0673353843158111
 20
1118644.5776549000293016
 30
0.0
 70
    32
  0
VERTEX
  5
2DF
  8
RASGOS
 10
773646.7313021456357092
 20
1118644.5653681370895356
 30
0.0
 70
    32
  0
VERTEX
  5
2E0
  8
RASGOS
 10
773644.6274332411121577
 20
1118645.0232150820083916
 30
0.0
 70
    32
  0
VERTEX
  5
2E1
  8
RASGOS
 10
773643.2878895346075296
 20
1118645.3926520829554647
 30
0.0
 70
    32
  0
VERTEX
  5
2E2
  8
RASGOS
 10
773641.9404471947345883
 20
1118646.6209675469435751
 30
0.0
 70
    32
  0
VERTEX
  5
2E3
  8
RASGOS
 10
773640.3977548346156254
 20
1118648.3246824280358851
 30
0.0
 70
    32
  0
VERTEX
  5
2E4
  8
RASGOS
 10
773639.8084942330606282
 20
1118650.1326045088935643
 30
0.0
 70
    32
  0
VERTEX
  5
2E5
  8
RASGOS
 10
773639.7883087168447673
 20
1118652.3275161210913211
 30
0.0
 70
    32
  0
VERTEX
  5
2E6
  8
RASGOS
 10
773640.8196187686407939
 20
1118654.341219823108986
 30
0.0
 70
    32
  0
VERTEX
  5
2E7
  8
RASGOS
 10
773641.9516255465568975
 20
1118655.7832155448850244
 30
0.0
 70
    32
  0
VERTEX
  5
2E8
  8
RASGOS
 10
773643.1825738030020148
 20
1118656.8443651620764285
 30
0.0
 70
    32
  0
VERTEX
  5
2E9
  8
RASGOS
 10
773644.7996340180980042
 20
1118657.4318706269841641
 30
0.0
 70
    32
  0
VERTEX
  5
2EA
  8
RASGOS
 10
773647.2799609375651926
 20
1118657.550120108993724
 30
0.0
 70
    32
  0
VERTEX
  5
2EB
  8
RASGOS
 10
773649.097537093795836
 20
1118657.0896404620725662
 30
0.0
 70
    32
  0
VERTEX
  5
2EC
  8
RASGOS
 10
773650.919501451891847
 20
1118656.1520060570910573
 30
0.0
 70
    32
  0
VERTEX
  5
2ED
  8
RASGOS
 10
773652.3641302010510117
 20
1118654.7337063420563936
 30
0.0
 70
    32
  0
VERTEX
  5
2EE
  8
RASGOS
 10
773653.3377476303139701
 20
1118652.6430017799139023
 30
0.0
 70
    32
  0
SEQEND
  5
2EF
  8
RASGOS
  0
POLYLINE
  5
2F0
  8
RASGOS
 66
     1
 10
0.0
 20
0.0
 30
0.0
 70
     9
  0
VERTEX
  5
2F9
  8
RASGOS
 10
773636.2777798371389508
 20
1118639.6972824321128428
 30
0.0
 70
    32
  0
VERTEX
  5
2FA
  8
RASGOS
 10
773636.4079256528057158
 20
1118639.7423812509514391
 30
0.0
 70
    32
  0
VERTEX
  5
2FB
  8
RASGOS
 10
773638.0665438498836011
 20
1118640.2111607599072158
 30
0.0
 70
    32
  0
VERTEX
  5
2FC
  8
RASGOS
 10
773640.1301158973947167
 20
1118640.482097215950489
 30
0.0
 70
    32
  0
VERTEX
  5
2FD
  8
RASGOS
 10
773641.8083861940540373
 20
1118640.2253392289858311
 30
0.0
 70
    32
  0
VERTEX
  5
2FE
  8
RASGOS
 10
773643.2468713008565828
 20
1118639.4750560279935598
 30
0.0
 70
    32
  0
VERTEX
  5
2FF
  8
RASGOS
 10
773644.7860530915204436
 20
1118638.1530647710897028
 30
0.0
 70
    32
  0
VERTEX
  5
300
  8
RASGOS
 10
773645.9113658954156563
 20
1118636.5039199960883707
 30
0.0
 70
    32
  0
VERTEX
  5
301
  8
RASGOS
 10
773646.2517444174736738
 20
1118634.4444222419988364
 30
0.0
 70
    32
  0
VERTEX
  5
302
  8
RASGOS
 10
773645.8945939197437838
 20
1118631.7688453230075538
 30
0.0
 70
    32
  0
VERTEX
  5
303
  8
RASGOS
 10
773645.1504539004527032
 20
1118629.662343628006056
 30
0.0
 70
    32
  0
VERTEX
  5
304
  8
RASGOS
 10
773642.9695840309141204
 20
1118628.1152634210884571
 30
0.0
 70
    32
  0
VERTEX
  5
305
  8
RASGOS
 10
773641.2553375342395157
 20
1118627.7177426179405302
 30
0.0
 70
    32
  0
VERTEX
  5
306
  8
RASGOS
 10
773638.8695640347432345
 20
1118627.6958022960461676
 30
0.0
 70
    32
  0
VERTEX
  5
307
  8
RASGOS
 10
773636.8611262653721496
 20
1118628.1545271130744368
 30
0.0
 70
    32
  0
VERTEX
  5
308
  8
RASGOS
 10
773635.3272103659110144
 20
1118628.9039327919017524
 30
0.0
 70
    32
  0
VERTEX
  5
309
  8
RASGOS
 10
773634.1715077653061599
 20
1118630.0385726529639214
 30
0.0
 70
    32
  0
VERTEX
  5
30A
  8
RASGOS
 10
773633.4894493742613122
 20
1118631.5593243080656976
 30
0.0
 70
    32
  0
VERTEX
  5
30B
  8
RASGOS
 10
773633.2784023203421384
 20
1118633.7524805751163512
 30
0.0
 70
    32
  0
VERTEX
  5
30C
  8
RASGOS
 10
773633.4517118232324719
 20
1118635.6628545059356838
 30
0.0
 70
    32
  0
VERTEX
  5
30D
  8
RASGOS
 10
773634.0102555202320218
 20
1118637.195015185046941
 30
0.0
 70
    32
  0
VERTEX
  5
30E
  8
RASGOS
 10
773635.0450762577820569
 20
1118638.8269949210807681
 30
0.0
 70
    32
  0
SEQEND
  5
30F
  8
RASGOS
  0
POLYLINE
  5
310
  8
RASGOS
 66
     1
 10
0.0
 20
0.0
 30
0.0
 70
     9
  0
VERTEX
  5
319
  8
RASGOS
 10
773677.7974288559053093
 20
1118668.8495261529460549
 30
0.0
 70
    32
  0
VERTEX
  5
31A
  8
RASGOS
 10
773678.7767335455864668
 20
1118657.3442739609163254
 30
0.0
 70
    32
  0
VERTEX
  5
31B
  8
RASGOS
 10
773677.3365448323311284
 20
1118658.5221593629103154
 30
0.0
 70
    32
  0
VERTEX
  5
31C
  8
RASGOS
 10
773676.8528308002278209
 20
1118659.3117976360954344
 30
0.0
 70
    32
  0
VERTEX
  5
31D
  8
RASGOS
 10
773676.2853334463434294
 20
1118660.5771174519322813
 30
0.0
 70
    32
  0
VERTEX
  5
31E
  8
RASGOS
 10
773676.1920571685768664
 20
1118662.0850245060864836
 30
0.0
 70
    32
  0
VERTEX
  5
31F
  8
RASGOS
 10
773676.1789130643010139
 20
1118663.5142598240636289
 30
0.0
 70
    32
  0
VERTEX
  5
320
  8
RASGOS
 10
773676.2444406766444445
 20
1118665.0236273331101984
 30
0.0
 70
    32
  0
VERTEX
  5
321
  8
RASGOS
 10
773676.7871102745411918
 20
1118666.4579742639325559
 30
0.0
 70
    32
  0
VERTEX
  5
322
  8
RASGOS
 10
773677.3319705509347841
 20
1118667.6541153199505061
 30
0.0
 70
    32
  0
SEQEND
  5
323
  8
RASGOS
  0
INSERT
  5
359
  8
0
  2
RASGOS_TXT
 10
773682.9635230002459139
 20
1118718.1656800000928342
 30
0.0
  0
INSERT
  5
35E
  8
0
  2
RASGOS_TXT
 10
773869.7837030000519007
 20
1118749.3392300000414252
 30
0.0
  0
TEXT
  5
54A
  8
RASGOS
 10
773696.3128666670527309
 20
1118752.1084000000264496
 30
-0.0000234999999975
 40
2.0
  1
M13
 72
     1
 11
773698.646200000308454
 21
1118752.1084000000264496
 31
-0.0000234999999975
  0
TEXT
  5
54B
  8
RASGOS
 10
773642.603833333356306
 20
1118716.3154000008944422
 30
-0.0000234999999975
 40
2.0
  1
M10
 72
     1
 11
773644.7704999998677522
 21
1118716.3154000008944422
 31
-0.0000234999999975
  0
TEXT
  5
54C
  8
RASGOS
 10
773641.3168333334615454
 20
1118751.8236000000033528
 30
-0.0000234999999975
 40
2.0
  1
M9
 72
     1
 11
773642.9835000002058223
 21
1118751.8236000000033528
 31
-0.0000234999999975
  0
TEXT
  5
54D
  8
RASGOS
 10
773666.2862333331722766
 20
1118754.1171999999787658
 30
-0.0000234999999975
 40
2.0
  1
M8
 72
     1
 11
773667.9528999999165535
 21
1118754.1171999999787658
 31
-0.0000234999999975
  0
TEXT
  5
54E
  8
RASGOS
 10
773664.4048333328682929
 20
1118769.6578999999910593
 30
-0.0000234999999975
 40
2.0
  1
M7
 72
     1
 11
773666.0714999994961545
 21
1118769.6578999999910593
 31
-0.0000234999999975
  0
TEXT
  5
54F
  8
RASGOS
 10
773682.951533333864063
 20
1118782.643099999986589
 30
-0.0000234999999975
 40
2.0
  1
M6
 72
     1
 11
773684.6182000004919246
 21
1118782.643099999986589
 31
-0.0000234999999975
  0
TEXT
  5
550
  8
RASGOS
 10
773688.7055333334719762
 20
1118794.9886000000406057
 30
-0.0000234999999975
 40
2.0
  1
M4
 72
     1
 11
773690.3721999999834225
 21
1118794.9886000000406057
 31
-0.0000234999999975
  0
TEXT
  5
551
  8
RASGOS
 10
773755.9110333335120231
 20
1118799.0435000010766089
 30
-0.0000234999999975
 40
2.0
  1
M5
 72
     1
 11
773757.5777000002563
 21
1118799.0435000010766089
 31
-0.0000234999999975
  0
TEXT
  5
552
  8
RASGOS
 10
773741.2733666667481884
 20
1118775.8134999999310821
 30
-0.0000234999999975
 40
2.0
  1
M1
 72
     1
 11
773742.6067000001203269
 21
1118775.8134999999310821
 31
-0.0000234999999975
  0
TEXT
  5
553
  8
RASGOS
 10
773724.7701333337463439
 20
1118758.3976000009570271
 30
-0.0000234999999975
 40
2.0
  1
M2
 72
     1
 11
773726.4368000002577901
 21
1118758.3976000009570271
 31
-0.0000234999999975
  0
TEXT
  5
554
  8
RASGOS
 10
773709.4917333330959082
 20
1118777.8932000009808689
 30
-0.0000234999999975
 40
2.0
  1
M3
 72
     1
 11
773711.1583999997237697
 21
1118777.8932000009808689
 31
-0.0000234999999975
  0
TEXT
  5
555
  8
RASGOS
 10
773634.2834000004222617
 20
1118695.6129000000655651
 30
-0.0000234999999975
 40
2.0
  1
M11
 72
     1
 11
773636.2834000003058463
 21
1118695.6129000000655651
 31
-0.0000234999999975
  0
TEXT
  5
556
  8
RASGOS
 10
773640.35896666708868
 20
1118675.5231999999377877
 30
-0.0000234999999975
 40
2.0
  1
M17
 72
     1
 11
773642.6923000003444031
 21
1118675.5231999999377877
 31
-0.0000234999999975
  0
TEXT
  5
557
  8
RASGOS
 10
773656.8359666669275612
 20
1118686.2985000000335276
 30
-0.0000234999999975
 40
2.0
  1
M18
 72
     1
 11
773659.1693000004161149
 21
1118686.2985000000335276
 31
-0.0000234999999975
  0
TEXT
  5
558
  8
RASGOS
 10
773666.97726666694507
 20
1118674.5307000000029802
 30
-0.0000234999999975
 40
2.0
  1
M19
 72
     1
 11
773669.3106000004336238
 21
1118674.5307000000029802
 31
-0.0000234999999975
  0
TEXT
  5
559
  8
RASGOS
 10
773669.8489666668465361
 20
1118744.4108000008855015
 30
-0.0000234999999975
 40
2.0
  1
M14
 72
     1
 11
773672.1823000003350899
 21
1118744.4108000008855015
 31
-0.0000234999999975
  0
TEXT
  5
55A
  8
RASGOS
 10
773697.2658000000519678
 20
1118685.0673999988939613
 30
-0.0000234999999975
 40
2.0
  1
M20
 72
     1
 11
773699.7658000000519678
 21
1118685.0673999988939613
 31
-0.0000234999999975
  0
TEXT
  5
55B
  8
RASGOS
 10
773708.899533333373256
 20
1118757.919500001007691
 30
-0.0000234999999975
 40
2.0
  1
M26
 72
     1
 11
773711.5662000000011176
 21
1118757.919500001007691
 31
-0.0000234999999975
  0
TEXT
  5
55C
  8
RASGOS
 10
773684.450666666845791
 20
1118737.4761000000871718
 30
-0.0000234999999975
 40
2.0
  1
M15
 72
     1
 11
773686.7840000001015142
 21
1118737.4761000000871718
 31
-0.0000234999999975
  0
TEXT
  5
55D
  8
RASGOS
 10
773725.0374333331128582
 20
1118743.1580000000540167
 30
-0.0000234999999975
 40
2.0
  1
M25
 72
     1
 11
773727.7040999997407198
 21
1118743.1580000000540167
 31
-0.0000234999999975
  0
TEXT
  5
55E
  8
RASGOS
 10
773772.6634666663594544
 20
1118756.9406000000890344
 30
-0.0000234999999975
 40
2.0
  1
M12
 72
     1
 11
773774.9967999998480082
 21
1118756.9406000000890344
 31
-0.0000234999999975
  0
TEXT
  5
55F
  8
RASGOS
 10
773725.635966666857712
 20
1118804.6018000000622123
 30
-0.0000234999999975
 40
2.0
  1
M16
 72
     1
 11
773727.9693000002298504
 21
1118804.6018000000622123
 31
-0.0000234999999975
  0
TEXT
  5
560
  8
RASGOS
 10
773741.7391333336709067
 20
1118813.3574000000953674
 30
-0.0000234999999975
 40
2.0
  1
Plaza
 72
     1
 11
773745.9058000002987683
 21
1118813.3574000000953674
 31
-0.0000234999999975
  0
TEXT
  5
561
  8
RASGOS
 10
773660.5373666665982455
 20
1118655.9077999999281019
 30
-0.0000234999999975
 40
2.0
  1
M21
 72
     1
 11
773662.8706999999703839
 21
1118655.9077999999281019
 31
-0.0000234999999975
  0
TEXT
  5
562
  8
RASGOS
 10
773644.0130333334673196
 20
1118651.0670000000391155
 30
-0.0000234999999975
 40
2.0
  1
M22
 72
     1
 11
773646.6797000002115965
 21
1118651.0670000000391155
 31
-0.0000234999999975
  0
TEXT
  5
563
  8
RASGOS
 10
773637.0642333331052214
 20
1118633.9706999999471009
 30
-0.0000234999999975
 40
2.0
  1
M23
 72
     1
 11
773639.730899999733083
 21
1118633.9706999999471009
 31
-0.0000234999999975
  0
TEXT
  5
564
  8
RASGOS
 10
773674.750833333353512
 20
1118662.6035999990999699
 30
-0.0000234999999975
 40
2.0
  1
M24
 72
     1
 11
773677.4174999999813735
 21
1118662.6035999990999699
 31
-0.0000234999999975
  0
ENDSEC
  0
EOF
