  0
SECTION
  2
HEADER
  9
$ACADVER
  1
AC1009
  9
$INSBASE
 10
0.0
 20
0.0
 30
0.0
  9
$EXTMIN
 10
424506.6937094395980239
 20
513994.8326011737226509
 30
0.0
  9
$EXTMAX
 10
429829.5047666670288891
 20
520024.6097975344746374
 30
0.0
  9
$LIMMIN
 10
0.0
 20
0.0
  9
$LIMMAX
 10
12.0
 20
9.0
  9
$ORTHOMODE
 70
     0
  9
$REGENMODE
 70
     1
  9
$FILLMODE
 70
     1
  9
$QTEXTMODE
 70
     0
  9
$MIRRTEXT
 70
     1
  9
$DRAGMODE
 70
     2
  9
$LTSCALE
 40
1.0
  9
$OSMODE
 70
    37
  9
$ATTMODE
 70
     1
  9
$TEXTSIZE
 40
0.2
  9
$TRACEWID
 40
0.05
  9
$TEXTSTYLE
  7
STANDARD
  9
$CLAYER
  8
0
  9
$CELTYPE
  6
BYLAYER
  9
$CECOLOR
 62
   256
  9
$DIMSCALE
 40
1.0
  9
$DIMASZ
 40
0.18
  9
$DIMEXO
 40
0.0625
  9
$DIMDLI
 40
0.38
  9
$DIMRND
 40
0.0
  9
$DIMDLE
 40
0.0
  9
$DIMEXE
 40
0.18
  9
$DIMTP
 40
0.0
  9
$DIMTM
 40
0.0
  9
$DIMTXT
 40
0.18
  9
$DIMCEN
 40
0.09
  9
$DIMTSZ
 40
0.0
  9
$DIMTOL
 70
     0
  9
$DIMLIM
 70
     0
  9
$DIMTIH
 70
     1
  9
$DIMTOH
 70
     1
  9
$DIMSE1
 70
     0
  9
$DIMSE2
 70
     0
  9
$DIMTAD
 70
     0
  9
$DIMZIN
 70
     0
  9
$DIMBLK
  1

  9
$DIMASO
 70
     1
  9
$DIMSHO
 70
     1
  9
$DIMPOST
  1

  9
$DIMAPOST
  1

  9
$DIMALT
 70
     0
  9
$DIMALTD
 70
     2
  9
$DIMALTF
 40
25.3999999999999986
  9
$DIMLFAC
 40
1.0
  9
$DIMTOFL
 70
     0
  9
$DIMTVP
 40
0.0
  9
$DIMTIX
 70
     0
  9
$DIMSOXD
 70
     0
  9
$DIMSAH
 70
     0
  9
$DIMBLK1
  1

  9
$DIMBLK2
  1

  9
$DIMSTYLE
  2
STANDARD
  9
$DIMCLRD
 70
     0
  9
$DIMCLRE
 70
     0
  9
$DIMCLRT
 70
     0
  9
$DIMTFAC
 40
1.0
  9
$DIMGAP
 40
0.09
  9
$LUNITS
 70
     2
  9
$LUPREC
 70
     4
  9
$SKETCHINC
 40
0.1
  9
$FILLETRAD
 40
0.0
  9
$AUNITS
 70
     0
  9
$AUPREC
 70
     0
  9
$MENU
  1
.
  9
$ELEVATION
 40
0.0
  9
$PELEVATION
 40
0.0
  9
$THICKNESS
 40
0.0
  9
$LIMCHECK
 70
     0
  9
$BLIPMODE
 70
     0
  9
$CHAMFERA
 40
0.0
  9
$CHAMFERB
 40
0.0
  9
$SKPOLY
 70
     0
  9
$TDCREATE
 40
2460572.8782407408580184
  9
$TDUPDATE
 40
2460572.8813657411374152
  9
$TDINDWG
 40
0.0024189931
  9
$TDUSRTIMER
 40
0.0024189931
  9
$USRTIMER
 70
     1
  9
$ANGBASE
 50
0.0
  9
$ANGDIR
 70
     0
  9
$PDMODE
 70
    33
  9
$PDSIZE
 40
-3.0
  9
$PLINEWID
 40
0.0
  9
$COORDS
 70
     1
  9
$SPLFRAME
 70
     0
  9
$SPLINETYPE
 70
     6
  9
$SPLINESEGS
 70
     8
  9
$ATTDIA
 70
     1
  9
$ATTREQ
 70
     1
  9
$HANDLING
 70
     1
  9
$HANDSEED
  5
C9B
  9
$SURFTAB1
 70
     6
  9
$SURFTAB2
 70
     6
  9
$SURFTYPE
 70
     6
  9
$SURFU
 70
     6
  9
$SURFV
 70
     6
  9
$UCSNAME
  2

  9
$UCSORG
 10
0.0
 20
0.0
 30
0.0
  9
$UCSXDIR
 10
1.0
 20
0.0
 30
0.0
  9
$UCSYDIR
 10
0.0
 20
1.0
 30
0.0
  9
$PUCSNAME
  2

  9
$PUCSORG
 10
0.0
 20
0.0
 30
0.0
  9
$PUCSXDIR
 10
1.0
 20
0.0
 30
0.0
  9
$PUCSYDIR
 10
0.0
 20
1.0
 30
0.0
  9
$USERI1
 70
     0
  9
$USERI2
 70
     0
  9
$USERI3
 70
     0
  9
$USERI4
 70
     0
  9
$USERI5
 70
     0
  9
$USERR1
 40
0.0
  9
$USERR2
 40
0.0
  9
$USERR3
 40
0.0
  9
$USERR4
 40
0.0
  9
$USERR5
 40
0.0
  9
$WORLDVIEW
 70
     1
  9
$SHADEDGE
 70
     3
  9
$SHADEDIF
 70
    70
  9
$TILEMODE
 70
     1
  9
$MAXACTVP
 70
    64
  9
$PLIMCHECK
 70
     0
  9
$PEXTMIN
 10
1.0000000000000000E+20
 20
1.0000000000000000E+20
 30
1.0000000000000000E+20
  9
$PEXTMAX
 10
-1.0000000000000000E+20
 20
-1.0000000000000000E+20
 30
-1.0000000000000000E+20
  9
$PLIMMIN
 10
0.0
 20
0.0
  9
$PLIMMAX
 10
12.0
 20
9.0
  9
$UNITMODE
 70
     0
  9
$VISRETAIN
 70
     1
  9
$PLINEGEN
 70
     0
  9
$PSLTSCALE
 70
     1
  0
ENDSEC
  0
SECTION
  2
TABLES
  0
TABLE
  2
VPORT
 70
     1
  0
VPORT
  2
*ACTIVE
 70
     0
 10
0.0
 20
0.0
 11
1.0
 21
1.0
 12
429682.4324261278961785
 22
516034.1207567866076715
 13
0.0
 23
0.0
 14
0.5
 24
0.5
 15
0.5
 25
0.5
 16
0.0
 26
0.0
 36
1.0
 17
0.0
 27
0.0
 37
0.0
 40
11893.705932950380884
 41
1.4758418740849191
 42
50.0
 43
0.0
 44
0.0
 50
0.0
 51
0.0
 71
     0
 72
   100
 73
     1
 74
     3
 75
     0
 76
     0
 77
     0
 78
     0
  0
ENDTAB
  0
TABLE
  2
LTYPE
 70
     1
  0
LTYPE
  2
CONTINUOUS
 70
     0
  3
Solid line
 72
    65
 73
     0
 40
0.0
  0
ENDTAB
  0
TABLE
  2
LAYER
 70
   176
  0
LAYER
  2
0
 70
     0
 62
     7
  6
CONTINUOUS
  0
LAYER
  2
LABEL
 70
     0
 62
     1
  6
CONTINUOUS
  0
LAYER
  2
SITES
 70
     0
 62
     7
  6
CONTINUOUS
  0
ENDTAB
  0
TABLE
  2
STYLE
 70
     1
  0
STYLE
  2
STANDARD
 70
     0
 40
0.0
 41
1.0
 50
0.0
 71
     0
 42
0.2
  3
txt
  4

  0
ENDTAB
  0
TABLE
  2
VIEW
 70
     0
  0
ENDTAB
  0
TABLE
  2
UCS
 70
     0
  0
ENDTAB
  0
TABLE
  2
APPID
 70
     5
  0
APPID
  2
ACAD
 70
     0
  0
APPID
  2
ACAECLAYERSTANDARD
 70
     0
  0
APPID
  2
ACCMTRANSPARENCY
 70
     0
  0
APPID
  2
ACAD_NAV_VCDISPLAY
 70
     0
  0
APPID
  2
ACAD_MLEADERVER
 70
     0
  0
ENDTAB
  0
TABLE
  2
DIMSTYLE
 70
     1
  0
DIMSTYLE
  2
STANDARD
 70
     0
  3

  4

  5

  6

  7

 40
1.0
 41
0.18
 42
0.0625
 43
0.38
 44
0.18
 45
0.0
 46
0.0
 47
0.0
 48
0.0
140
0.18
141
0.09
142
0.0
143
25.3999999999999986
144
1.0
145
0.0
146
1.0
147
0.09
 71
     0
 72
     0
 73
     1
 74
     1
 75
     0
 76
     0
 77
     0
 78
     0
170
     0
171
     2
172
     0
173
     0
174
     0
175
     0
176
     0
177
     0
178
     0
  0
ENDTAB
  0
ENDSEC
  0
SECTION
  2
BLOCKS
  0
BLOCK
  8
0
  2
$MODEL_SPACE
 70
     0
 10
0.0
 20
0.0
 30
0.0
  3
$MODEL_SPACE
  1

  0
ENDBLK
  5
21
  8
0
  0
BLOCK
 67
     1
  8
0
  2
$PAPER_SPACE
 70
     0
 10
0.0
 20
0.0
 30
0.0
  3
$PAPER_SPACE
  1

  0
ENDBLK
  5
1D
 67
     1
  8
0
  0
BLOCK
  8
0
  2
ESURFACE2
 70
     0
 10
0.0
 20
0.0
 30
0.0
  3
ESURFACE2
  1

  0
POLYLINE
  5
2DE
  8
SITES
 66
     1
 10
0.0
 20
0.0
 30
0.0
 70
     1
  0
VERTEX
  5
3E9
  8
SITES
 10
426282.0778156667947769
 20
514055.6786693760077469
 30
0.0
  0
VERTEX
  5
3EA
  8
SITES
 10
426287.0641265248996206
 20
514044.9110693347174674
 30
0.0
  0
VERTEX
  5
3EB
  8
SITES
 10
426284.8713146465015598
 20
514030.5801992270862684
 30
0.0
  0
VERTEX
  5
3EC
  8
SITES
 10
426276.2204027003026567
 20
514014.1179694184102118
 30
0.0
  0
VERTEX
  5
3ED
  8
SITES
 10
426264.7169077998260036
 20
514002.6820299907121807
 30
0.0
  0
VERTEX
  5
3EE
  8
SITES
 10
426252.5070612060953863
 20
513994.8326011737226509
 30
0.0
  0
VERTEX
  5
3EF
  8
SITES
 10
426243.1943124057142995
 20
513997.0106427937862463
 30
0.0
  0
VERTEX
  5
3F0
  8
SITES
 10
426241.7732396514038555
 20
514001.3160086481948383
 30
0.0
  0
VERTEX
  5
3F1
  8
SITES
 10
426243.2470965575776063
 20
514014.9320559186162427
 30
0.0
  0
VERTEX
  5
3F2
  8
SITES
 10
426234.672309813904576
 20
514024.2765147822210565
 30
0.0
  0
VERTEX
  5
3F3
  8
SITES
 10
426236.1419312453945167
 20
514036.4588848322746344
 30
0.0
  0
VERTEX
  5
3F4
  8
SITES
 10
426239.0537985258852132
 20
514051.5043746489100158
 30
0.0
  0
VERTEX
  5
3F5
  8
SITES
 10
426244.8013104404089972
 20
514055.788567598501686
 30
0.0
  0
VERTEX
  5
3F6
  8
SITES
 10
426258.4385307873017155
 20
514061.4832978991908021
 30
0.0
  0
SEQEND
  5
3F7
  8
SITES
  0
POLYLINE
  5
2DF
  8
SITES
 66
     1
 10
0.0
 20
0.0
 30
0.0
 70
     1
  0
VERTEX
  5
3F8
  8
SITES
 10
426579.9346517677186057
 20
514420.399380348273553
 30
0.0
  0
VERTEX
  5
3F9
  8
SITES
 10
426586.3546546208090149
 20
514409.6275433994014747
 30
0.0
  0
VERTEX
  5
3FA
  8
SITES
 10
426585.6187657217960805
 20
514403.1779076451202855
 30
0.0
  0
VERTEX
  5
3FB
  8
SITES
 10
426578.4057741540018469
 20
514388.1452019704738632
 30
0.0
  0
VERTEX
  5
3FC
  8
SITES
 10
426546.8091191395069472
 20
514369.6000193852232769
 30
0.0
  0
VERTEX
  5
3FD
  8
SITES
 10
426541.0763733003986999
 20
514370.3337421515025198
 30
0.0
  0
VERTEX
  5
3FE
  8
SITES
 10
426536.7901057135895826
 20
514375.3644659303827211
 30
0.0
  0
VERTEX
  5
3FF
  8
SITES
 10
426537.5640952616231516
 20
514394.7174042256083339
 30
0.0
  0
VERTEX
  5
400
  8
SITES
 10
426565.601802340708673
 20
514421.8753909828956239
 30
0.0
  0
VERTEX
  5
401
  8
SITES
 10
426574.2083050271030515
 20
514423.2837698584189638
 30
0.0
  0
SEQEND
  5
402
  8
SITES
  0
POLYLINE
  5
2E0
  8
SITES
 66
     1
 10
0.0
 20
0.0
 30
0.0
 70
     1
  0
VERTEX
  5
403
  8
SITES
 10
427556.9390076951822266
 20
514681.9332830327912234
 30
0.0
  0
VERTEX
  5
404
  8
SITES
 10
427561.2273562013288029
 20
514677.619540284271352
 30
0.0
  0
VERTEX
  5
405
  8
SITES
 10
427561.9273177420836873
 20
514671.8825467021088116
 30
0.0
  0
VERTEX
  5
406
  8
SITES
 10
427556.1777269128942862
 20
514666.8815397092257626
 30
0.0
  0
VERTEX
  5
407
  8
SITES
 10
427549.7217762010986917
 20
514665.466953496390488
 30
0.0
  0
VERTEX
  5
408
  8
SITES
 10
427540.3984620973933488
 20
514664.0607322489959188
 30
0.0
  0
VERTEX
  5
409
  8
SITES
 10
427534.66373491397826
 20
514664.077661944727879
 30
0.0
  0
VERTEX
  5
40A
  8
SITES
 10
427529.6520974045270123
 20
514666.2429979594890028
 30
0.0
  0
VERTEX
  5
40B
  8
SITES
 10
427528.2395774160977453
 20
514673.4158390805823728
 30
0.0
  0
VERTEX
  5
40C
  8
SITES
 10
427530.4091457853210159
 20
514679.8610584958805703
 30
0.0
  0
VERTEX
  5
40D
  8
SITES
 10
427534.7187556514982134
 20
514682.715825040708296
 30
0.0
  0
VERTEX
  5
40E
  8
SITES
 10
427542.6062216634163633
 20
514683.4093881194130518
 30
0.0
  0
SEQEND
  5
40F
  8
SITES
  0
POLYLINE
  5
2E1
  8
SITES
 66
     1
 10
0.0
 20
0.0
 30
0.0
 70
     1
  0
VERTEX
  5
410
  8
SITES
 10
427554.1583557944977656
 20
514711.3326755840098485
 30
0.0
  0
VERTEX
  5
411
  8
SITES
 10
427562.7437179476837628
 20
514705.5724548106081784
 30
0.0
  0
VERTEX
  5
412
  8
SITES
 10
427562.0098979488830082
 20
514699.8397933464148082
 30
0.0
  0
VERTEX
  5
413
  8
SITES
 10
427555.5391843186807819
 20
514693.4071702035143971
 30
0.0
  0
VERTEX
  5
414
  8
SITES
 10
427546.2158700414001942
 20
514692.001048203674145
 30
0.0
  0
VERTEX
  5
415
  8
SITES
 10
427536.9052529557957314
 20
514694.8959716752287932
 30
0.0
  0
VERTEX
  5
416
  8
SITES
 10
427531.8979474807274528
 20
514698.4949892282020301
 30
0.0
  0
VERTEX
  5
417
  8
SITES
 10
427532.6401319346041419
 20
514707.0951136260991916
 30
0.0
  0
VERTEX
  5
418
  8
SITES
 10
427538.389821844000835
 20
514712.0961210390087217
 30
0.0
  0
SEQEND
  5
419
  8
SITES
  0
POLYLINE
  5
2E2
  8
SITES
 66
     1
 10
0.0
 20
0.0
 30
0.0
 70
     1
  0
VERTEX
  5
41A
  8
SITES
 10
428121.7216473518055864
 20
515133.3177890926017426
 30
0.0
  0
VERTEX
  5
41B
  8
SITES
 10
428125.282588129513897
 20
515125.4218505920143798
 30
0.0
  0
VERTEX
  5
41C
  8
SITES
 10
428122.3685816134093329
 20
515109.6596887659979984
 30
0.0
  0
VERTEX
  5
41D
  8
SITES
 10
428112.3030784789007157
 20
515099.653417204215657
 30
0.0
  0
VERTEX
  5
41E
  8
SITES
 10
428101.5354415006004274
 20
515094.6672549127833918
 30
0.0
  0
VERTEX
  5
41F
  8
SITES
 10
428094.3817802087869495
 20
515099.7064525731257163
 30
0.0
  0
VERTEX
  5
420
  8
SITES
 10
428090.101882892602589
 20
515106.8876641939277761
 30
0.0
  0
VERTEX
  5
421
  8
SITES
 10
428089.4104758431203663
 20
515115.4919325467199087
 30
0.0
  0
VERTEX
  5
422
  8
SITES
 10
428091.5822054528980516
 20
515122.6540554946986958
 30
0.0
  0
VERTEX
  5
423
  8
SITES
 10
428098.7761091563152149
 20
515131.2350048334919848
 30
0.0
  0
VERTEX
  5
424
  8
SITES
 10
428109.5458109425962903
 20
515136.938059932726901
 30
0.0
  0
SEQEND
  5
425
  8
SITES
  0
POLYLINE
  5
2E3
  8
SITES
 66
     1
 10
0.0
 20
0.0
 30
0.0
 70
     1
  0
VERTEX
  5
426
  8
SITES
 10
428101.0389474232215434
 20
515169.2216809947276488
 30
0.0
  0
VERTEX
  5
427
  8
SITES
 10
428106.7589257207000628
 20
515164.1868150579975918
 30
0.0
  0
VERTEX
  5
428
  8
SITES
 10
428108.8628644724958576
 20
515148.4097963665844873
 30
0.0
  0
VERTEX
  5
429
  8
SITES
 10
428102.3858529123244807
 20
515139.8266812391229905
 30
0.0
  0
VERTEX
  5
42A
  8
SITES
 10
428090.1929943584837019
 20
515137.7121163523988798
 30
0.0
  0
VERTEX
  5
42B
  8
SITES
 10
428080.8782303757034242
 20
515139.1733497572713532
 30
0.0
  0
VERTEX
  5
42C
  8
SITES
 10
428075.1667140417266637
 20
515147.0756831847247668
 30
0.0
  0
VERTEX
  5
42D
  8
SITES
 10
428076.6428043004125357
 20
515161.4083902786951512
 30
0.0
  0
VERTEX
  5
42E
  8
SITES
 10
428082.3987923603272066
 20
515168.5599867473938502
 30
0.0
  0
VERTEX
  5
42F
  8
SITES
 10
428095.3084425302222371
 20
515170.6723872107104398
 30
0.0
  0
SEQEND
  5
430
  8
SITES
  0
POLYLINE
  5
2E4
  8
SITES
 66
     1
 10
0.0
 20
0.0
 30
0.0
 70
     1
  0
VERTEX
  5
431
  8
SITES
 10
427955.4819744544220157
 20
515642.0599769555265084
 30
0.0
  0
VERTEX
  5
432
  8
SITES
 10
427962.6229535709717311
 20
515632.7196407872252166
 30
0.0
  0
VERTEX
  5
433
  8
SITES
 10
427963.3058138028136455
 20
515621.2480091425823048
 30
0.0
  0
VERTEX
  5
434
  8
SITES
 10
427961.119242621876765
 20
515609.067843969212845
 30
0.0
  0
VERTEX
  5
435
  8
SITES
 10
427949.6242017074255273
 20
515600.4996757816988975
 30
0.0
  0
VERTEX
  5
436
  8
SITES
 10
427937.4313502421719022
 20
515598.3850974728120491
 30
0.0
  0
VERTEX
  5
437
  8
SITES
 10
427925.2683020540280268
 20
515606.3065020820940845
 30
0.0
  0
VERTEX
  5
438
  8
SITES
 10
427921.7179758056881838
 20
515617.7866904080729
 30
0.0
  0
VERTEX
  5
439
  8
SITES
 10
427923.8684506104909815
 20
515617.7803968347143382
 30
0.0
  0
VERTEX
  5
43A
  8
SITES
 10
427946.8819389136042446
 20
515642.802241878292989
 30
0.0
  0
SEQEND
  5
43B
  8
SITES
  0
POLYLINE
  5
2E5
  8
SITES
 66
     1
 10
0.0
 20
0.0
 30
0.0
 70
     1
  0
VERTEX
  5
43C
  8
SITES
 10
426519.518700851185713
 20
515957.2104622235056013
 30
0.0
  0
VERTEX
  5
43D
  8
SITES
 10
426528.0933399106725119
 20
515947.8659380163880996
 30
0.0
  0
VERTEX
  5
43E
  8
SITES
 10
426527.3297459668247029
 20
515932.0972417768207379
 30
0.0
  0
VERTEX
  5
43F
  8
SITES
 10
426526.5662513240240514
 20
515916.3285457342281006
 30
0.0
  0
VERTEX
  5
440
  8
SITES
 10
426521.5079134771949612
 20
515902.7231004987261258
 30
0.0
  0
VERTEX
  5
441
  8
SITES
 10
426504.9566467165132053
 20
515881.2661993735819124
 30
0.0
  0
VERTEX
  5
442
  8
SITES
 10
426494.1825713618891314
 20
515874.1295684120850638
 30
0.0
  0
VERTEX
  5
443
  8
SITES
 10
426482.7213031796854921
 20
515877.0308480315725319
 30
0.0
  0
VERTEX
  5
444
  8
SITES
 10
426473.463800773024559
 20
515897.8472605139832012
 30
0.0
  0
VERTEX
  5
445
  8
SITES
 10
426475.6715934398816898
 20
515917.1960714890738018
 30
0.0
  0
VERTEX
  5
446
  8
SITES
 10
426480.7510691466159187
 20
515937.9699054189841263
 30
0.0
  0
VERTEX
  5
447
  8
SITES
 10
426489.4043693711282685
 20
515955.1490757127758116
 30
0.0
  0
VERTEX
  5
448
  8
SITES
 10
426498.0214845670270734
 20
515960.1415330821182579
 30
0.0
  0
VERTEX
  5
449
  8
SITES
 10
426506.6322084625717252
 20
515962.9834234716254286
 30
0.0
  0
SEQEND
  5
44A
  8
SITES
  0
POLYLINE
  5
2E6
  8
SITES
 66
     1
 10
0.0
 20
0.0
 30
0.0
 70
     1
  0
VERTEX
  5
44B
  8
SITES
 10
426548.2207656435202807
 20
516103.5813080715015531
 30
0.0
  0
VERTEX
  5
44C
  8
SITES
 10
426570.4475563815794885
 20
516104.9492160868248902
 30
0.0
  0
VERTEX
  5
44D
  8
SITES
 10
426583.3361166405957192
 20
516099.8930476725799963
 30
0.0
  0
VERTEX
  5
44E
  8
SITES
 10
426584.0359972461010329
 20
516094.1560705375159159
 30
0.0
  0
VERTEX
  5
44F
  8
SITES
 10
426571.0943473175866529
 20
516081.2909097176743671
 30
0.0
  0
VERTEX
  5
450
  8
SITES
 10
426555.3214223100803792
 20
516080.6207198312040418
 30
0.0
  0
VERTEX
  5
451
  8
SITES
 10
426548.8739472589804791
 20
516082.0735704607213847
 30
0.0
  0
VERTEX
  5
452
  8
SITES
 10
426544.5834304711897857
 20
516085.6705976779921912
 30
0.0
  0
VERTEX
  5
453
  8
SITES
 10
426541.7479277441161685
 20
516096.4318889898131602
 30
0.0
  0
VERTEX
  5
454
  8
SITES
 10
426545.3576361837913282
 20
516105.0235406049760059
 30
0.0
  0
SEQEND
  5
455
  8
SITES
  0
POLYLINE
  5
2E7
  8
SITES
 66
     1
 10
0.0
 20
0.0
 30
0.0
 70
     1
  0
VERTEX
  5
456
  8
SITES
 10
426549.0905277087003924
 20
516155.1928622685954906
 30
0.0
  0
VERTEX
  5
457
  8
SITES
 10
426556.2357210998889059
 20
516147.286047084198799
 30
0.0
  0
VERTEX
  5
458
  8
SITES
 10
426556.2166495519923046
 20
516140.8344447201816365
 30
0.0
  0
VERTEX
  5
459
  8
SITES
 10
426549.0246595360222273
 20
516132.9703989477129653
 30
0.0
  0
VERTEX
  5
45A
  8
SITES
 10
426532.5328830342041329
 20
516131.5852817361010239
 30
0.0
  0
VERTEX
  5
45B
  8
SITES
 10
426513.6666369599988684
 20
516141.2191715005901642
 30
0.0
  0
VERTEX
  5
45C
  8
SITES
 10
426513.78828867780976
 20
516149.3163277644780464
 30
0.0
  0
VERTEX
  5
45D
  8
SITES
 10
426515.6202436349121854
 20
516151.7177963285939768
 30
0.0
  0
VERTEX
  5
45E
  8
SITES
 10
426516.3823323018150404
 20
516152.9178303998196498
 30
0.0
  0
VERTEX
  5
45F
  8
SITES
 10
426519.6973107598023489
 20
516154.5631751674809493
 30
0.0
  0
VERTEX
  5
460
  8
SITES
 10
426534.0429465384804644
 20
516157.3880623637815006
 30
0.0
  0
SEQEND
  5
461
  8
SITES
  0
POLYLINE
  5
2E8
  8
SITES
 66
     1
 10
0.0
 20
0.0
 30
0.0
 70
     1
  0
VERTEX
  5
462
  8
SITES
 10
427968.2892125821090303
 20
516335.9383834999753162
 30
0.0
  0
VERTEX
  5
463
  8
SITES
 10
427966.0919473029207438
 20
516320.174055332725402
 30
0.0
  0
VERTEX
  5
464
  8
SITES
 10
427956.0242152670980431
 20
516309.451064724184107
 30
0.0
  0
VERTEX
  5
465
  8
SITES
 10
427938.7879665596992709
 20
516298.7493070333730429
 30
0.0
  0
VERTEX
  5
466
  8
SITES
 10
427930.9004951508832164
 20
516298.0558110157726333
 30
0.0
  0
VERTEX
  5
467
  8
SITES
 10
427925.1762782160076313
 20
516301.6570750632090494
 30
0.0
  0
VERTEX
  5
468
  8
SITES
 10
427923.0682677797158249
 20
516316.0003975788713433
 30
0.0
  0
VERTEX
  5
469
  8
SITES
 10
427925.9674823802197352
 20
516326.7446193249779753
 30
0.0
  0
VERTEX
  5
46A
  8
SITES
 10
427930.2749216951197013
 20
516328.8825150387128815
 30
0.0
  0
VERTEX
  5
46B
  8
SITES
 10
427948.2280609225854278
 20
516339.5821107389056124
 30
0.0
  0
VERTEX
  5
46C
  8
SITES
 10
427964.0050676048849709
 20
516341.685996112821158
 30
0.0
  0
SEQEND
  5
46D
  8
SITES
  0
POLYLINE
  5
2E9
  8
SITES
 66
     1
 10
0.0
 20
0.0
 30
0.0
 70
     1
  0
VERTEX
  5
46E
  8
SITES
 10
428033.0095310154138133
 20
516404.5648140928824432
 30
0.0
  0
VERTEX
  5
46F
  8
SITES
 10
428044.4578700027195737
 20
516397.3622867494123057
 30
0.0
  0
VERTEX
  5
470
  8
SITES
 10
428052.3092712503275834
 20
516385.8693231779034249
 30
0.0
  0
VERTEX
  5
471
  8
SITES
 10
428053.7195609307964332
 20
516377.9797863003914244
 30
0.0
  0
VERTEX
  5
472
  8
SITES
 10
428050.0971654888126068
 20
516365.0871482669026591
 30
0.0
  0
VERTEX
  5
473
  8
SITES
 10
428040.7652927380986512
 20
516360.8136176589759998
 30
0.0
  0
VERTEX
  5
474
  8
SITES
 10
428028.5789315289002843
 20
516360.8496909695095383
 30
0.0
  0
VERTEX
  5
475
  8
SITES
 10
428008.5262290007085539
 20
516367.3608845797134563
 30
0.0
  0
VERTEX
  5
476
  8
SITES
 10
427997.7946835923939943
 20
516374.56114904867718
 30
0.0
  0
VERTEX
  5
477
  8
SITES
 10
427994.2338187450077385
 20
516382.4571739694220014
 30
0.0
  0
VERTEX
  5
478
  8
SITES
 10
427994.269991027074866
 20
516394.6436340648215264
 30
0.0
  0
VERTEX
  5
479
  8
SITES
 10
428001.4639655618229881
 20
516403.2245048024924472
 30
0.0
  0
VERTEX
  5
47A
  8
SITES
 10
428012.2272576107061468
 20
516406.7769179214956239
 30
0.0
  0
SEQEND
  5
47B
  8
SITES
  0
POLYLINE
  5
2EA
  8
SITES
 66
     1
 10
0.0
 20
0.0
 30
0.0
 70
     1
  0
VERTEX
  5
47C
  8
SITES
 10
427758.475221652595792
 20
516411.8299825455178507
 30
0.0
  0
VERTEX
  5
47D
  8
SITES
 10
427760.6045652944012545
 20
516404.6550800949917175
 30
0.0
  0
VERTEX
  5
47E
  8
SITES
 10
427754.8357257117168047
 20
516393.2025230195722543
 30
0.0
  0
VERTEX
  5
47F
  8
SITES
 10
427749.800781955011189
 20
516387.4825339213712141
 30
0.0
  0
VERTEX
  5
480
  8
SITES
 10
427726.1341537379194051
 20
516383.9683590228087269
 30
0.0
  0
VERTEX
  5
481
  8
SITES
 10
427719.6909846129128709
 20
516386.8548917816951871
 30
0.0
  0
VERTEX
  5
482
  8
SITES
 10
427716.1300220647244714
 20
516394.7509108979138546
 30
0.0
  0
VERTEX
  5
483
  8
SITES
 10
427718.2954372870735824
 20
516399.7624605927849188
 30
0.0
  0
VERTEX
  5
484
  8
SITES
 10
427741.2708299331716262
 20
516411.8809952465235256
 30
0.0
  0
VERTEX
  5
485
  8
SITES
 10
427749.877251865924336
 20
516413.2891215633135289
 30
0.0
  0
SEQEND
  5
486
  8
SITES
  0
POLYLINE
  5
2EB
  8
SITES
 66
     1
 10
0.0
 20
0.0
 30
0.0
 70
     1
  0
VERTEX
  5
487
  8
SITES
 10
428158.5558209624141455
 20
516437.1681151686934754
 30
0.0
  0
VERTEX
  5
488
  8
SITES
 10
428169.2809830125770532
 20
516427.8171732543269172
 30
0.0
  0
VERTEX
  5
489
  8
SITES
 10
428171.4102290517184883
 20
516420.6423632245860063
 30
0.0
  0
VERTEX
  5
48A
  8
SITES
 10
428170.6700436359969899
 20
516412.7591133523965254
 30
0.0
  0
VERTEX
  5
48B
  8
SITES
 10
428166.3562127962941304
 20
516408.4708390589803457
 30
0.0
  0
VERTEX
  5
48C
  8
SITES
 10
428144.110565553419292
 20
516400.6512811154243536
 30
0.0
  0
VERTEX
  5
48D
  8
SITES
 10
428130.4882541110273451
 20
516399.9747871445724741
 30
0.0
  0
VERTEX
  5
48E
  8
SITES
 10
428119.7546415081014857
 20
516406.4583609462133609
 30
0.0
  0
VERTEX
  5
48F
  8
SITES
 10
428111.913953504874371
 20
516421.5354861678206362
 30
0.0
  0
VERTEX
  5
490
  8
SITES
 10
428113.3688675711164251
 20
516428.6997798908269033
 30
0.0
  0
VERTEX
  5
491
  8
SITES
 10
428118.4122675785911269
 20
516437.2870427470770665
 30
0.0
  0
VERTEX
  5
492
  8
SITES
 10
428127.0357013297034428
 20
516444.430106888175942
 30
0.0
  0
VERTEX
  5
493
  8
SITES
 10
428134.2063844330259599
 20
516445.1256692393799312
 30
0.0
  0
SEQEND
  5
494
  8
SITES
  0
POLYLINE
  5
2EC
  8
SITES
 66
     1
 10
0.0
 20
0.0
 30
0.0
 70
     1
  0
VERTEX
  5
495
  8
SITES
 10
428617.8661819446715526
 20
516641.2476615546038374
 30
0.0
  0
VERTEX
  5
496
  8
SITES
 10
428619.2594773864257149
 20
516627.6233709850930609
 30
0.0
  0
VERTEX
  5
497
  8
SITES
 10
428618.536196539294906
 20
516625.4749548495165072
 30
0.0
  0
VERTEX
  5
498
  8
SITES
 10
428617.8172409731778316
 20
516624.7602246340247802
 30
0.0
  0
VERTEX
  5
499
  8
SITES
 10
428604.163173294509761
 20
516613.3310292123933323
 30
0.0
  0
VERTEX
  5
49A
  8
SITES
 10
428589.8198279803036712
 20
516611.2230042748269625
 30
0.0
  0
VERTEX
  5
49B
  8
SITES
 10
428584.8104288610047661
 20
516614.1052145388093777
 30
0.0
  0
VERTEX
  5
49C
  8
SITES
 10
428579.8116430013906211
 20
516620.5717887990758754
 30
0.0
  0
VERTEX
  5
49D
  8
SITES
 10
428579.1266901941853575
 20
516631.3265440589166246
 30
0.0
  0
VERTEX
  5
49E
  8
SITES
 10
428584.1615412734099664
 20
516637.0464481472736225
 30
0.0
  0
VERTEX
  5
49F
  8
SITES
 10
428587.0396256853709929
 20
516640.6222618654719554
 30
0.0
  0
VERTEX
  5
4A0
  8
SITES
 10
428589.1944295156863518
 20
516642.0495597003027797
 30
0.0
  0
VERTEX
  5
4A1
  8
SITES
 10
428610.7082662048051134
 20
516644.8531522505218163
 30
0.0
  0
SEQEND
  5
4A2
  8
SITES
  0
POLYLINE
  5
2ED
  8
SITES
 66
     1
 10
0.0
 20
0.0
 30
0.0
 70
     1
  0
VERTEX
  5
4A3
  8
SITES
 10
428510.6600040086195804
 20
516749.8104556354228407
 30
0.0
  0
VERTEX
  5
4A4
  8
SITES
 10
428522.8379304893896915
 20
516746.906923356174957
 30
0.0
  0
VERTEX
  5
4A5
  8
SITES
 10
428526.4114819946116768
 20
516743.3120473847957328
 30
0.0
  0
VERTEX
  5
4A6
  8
SITES
 10
428524.2376167256152257
 20
516735.4331146809272468
 30
0.0
  0
VERTEX
  5
4A7
  8
SITES
 10
428509.8560503376065753
 20
516720.4218169826781377
 30
0.0
  0
VERTEX
  5
4A8
  8
SITES
 10
428493.3515185127034783
 20
516714.7359126948285848
 30
0.0
  0
VERTEX
  5
4A9
  8
SITES
 10
428478.3040600838139653
 20
516716.9311030277749524
 30
0.0
  0
VERTEX
  5
4AA
  8
SITES
 10
428469.748722980322782
 20
516732.7271911117131822
 30
0.0
  0
VERTEX
  5
4AB
  8
SITES
 10
428479.0931768071022816
 20
516741.3017908064066432
 30
0.0
  0
VERTEX
  5
4AC
  8
SITES
 10
428500.6241063434281386
 20
516749.8401297209202312
 30
0.0
  0
SEQEND
  5
4AD
  8
SITES
  0
POLYLINE
  5
2EE
  8
SITES
 66
     1
 10
0.0
 20
0.0
 30
0.0
 70
     1
  0
VERTEX
  5
4AE
  8
SITES
 10
427291.0375021680956706
 20
516805.0946607281803153
 30
0.0
  0
VERTEX
  5
4AF
  8
SITES
 10
427295.3194843084784225
 20
516798.630272313777823
 30
0.0
  0
VERTEX
  5
4B0
  8
SITES
 10
427295.3067104290239513
 20
516794.3291292667854577
 30
0.0
  0
VERTEX
  5
4B1
  8
SITES
 10
427290.9801194604951888
 20
516785.7396172888111323
 30
0.0
  0
VERTEX
  5
4B2
  8
SITES
 10
427286.6683647626196034
 20
516782.1681388322031125
 30
0.0
  0
VERTEX
  5
4B3
  8
SITES
 10
427276.6367227482260205
 20
516783.6315926720853895
 30
0.0
  0
VERTEX
  5
4B4
  8
SITES
 10
427271.6548491920111701
 20
516795.8329668932128698
 30
0.0
  0
VERTEX
  5
4B5
  8
SITES
 10
427278.1277864736039191
 20
516802.9824107409804128
 30
0.0
  0
VERTEX
  5
4B6
  8
SITES
 10
427286.7385214410023764
 20
516805.8243250118102878
 30
0.0
  0
SEQEND
  5
4B7
  8
SITES
  0
POLYLINE
  5
2EF
  8
SITES
 66
     1
 10
0.0
 20
0.0
 30
0.0
 70
     1
  0
VERTEX
  5
4B8
  8
SITES
 10
426204.481560644286219
 20
516922.1699704221100546
 30
0.0
  0
VERTEX
  5
4B9
  8
SITES
 10
426210.9247091187862679
 20
516919.2834575622109696
 30
0.0
  0
VERTEX
  5
4BA
  8
SITES
 10
426221.6457060733227991
 20
516908.4986981638940051
 30
0.0
  0
VERTEX
  5
4BB
  8
SITES
 10
426231.6328174127847888
 20
516891.9812915871152654
 30
0.0
  0
VERTEX
  5
4BC
  8
SITES
 10
426225.1385776164825074
 20
516877.6632793545722961
 30
0.0
  0
VERTEX
  5
4BD
  8
SITES
 10
426212.9307507185731083
 20
516870.5308504065033048
 30
0.0
  0
VERTEX
  5
4BE
  8
SITES
 10
426199.316855201323051
 20
516872.7217969991033897
 30
0.0
  0
VERTEX
  5
4BF
  8
SITES
 10
426178.5726937729050405
 20
516887.8374576200149022
 30
0.0
  0
VERTEX
  5
4C0
  8
SITES
 10
426174.3203916681814007
 20
516904.3378652342944406
 30
0.0
  0
VERTEX
  5
4C1
  8
SITES
 10
426178.6620021234848537
 20
516917.9453739140881225
 30
0.0
  0
VERTEX
  5
4C2
  8
SITES
 10
426190.8612787947058678
 20
516922.2104495925013907
 30
0.0
  0
SEQEND
  5
4C3
  8
SITES
  0
POLYLINE
  5
2F0
  8
SITES
 66
     1
 10
0.0
 20
0.0
 30
0.0
 70
     1
  0
VERTEX
  5
4C4
  8
SITES
 10
427485.0701944240136072
 20
516967.2461615264764987
 30
0.0
  0
VERTEX
  5
4C5
  8
SITES
 10
427481.4667819628957659
 20
516960.8051539164152928
 30
0.0
  0
VERTEX
  5
4C6
  8
SITES
 10
427465.6811495861038566
 20
516955.8338827855768614
 30
0.0
  0
VERTEX
  5
4C7
  8
SITES
 10
427459.233756348316092
 20
516957.2867227367823943
 30
0.0
  0
VERTEX
  5
4C8
  8
SITES
 10
427457.0917319635045715
 20
516960.1605720372172073
 30
0.0
  0
VERTEX
  5
4C9
  8
SITES
 10
427459.9718673567986116
 20
516964.4531687573180534
 30
0.0
  0
VERTEX
  5
4CA
  8
SITES
 10
427469.3101060758926906
 20
516970.8771800028043799
 30
0.0
  0
VERTEX
  5
4CB
  8
SITES
 10
427482.9366179584758356
 20
516972.9873743265052326
 30
0.0
  0
SEQEND
  5
4CC
  8
SITES
  0
POLYLINE
  5
2F1
  8
SITES
 66
     1
 10
0.0
 20
0.0
 30
0.0
 70
     1
  0
VERTEX
  5
4CD
  8
SITES
 10
428228.0897038669208996
 20
516947.783370763878338
 30
0.0
  0
VERTEX
  5
4CE
  8
SITES
 10
428230.2318320989143103
 20
516944.909615830576513
 30
0.0
  0
VERTEX
  5
4CF
  8
SITES
 10
428227.3303700357209891
 20
516933.4484888549195603
 30
0.0
  0
VERTEX
  5
4D0
  8
SITES
 10
428218.0006610380951315
 20
516929.8919350450742058
 30
0.0
  0
VERTEX
  5
4D1
  8
SITES
 10
428212.9912641327246092
 20
516932.7742384796729311
 30
0.0
  0
VERTEX
  5
4D2
  8
SITES
 10
428211.5788006999064237
 20
516939.9469843661063351
 30
0.0
  0
VERTEX
  5
4D3
  8
SITES
 10
428214.46110397571465
 20
516944.9563813579152338
 30
0.0
  0
VERTEX
  5
4D4
  8
SITES
 10
428222.3571282714256085
 20
516948.5172595889889635
 30
0.0
  0
SEQEND
  5
4D5
  8
SITES
  0
POLYLINE
  5
2F2
  8
SITES
 66
     1
 10
0.0
 20
0.0
 30
0.0
 70
     1
  0
VERTEX
  5
4D6
  8
SITES
 10
427769.4828114776173607
 20
516965.2385387244867161
 30
0.0
  0
VERTEX
  5
4D7
  8
SITES
 10
427775.1218324779183604
 20
516954.4239246214274317
 30
0.0
  0
VERTEX
  5
4D8
  8
SITES
 10
427776.5511102029122412
 20
516951.2141591475810856
 30
0.0
  0
VERTEX
  5
4D9
  8
SITES
 10
427777.5870466200285591
 20
516948.347749829699751
 30
0.0
  0
VERTEX
  5
4DA
  8
SITES
 10
427778.3237733737914823
 20
516945.4355726739158854
 30
0.0
  0
VERTEX
  5
4DB
  8
SITES
 10
427778.6373129215207882
 20
516942.7566241641761735
 30
0.0
  0
VERTEX
  5
4DC
  8
SITES
 10
427778.5317140592960641
 20
516940.2747605904005468
 30
0.0
  0
VERTEX
  5
4DD
  8
SITES
 10
427778.0058492288808338
 20
516937.9724240492796525
 30
0.0
  0
VERTEX
  5
4DE
  8
SITES
 10
427776.8956558614154346
 20
516934.9256678724195808
 30
0.0
  0
VERTEX
  5
4DF
  8
SITES
 10
427775.8199808257049881
 20
516932.7791438442072831
 30
0.0
  0
VERTEX
  5
4E0
  8
SITES
 10
427774.5951318208826706
 20
516931.1662237591226585
 30
0.0
  0
VERTEX
  5
4E1
  8
SITES
 10
427773.2041749826748855
 20
516930.0871770256781019
 30
0.0
  0
VERTEX
  5
4E2
  8
SITES
 10
427771.8071621563285589
 20
516929.5195143314194866
 30
0.0
  0
VERTEX
  5
4E3
  8
SITES
 10
427770.1309964983956888
 20
516929.208196877327282
 30
0.0
  0
VERTEX
  5
4E4
  8
SITES
 10
427768.1619839274790138
 20
516929.1485372335882857
 30
0.0
  0
VERTEX
  5
4E5
  8
SITES
 10
427765.8020353688043542
 20
516929.3372429048176855
 30
0.0
  0
VERTEX
  5
4E6
  8
SITES
 10
427763.4143810759996995
 20
516929.8202518412144855
 30
0.0
  0
VERTEX
  5
4E7
  8
SITES
 10
427760.9699284170055762
 20
516930.6983065942768008
 30
0.0
  0
VERTEX
  5
4E8
  8
SITES
 10
427758.5120976367034018
 20
516931.9565265697892755
 30
0.0
  0
VERTEX
  5
4E9
  8
SITES
 10
427756.1197335707838647
 20
516933.5549861860927194
 30
0.0
  0
VERTEX
  5
4EA
  8
SITES
 10
427753.7387864097254351
 20
516935.8349983320222236
 30
0.0
  0
VERTEX
  5
4EB
  8
SITES
 10
427751.6040154877118766
 20
516938.9357315647066571
 30
0.0
  0
VERTEX
  5
4EC
  8
SITES
 10
427749.8225985529716127
 20
516942.469373720115982
 30
0.0
  0
VERTEX
  5
4ED
  8
SITES
 10
427746.4989855160238221
 20
516950.2527056385879405
 30
0.0
  0
VERTEX
  5
4EE
  8
SITES
 10
427741.9248393970774487
 20
516959.303416307317093
 30
0.0
  0
VERTEX
  5
4EF
  8
SITES
 10
427740.2080109490198083
 20
516963.2442576924804598
 30
0.0
  0
VERTEX
  5
4F0
  8
SITES
 10
427739.0151623692945577
 20
516967.3378308854880743
 30
0.0
  0
VERTEX
  5
4F1
  8
SITES
 10
427738.7405907718930393
 20
516969.2357658257824369
 30
0.0
  0
VERTEX
  5
4F2
  8
SITES
 10
427738.6752800476970151
 20
516971.0647363609750755
 30
0.0
  0
VERTEX
  5
4F3
  8
SITES
 10
427738.6093923303997144
 20
516975.0899671111255884
 30
0.0
  0
VERTEX
  5
4F4
  8
SITES
 10
427738.7642418402829207
 20
516977.0312082453165203
 30
0.0
  0
VERTEX
  5
4F5
  8
SITES
 10
427739.2625143846962601
 20
516978.6228176046861336
 30
0.0
  0
VERTEX
  5
4F6
  8
SITES
 10
427740.134506736183539
 20
516979.6627081591286696
 30
0.0
  0
VERTEX
  5
4F7
  8
SITES
 10
427743.6314291196176782
 20
516981.8826948694186285
 30
0.0
  0
VERTEX
  5
4F8
  8
SITES
 10
427747.2045297162840143
 20
516983.5371020763996057
 30
0.0
  0
VERTEX
  5
4F9
  8
SITES
 10
427750.5809390888898633
 20
516984.5014816998736933
 30
0.0
  0
VERTEX
  5
4FA
  8
SITES
 10
427753.6204538273741491
 20
516984.7386046599713154
 30
0.0
  0
VERTEX
  5
4FB
  8
SITES
 10
427755.0445957414922304
 20
516984.347347867093049
 30
0.0
  0
VERTEX
  5
4FC
  8
SITES
 10
427756.6975800307118334
 20
516983.2974488420877606
 30
0.0
  0
VERTEX
  5
4FD
  8
SITES
 10
427758.5645625222241506
 20
516981.5979193613748066
 30
0.0
  0
VERTEX
  5
4FE
  8
SITES
 10
427760.6172170385252684
 20
516979.2743154977215454
 30
0.0
  0
VERTEX
  5
4FF
  8
SITES
 10
427762.8711436776211485
 20
516976.2929481047904119
 30
0.0
  0
VERTEX
  5
500
  8
SITES
 10
427765.1944323439965956
 20
516972.8136484592105262
 30
0.0
  0
VERTEX
  5
501
  8
SITES
 10
427767.4708860610844567
 20
516969.0081020147772506
 30
0.0
  0
SEQEND
  5
502
  8
SITES
  0
POLYLINE
  5
2F3
  8
SITES
 66
     1
 10
0.0
 20
0.0
 30
0.0
 70
     1
  0
VERTEX
  5
503
  8
SITES
 10
427855.5622594286105596
 20
516984.3382669285056181
 30
0.0
  0
VERTEX
  5
504
  8
SITES
 10
427844.0586031434941106
 20
516972.9026946282247081
 30
0.0
  0
VERTEX
  5
505
  8
SITES
 10
427832.6018112510209903
 20
516977.237835802603513
 30
0.0
  0
VERTEX
  5
506
  8
SITES
 10
427833.344146792718675
 20
516985.83787164487876
 30
0.0
  0
VERTEX
  5
507
  8
SITES
 10
427841.2507730119978078
 20
516992.9830047927098349
 30
0.0
  0
VERTEX
  5
508
  8
SITES
 10
427854.1625680839060806
 20
516995.8121552892262116
 30
0.0
  0
SEQEND
  5
509
  8
SITES
  0
POLYLINE
  5
2F4
  8
SITES
 66
     1
 10
0.0
 20
0.0
 30
0.0
 70
     1
  0
VERTEX
  5
50A
  8
SITES
 10
428662.8928795286919922
 20
517079.1113582762191072
 30
0.0
  0
VERTEX
  5
50B
  8
SITES
 10
428668.6042431750101969
 20
517071.2090404502814636
 30
0.0
  0
VERTEX
  5
50C
  8
SITES
 10
428670.722894191974774
 20
517060.449959738412872
 30
0.0
  0
VERTEX
  5
50D
  8
SITES
 10
428667.130081724608317
 20
517057.5931970017263666
 30
0.0
  0
VERTEX
  5
50E
  8
SITES
 10
428649.9257500364910811
 20
517057.6442820418742485
 30
0.0
  0
VERTEX
  5
50F
  8
SITES
 10
428639.1858268827782013
 20
517061.9772679574089125
 30
0.0
  0
VERTEX
  5
510
  8
SITES
 10
428642.0893504210980609
 20
517074.155100793519523
 30
0.0
  0
VERTEX
  5
511
  8
SITES
 10
428649.9938295555766672
 20
517080.5833572344272397
 30
0.0
  0
SEQEND
  5
512
  8
SITES
  0
POLYLINE
  5
2F5
  8
SITES
 66
     1
 10
0.0
 20
0.0
 30
0.0
 70
     1
  0
VERTEX
  5
513
  8
SITES
 10
427903.0741119345766492
 20
517094.9861369093996473
 30
0.0
  0
VERTEX
  5
514
  8
SITES
 10
427902.3082987720845267
 20
517078.5006914893165231
 30
0.0
  0
VERTEX
  5
515
  8
SITES
 10
427893.6976521015749313
 20
517075.6588669918128289
 30
0.0
  0
VERTEX
  5
516
  8
SITES
 10
427883.6659935779171064
 20
517077.1223157370113768
 30
0.0
  0
VERTEX
  5
517
  8
SITES
 10
427876.5208578822785057
 20
517085.0289411920239218
 30
0.0
  0
VERTEX
  5
518
  8
SITES
 10
427877.2569056103820913
 20
517091.4785035646054894
 30
0.0
  0
VERTEX
  5
519
  8
SITES
 10
427879.4180892978911288
 20
517095.0563760410877876
 30
0.0
  0
VERTEX
  5
51A
  8
SITES
 10
427888.0287355235195719
 20
517097.8982008587918244
 30
0.0
  0
VERTEX
  5
51B
  8
SITES
 10
427897.3520497877034359
 20
517099.3042808385798708
 30
0.0
  0
SEQEND
  5
51C
  8
SITES
  0
POLYLINE
  5
2F6
  8
SITES
 66
     1
 10
0.0
 20
0.0
 30
0.0
 70
     1
  0
VERTEX
  5
51D
  8
SITES
 10
426184.590170442010276
 20
517224.7450155885890126
 30
0.0
  0
VERTEX
  5
51E
  8
SITES
 10
426186.6854359458084218
 20
517206.1004298984771594
 30
0.0
  0
VERTEX
  5
51F
  8
SITES
 10
426179.4913123758160509
 20
517197.5193834932870232
 30
0.0
  0
VERTEX
  5
520
  8
SITES
 10
426172.3164427495794371
 20
517195.3901337765273638
 30
0.0
  0
VERTEX
  5
521
  8
SITES
 10
426144.3866936290869489
 20
517204.7921845249948092
 30
0.0
  0
VERTEX
  5
522
  8
SITES
 10
426142.99977068498265
 20
517220.5672529772273265
 30
0.0
  0
VERTEX
  5
523
  8
SITES
 10
426155.9372466960921884
 20
517231.9986607760074548
 30
0.0
  0
VERTEX
  5
524
  8
SITES
 10
426173.1481541760731488
 20
517234.098250070004724
 30
0.0
  0
SEQEND
  5
525
  8
SITES
  0
POLYLINE
  5
2F7
  8
SITES
 66
     1
 10
0.0
 20
0.0
 30
0.0
 70
     1
  0
VERTEX
  5
526
  8
SITES
 10
427690.1484038162743673
 20
517330.0301833758712746
 30
0.0
  0
VERTEX
  5
527
  8
SITES
 10
427697.2913797929068096
 20
517321.4066747938049957
 30
0.0
  0
VERTEX
  5
528
  8
SITES
 10
427702.9921274817897938
 20
517309.9201235519140027
 30
0.0
  0
VERTEX
  5
529
  8
SITES
 10
427702.1901793217984959
 20
517281.2481347129796632
 30
0.0
  0
VERTEX
  5
52A
  8
SITES
 10
427697.1467029986088164
 20
517272.6608698565978557
 30
0.0
  0
VERTEX
  5
52B
  8
SITES
 10
427689.2506920892046764
 20
517269.0999897994915955
 30
0.0
  0
VERTEX
  5
52C
  8
SITES
 10
427683.5307924911030568
 20
517274.1350201084860601
 30
0.0
  0
VERTEX
  5
52D
  8
SITES
 10
427677.1217005518847145
 20
517288.4911975070717745
 30
0.0
  0
VERTEX
  5
52E
  8
SITES
 10
427677.94496201450238
 20
517324.3315968075185083
 30
0.0
  0
VERTEX
  5
52F
  8
SITES
 10
427683.6988441018038429
 20
517330.7662267739069648
 30
0.0
  0
SEQEND
  5
530
  8
SITES
  0
POLYLINE
  5
2F8
  8
SITES
 66
     1
 10
0.0
 20
0.0
 30
0.0
 70
     1
  0
VERTEX
  5
531
  8
SITES
 10
428956.052149931085296
 20
517337.0099944737157784
 30
0.0
  0
VERTEX
  5
532
  8
SITES
 10
428956.7520523437997326
 20
517331.2730849161162041
 30
0.0
  0
VERTEX
  5
533
  8
SITES
 10
428954.5780964185833
 20
517323.3941402240889147
 30
0.0
  0
VERTEX
  5
534
  8
SITES
 10
428950.9832217188086361
 20
517319.8205795782851055
 30
0.0
  0
VERTEX
  5
535
  8
SITES
 10
428943.7785423879977316
 20
517307.6555038710939698
 30
0.0
  0
VERTEX
  5
536
  8
SITES
 10
428933.0130713999969885
 20
517303.3862644127220847
 30
0.0
  0
VERTEX
  5
537
  8
SITES
 10
428927.2847078142222017
 20
517305.5538363854284398
 30
0.0
  0
VERTEX
  5
538
  8
SITES
 10
428924.4280409257044084
 20
517309.146649559319485
 30
0.0
  0
VERTEX
  5
539
  8
SITES
 10
428923.7260774816968478
 20
517314.1666653297143057
 30
0.0
  0
VERTEX
  5
53A
  8
SITES
 10
428927.3337204640265554
 20
517322.0412865881226026
 30
0.0
  0
VERTEX
  5
53B
  8
SITES
 10
428946.7352955213864334
 20
517337.7544859349145554
 30
0.0
  0
SEQEND
  5
53C
  8
SITES
  0
POLYLINE
  5
2F9
  8
SITES
 66
     1
 10
0.0
 20
0.0
 30
0.0
 70
     1
  0
VERTEX
  5
53D
  8
SITES
 10
427438.5727234543883242
 20
517483.5220748200081289
 30
0.0
  0
VERTEX
  5
53E
  8
SITES
 10
427435.6308218786725774
 20
517458.4407419146155007
 30
0.0
  0
VERTEX
  5
53F
  8
SITES
 10
427432.0338013494038023
 20
517454.1502029533148743
 30
0.0
  0
VERTEX
  5
540
  8
SITES
 10
427409.0605191583163105
 20
517442.7487074134987779
 30
0.0
  0
VERTEX
  5
541
  8
SITES
 10
427402.6066415159148164
 20
517442.0510668869828805
 30
0.0
  0
VERTEX
  5
542
  8
SITES
 10
427392.5835385142127052
 20
517446.3819672570098191
 30
0.0
  0
VERTEX
  5
543
  8
SITES
 10
427387.5868151903850958
 20
517453.5653021531761624
 30
0.0
  0
VERTEX
  5
544
  8
SITES
 10
427389.0503521441714838
 20
517463.5970495914807543
 30
0.0
  0
VERTEX
  5
545
  8
SITES
 10
427404.1659287479124032
 20
517484.3409971647779457
 30
0.0
  0
VERTEX
  5
546
  8
SITES
 10
427412.7894281517947093
 20
517491.4839716451242566
 30
0.0
  0
VERTEX
  5
547
  8
SITES
 10
427428.5708297794917598
 20
517495.0214821071131155
 30
0.0
  0
SEQEND
  5
548
  8
SITES
  0
POLYLINE
  5
2FA
  8
SITES
 66
     1
 10
0.0
 20
0.0
 30
0.0
 70
     1
  0
VERTEX
  5
549
  8
SITES
 10
428930.936407379922457
 20
517542.1192394883837551
 30
0.0
  0
VERTEX
  5
54A
  8
SITES
 10
428931.6276687257923186
 20
517533.5149564819876105
 30
0.0
  0
VERTEX
  5
54B
  8
SITES
 10
428918.67980416782666
 20
517518.499591956322547
 30
0.0
  0
VERTEX
  5
54C
  8
SITES
 10
428906.4954765000729822
 20
517519.2526231132214889
 30
0.0
  0
VERTEX
  5
54D
  8
SITES
 10
428902.2071821289719082
 20
517523.5664500704151578
 30
0.0
  0
VERTEX
  5
54E
  8
SITES
 10
428901.5223041906137951
 20
517534.321212814305909
 30
0.0
  0
VERTEX
  5
54F
  8
SITES
 10
428915.1786168778198771
 20
517546.4671424562111497
 30
0.0
  0
VERTEX
  5
550
  8
SITES
 10
428925.2208085117163137
 20
517548.5878689120290801
 30
0.0
  0
SEQEND
  5
551
  8
SITES
  0
POLYLINE
  5
2FB
  8
SITES
 66
     1
 10
0.0
 20
0.0
 30
0.0
 70
     1
  0
VERTEX
  5
552
  8
SITES
 10
428963.3413222192903049
 20
517591.4858494031941518
 30
0.0
  0
VERTEX
  5
553
  8
SITES
 10
428966.1980918914778158
 20
517587.8930380275123753
 30
0.0
  0
VERTEX
  5
554
  8
SITES
 10
428964.0219800284830853
 20
517579.2972980702179484
 30
0.0
  0
VERTEX
  5
555
  8
SITES
 10
428953.9499342204071581
 20
517567.1407610232708976
 30
0.0
  0
VERTEX
  5
556
  8
SITES
 10
428948.9299185589770786
 20
517566.4387942745233886
 30
0.0
  0
VERTEX
  5
557
  8
SITES
 10
428941.7443956063943915
 20
517560.7253556923242286
 30
0.0
  0
VERTEX
  5
558
  8
SITES
 10
428937.4454955806722865
 20
517561.4549151302198879
 30
0.0
  0
VERTEX
  5
559
  8
SITES
 10
428937.4497175514115952
 20
517562.8886021021171473
 30
0.0
  0
VERTEX
  5
55A
  8
SITES
 10
428933.8655499299056828
 20
517562.8993069761199877
 30
0.0
  0
VERTEX
  5
55B
  8
SITES
 10
428928.8603612898150459
 20
517567.2152946371934377
 30
0.0
  0
VERTEX
  5
55C
  8
SITES
 10
428927.454366710386239
 20
517576.5385319557972252
 30
0.0
  0
VERTEX
  5
55D
  8
SITES
 10
428946.8560318017262034
 20
517592.2516440495965071
 30
0.0
  0
SEQEND
  5
55E
  8
SITES
  0
POLYLINE
  5
2FC
  8
SITES
 66
     1
 10
0.0
 20
0.0
 30
0.0
 70
     1
  0
VERTEX
  5
55F
  8
SITES
 10
427863.4067948805750348
 20
517650.5295124775147997
 30
0.0
  0
VERTEX
  5
560
  8
SITES
 10
427866.9825094370171428
 20
517647.6515422248048708
 30
0.0
  0
VERTEX
  5
561
  8
SITES
 10
427868.3821198110817932
 20
517636.1776555489050224
 30
0.0
  0
VERTEX
  5
562
  8
SITES
 10
427859.7522304424783215
 20
517626.8841950321220793
 30
0.0
  0
VERTEX
  5
563
  8
SITES
 10
427842.5520554058020934
 20
517628.3689378746203147
 30
0.0
  0
VERTEX
  5
564
  8
SITES
 10
427840.4121849421062507
 20
517631.9595779699739069
 30
0.0
  0
VERTEX
  5
565
  8
SITES
 10
427842.6053754978929646
 20
517646.290225995820947
 30
0.0
  0
VERTEX
  5
566
  8
SITES
 10
427855.5235485350713134
 20
517651.2698725343798287
 30
0.0
  0
SEQEND
  5
567
  8
SITES
  0
POLYLINE
  5
2FD
  8
SITES
 66
     1
 10
0.0
 20
0.0
 30
0.0
 70
     1
  0
VERTEX
  5
568
  8
SITES
 10
429406.0518088688259013
 20
517730.6735546818817966
 30
0.0
  0
VERTEX
  5
569
  8
SITES
 10
429417.4936299364781007
 20
517721.3204569590743631
 30
0.0
  0
VERTEX
  5
56A
  8
SITES
 10
429416.7533678798936307
 20
517713.437279479810968
 30
0.0
  0
VERTEX
  5
56B
  8
SITES
 10
429403.1226713474025019
 20
517709.8935610515763983
 30
0.0
  0
VERTEX
  5
56C
  8
SITES
 10
429394.5333035064977594
 20
517714.2201556296204217
 30
0.0
  0
VERTEX
  5
56D
  8
SITES
 10
429382.3555426833918318
 20
517717.1237649309914559
 30
0.0
  0
VERTEX
  5
56E
  8
SITES
 10
429371.6284564314992167
 20
517725.7578070421004668
 30
0.0
  0
VERTEX
  5
56F
  8
SITES
 10
429367.3529188274987973
 20
517734.3727026099804789
 30
0.0
  0
VERTEX
  5
570
  8
SITES
 10
429389.579363665310666
 20
517735.7404106060857885
 30
0.0
  0
SEQEND
  5
571
  8
SITES
  0
POLYLINE
  5
2FE
  8
SITES
 66
     1
 10
0.0
 20
0.0
 30
0.0
 70
     1
  0
VERTEX
  5
572
  8
SITES
 10
428081.4693976253038272
 20
517697.1941025389824063
 30
0.0
  0
VERTEX
  5
573
  8
SITES
 10
428085.7534635848132893
 20
517691.4466025652945973
 30
0.0
  0
VERTEX
  5
574
  8
SITES
 10
428087.1616187894833274
 20
517682.8401775371166877
 30
0.0
  0
VERTEX
  5
575
  8
SITES
 10
428080.6716977577889338
 20
517669.9560689759091474
 30
0.0
  0
VERTEX
  5
576
  8
SITES
 10
428065.5667087335023098
 20
517652.7963385093025863
 30
0.0
  0
VERTEX
  5
577
  8
SITES
 10
428050.4851881946087815
 20
517643.5221201821113937
 30
0.0
  0
VERTEX
  5
578
  8
SITES
 10
428041.1725761197158135
 20
517645.7002863201196305
 30
0.0
  0
VERTEX
  5
579
  8
SITES
 10
428039.7580394325195812
 20
517652.1562347923172638
 30
0.0
  0
VERTEX
  5
57A
  8
SITES
 10
428049.1708072779001668
 20
517683.6698881373158656
 30
0.0
  0
VERTEX
  5
57B
  8
SITES
 10
428059.2386047292966396
 20
517694.3928166534169577
 30
0.0
  0
VERTEX
  5
57C
  8
SITES
 10
428060.6786707396968268
 20
517696.5390709912753664
 30
0.0
  0
VERTEX
  5
57D
  8
SITES
 10
428070.720939805789385
 20
517698.6597969431895763
 30
0.0
  0
SEQEND
  5
57E
  8
SITES
  0
POLYLINE
  5
2FF
  8
SITES
 66
     1
 10
0.0
 20
0.0
 30
0.0
 70
     1
  0
VERTEX
  5
57F
  8
SITES
 10
428906.7361362606170587
 20
517995.1030387997161597
 30
0.0
  0
VERTEX
  5
580
  8
SITES
 10
428913.8768884286982939
 20
517985.7627218043198809
 30
0.0
  0
VERTEX
  5
581
  8
SITES
 10
428910.2862404923071153
 20
517983.6228423549910076
 30
0.0
  0
VERTEX
  5
582
  8
SITES
 10
428903.8048563299234957
 20
517973.6061758662108332
 30
0.0
  0
VERTEX
  5
583
  8
SITES
 10
428890.1613184083835222
 20
517965.7613922444288619
 30
0.0
  0
VERTEX
  5
584
  8
SITES
 10
428874.3864428990054876
 20
517964.3745306250057183
 30
0.0
  0
VERTEX
  5
585
  8
SITES
 10
428858.6690939497202635
 20
517982.342590163287241
 30
0.0
  0
VERTEX
  5
586
  8
SITES
 10
428857.9778229568037204
 20
517990.9468708579079248
 30
0.0
  0
VERTEX
  5
587
  8
SITES
 10
428859.4115096474997699
 20
517990.942650446202606
 30
0.0
  0
VERTEX
  5
588
  8
SITES
 10
428860.8644380578771234
 20
517997.3899705802905373
 30
0.0
  0
VERTEX
  5
589
  8
SITES
 10
428865.1761992414831184
 20
518000.9613765234826133
 30
0.0
  0
SEQEND
  5
58A
  8
SITES
  0
POLYLINE
  5
300
  8
SITES
 66
     1
 10
0.0
 20
0.0
 30
0.0
 70
     1
  0
VERTEX
  5
58B
  8
SITES
 10
427961.6911583220935427
 20
518144.3440346663119271
 30
0.0
  0
VERTEX
  5
58C
  8
SITES
 10
427970.2571411053068005
 20
518132.13195606530644
 30
0.0
  0
VERTEX
  5
58D
  8
SITES
 10
427970.9100349085056223
 20
518110.624343145696912
 30
0.0
  0
VERTEX
  5
58E
  8
SITES
 10
427966.5833648892003112
 20
518102.0349017748958431
 30
0.0
  0
VERTEX
  5
58F
  8
SITES
 10
427960.8464707935927436
 20
518101.3351897288812324
 30
0.0
  0
VERTEX
  5
590
  8
SITES
 10
427952.9845213225926273
 20
518109.2439583722734824
 30
0.0
  0
VERTEX
  5
591
  8
SITES
 10
427950.8510258276946843
 20
518114.9850721239927225
 30
0.0
  0
VERTEX
  5
592
  8
SITES
 10
427949.4577810189221054
 20
518128.6095347278169356
 30
0.0
  0
VERTEX
  5
593
  8
SITES
 10
427947.334984608925879
 20
518137.9350069182110019
 30
0.0
  0
VERTEX
  5
594
  8
SITES
 10
427947.3413644153042696
 20
518140.0854821237153374
 30
0.0
  0
VERTEX
  5
595
  8
SITES
 10
427953.0889575434848666
 20
518144.3695533570717089
 30
0.0
  0
SEQEND
  5
596
  8
SITES
  0
POLYLINE
  5
301
  8
SITES
 66
     1
 10
0.0
 20
0.0
 30
0.0
 70
     1
  0
VERTEX
  5
597
  8
SITES
 10
426735.6991493582027033
 20
518137.1065748622058891
 30
0.0
  0
VERTEX
  5
598
  8
SITES
 10
426744.9969143377966247
 20
518129.9104010288720019
 30
0.0
  0
VERTEX
  5
599
  8
SITES
 10
426749.9851025323150679
 20
518119.8595281980233267
 30
0.0
  0
VERTEX
  5
59A
  8
SITES
 10
426752.0994525573914871
 20
518107.6666261028731242
 30
0.0
  0
VERTEX
  5
59B
  8
SITES
 10
426750.6337744913180359
 20
518096.918002754508052
 30
0.0
  0
VERTEX
  5
59C
  8
SITES
 10
426744.8860984746133909
 20
518092.6339449951774441
 30
0.0
  0
VERTEX
  5
59D
  8
SITES
 10
426721.9319142778986134
 20
518087.684137106873095
 30
0.0
  0
VERTEX
  5
59E
  8
SITES
 10
426696.8462027981877327
 20
518089.1924145686207339
 30
0.0
  0
VERTEX
  5
59F
  8
SITES
 10
426686.1126007226994261
 20
518095.6761188409873284
 30
0.0
  0
VERTEX
  5
5A0
  8
SITES
 10
426679.6865152036189102
 20
518104.2975314620998688
 30
0.0
  0
VERTEX
  5
5A1
  8
SITES
 10
426677.5807052255258895
 20
518119.3578890044009313
 30
0.0
  0
VERTEX
  5
5A2
  8
SITES
 10
426685.4937676250119694
 20
518128.6534926759195514
 30
0.0
  0
VERTEX
  5
5A3
  8
SITES
 10
426724.2337369227898307
 20
518138.5744117888971232
 30
0.0
  0
SEQEND
  5
5A4
  8
SITES
  0
POLYLINE
  5
302
  8
SITES
 66
     1
 10
0.0
 20
0.0
 30
0.0
 70
     1
  0
VERTEX
  5
5A5
  8
SITES
 10
428088.1187828570837155
 20
518232.1414075074135326
 30
0.0
  0
VERTEX
  5
5A6
  8
SITES
 10
428086.6594819669262506
 20
518223.5435231666779146
 30
0.0
  0
VERTEX
  5
5A7
  8
SITES
 10
428070.1315314524108544
 20
518209.9723504809080623
 30
0.0
  0
VERTEX
  5
5A8
  8
SITES
 10
428063.6734246939886361
 20
518207.841012506512925
 30
0.0
  0
VERTEX
  5
5A9
  8
SITES
 10
428053.637537770322524
 20
518207.8708493651938625
 30
0.0
  0
VERTEX
  5
5AA
  8
SITES
 10
428050.8127654533018358
 20
518222.2163267461000942
 30
0.0
  0
VERTEX
  5
5AB
  8
SITES
 10
428058.015440410526935
 20
518233.6646001801709644
 30
0.0
  0
VERTEX
  5
5AC
  8
SITES
 10
428071.6547246660920791
 20
518240.0757928210077807
 30
0.0
  0
VERTEX
  5
5AD
  8
SITES
 10
428079.5443556174868718
 20
518241.48601991700707
 30
0.0
  0
SEQEND
  5
5AE
  8
SITES
  0
POLYLINE
  5
303
  8
SITES
 66
     1
 10
0.0
 20
0.0
 30
0.0
 70
     1
  0
VERTEX
  5
5AF
  8
SITES
 10
427545.3217598731280304
 20
518234.3429135092883371
 30
0.0
  0
VERTEX
  5
5B0
  8
SITES
 10
427550.2907230058917776
 20
518217.8404024452902377
 30
0.0
  0
VERTEX
  5
5B1
  8
SITES
 10
427548.7759696646826342
 20
518190.6043637755210511
 30
0.0
  0
VERTEX
  5
5B2
  8
SITES
 10
427538.0040666427230462
 20
518184.1846419409266673
 30
0.0
  0
VERTEX
  5
5B3
  8
SITES
 10
427530.8355568193946965
 20
518184.2060399404144846
 30
0.0
  0
VERTEX
  5
5B4
  8
SITES
 10
427517.9471383146010339
 20
518189.2623530395212583
 30
0.0
  0
VERTEX
  5
5B5
  8
SITES
 10
427512.2550065956893377
 20
518203.616350227908697
 30
0.0
  0
VERTEX
  5
5B6
  8
SITES
 10
427513.0507081620162353
 20
518230.1377550718025304
 30
0.0
  0
VERTEX
  5
5B7
  8
SITES
 10
427518.8088925919728354
 20
518238.0060776175814681
 30
0.0
  0
VERTEX
  5
5B8
  8
SITES
 10
427536.0155353206791915
 20
518238.6717357396846637
 30
0.0
  0
SEQEND
  5
5B9
  8
SITES
  0
POLYLINE
  5
304
  8
SITES
 66
     1
 10
0.0
 20
0.0
 30
0.0
 70
     1
  0
VERTEX
  5
5BA
  8
SITES
 10
425743.2306853857007809
 20
518266.9420046610757709
 30
0.0
  0
VERTEX
  5
5BB
  8
SITES
 10
425748.240161013614852
 20
518264.0596364421071485
 30
0.0
  0
VERTEX
  5
5BC
  8
SITES
 10
425753.2325595752918161
 20
518255.4424661351949908
 30
0.0
  0
VERTEX
  5
5BD
  8
SITES
 10
425753.8769190098973922
 20
518231.0671232230961323
 30
0.0
  0
VERTEX
  5
5BE
  8
SITES
 10
425750.2585251986165531
 20
518219.6081177853047848
 30
0.0
  0
VERTEX
  5
5BF
  8
SITES
 10
425744.4959472457994707
 20
518210.3059549785102718
 30
0.0
  0
VERTEX
  5
5C0
  8
SITES
 10
425738.7589857762795873
 20
518209.6061450341949239
 30
0.0
  0
VERTEX
  5
5C1
  8
SITES
 10
425729.456923313322477
 20
518215.3687229857896455
 30
0.0
  0
VERTEX
  5
5C2
  8
SITES
 10
425721.5991348950192332
 20
518224.7113195704878308
 30
0.0
  0
VERTEX
  5
5C3
  8
SITES
 10
425718.0681883594952524
 20
518242.6434100514743477
 30
0.0
  0
VERTEX
  5
5C4
  8
SITES
 10
425726.0217612673877738
 20
518265.5594598759780638
 30
0.0
  0
VERTEX
  5
5C5
  8
SITES
 10
425731.7630417011096142
 20
518267.6929461199906655
 30
0.0
  0
SEQEND
  5
5C6
  8
SITES
  0
POLYLINE
  5
305
  8
SITES
 66
     1
 10
0.0
 20
0.0
 30
0.0
 70
     1
  0
VERTEX
  5
5C7
  8
SITES
 10
428144.18223932152614
 20
518282.1545942185912281
 30
0.0
  0
VERTEX
  5
5C8
  8
SITES
 10
428146.3264366135117598
 20
518279.9976390964002348
 30
0.0
  0
VERTEX
  5
5C9
  8
SITES
 10
428147.0197725361213088
 20
518272.1101663840236142
 30
0.0
  0
VERTEX
  5
5CA
  8
SITES
 10
428140.5276099689071998
 20
518258.5092538109747693
 30
0.0
  0
VERTEX
  5
5CB
  8
SITES
 10
428129.7429335757042281
 20
518247.7884682870935649
 30
0.0
  0
VERTEX
  5
5CC
  8
SITES
 10
428120.4324757175054401
 20
518250.6836126454873011
 30
0.0
  0
VERTEX
  5
5CD
  8
SITES
 10
428116.1440818643895909
 20
518254.9974229697254486
 30
0.0
  0
VERTEX
  5
5CE
  8
SITES
 10
428115.4464269952732138
 20
518261.4512109464849345
 30
0.0
  0
VERTEX
  5
5CF
  8
SITES
 10
428125.5250087499152869
 20
518275.7584164693253115
 30
0.0
  0
VERTEX
  5
5D0
  8
SITES
 10
428134.1506695991265588
 20
518283.6181134264916182
 30
0.0
  0
SEQEND
  5
5D1
  8
SITES
  0
POLYLINE
  5
306
  8
SITES
 66
     1
 10
0.0
 20
0.0
 30
0.0
 70
     1
  0
VERTEX
  5
5D2
  8
SITES
 10
427356.2435561295133084
 20
518292.2537298959796317
 30
0.0
  0
VERTEX
  5
5D3
  8
SITES
 10
427378.46380731620593
 20
518291.4707913980819285
 30
0.0
  0
VERTEX
  5
5D4
  8
SITES
 10
427385.6046392131829634
 20
518282.1304161564912647
 30
0.0
  0
VERTEX
  5
5D5
  8
SITES
 10
427385.5726446636836044
 20
518271.3776555167860352
 30
0.0
  0
VERTEX
  5
5D6
  8
SITES
 10
427376.9342421499895863
 20
518259.2167295907856897
 30
0.0
  0
VERTEX
  5
5D7
  8
SITES
 10
427362.5865302465972491
 20
518255.6751695083803497
 30
0.0
  0
VERTEX
  5
5D8
  8
SITES
 10
427331.7725314035778865
 20
518259.3510883903945796
 30
0.0
  0
VERTEX
  5
5D9
  8
SITES
 10
427323.195960090321023
 20
518267.9788915751269087
 30
0.0
  0
VERTEX
  5
5DA
  8
SITES
 10
427323.2001794499228708
 20
518269.4125727214850485
 30
0.0
  0
VERTEX
  5
5DB
  8
SITES
 10
427323.9319875973160379
 20
518274.4283473236719146
 30
0.0
  0
VERTEX
  5
5DC
  8
SITES
 10
427330.4155973963206634
 20
518285.1619696283014491
 30
0.0
  0
VERTEX
  5
5DD
  8
SITES
 10
427341.18543351610424
 20
518290.8648003831040114
 30
0.0
  0
VERTEX
  5
5DE
  8
SITES
 10
427353.3804127644980326
 20
518293.6959496234776452
 30
0.0
  0
SEQEND
  5
5DF
  8
SITES
  0
POLYLINE
  5
307
  8
SITES
 66
     1
 10
0.0
 20
0.0
 30
0.0
 70
     1
  0
VERTEX
  5
5E0
  8
SITES
 10
428192.326230643375311
 20
518320.7215754460194148
 30
0.0
  0
VERTEX
  5
5E1
  8
SITES
 10
428195.8934148420812562
 20
518314.9761401293217205
 30
0.0
  0
VERTEX
  5
5E2
  8
SITES
 10
428192.996211790596135
 20
518304.9487880815868266
 30
0.0
  0
VERTEX
  5
5E3
  8
SITES
 10
428185.8020747891860083
 20
518296.3679780481033958
 30
0.0
  0
VERTEX
  5
5E4
  8
SITES
 10
428173.592252392496448
 20
518288.518878102011513
 30
0.0
  0
VERTEX
  5
5E5
  8
SITES
 10
428167.1426829249830917
 20
518289.254906834976282
 30
0.0
  0
VERTEX
  5
5E6
  8
SITES
 10
428161.422863440704532
 20
518294.2898288025171496
 30
0.0
  0
VERTEX
  5
5E7
  8
SITES
 10
428168.6446747705922462
 20
518312.1897358549758792
 30
0.0
  0
VERTEX
  5
5E8
  8
SITES
 10
428173.6753771374933422
 20
518316.4759714808897115
 30
0.0
  0
VERTEX
  5
5E9
  8
SITES
 10
428185.8746011072071269
 20
518320.7408115828875452
 30
0.0
  0
SEQEND
  5
5EA
  8
SITES
  0
POLYLINE
  5
308
  8
SITES
 66
     1
 10
0.0
 20
0.0
 30
0.0
 70
     1
  0
VERTEX
  5
5EB
  8
SITES
 10
428130.704983206698671
 20
518330.2239955008262768
 30
0.0
  0
VERTEX
  5
5EC
  8
SITES
 10
428130.6857471590046771
 20
518323.7723668803228065
 30
0.0
  0
VERTEX
  5
5ED
  8
SITES
 10
428125.6421879318077117
 20
518315.1850791968172416
 30
0.0
  0
VERTEX
  5
5EE
  8
SITES
 10
428112.6963392510078847
 20
518300.8865111768245697
 30
0.0
  0
VERTEX
  5
5EF
  8
SITES
 10
428105.5299787903786637
 20
518301.6245993202901445
 30
0.0
  0
VERTEX
  5
5F0
  8
SITES
 10
428093.3691300100181252
 20
518310.2630165467853658
 30
0.0
  0
VERTEX
  5
5F1
  8
SITES
 10
428093.3840471293078735
 20
518315.2809604876092635
 30
0.0
  0
VERTEX
  5
5F2
  8
SITES
 10
428112.7858417279203422
 20
518330.9941763036185876
 30
0.0
  0
VERTEX
  5
5F3
  8
SITES
 10
428127.1334802922210656
 20
518334.5357455384219065
 30
0.0
  0
SEQEND
  5
5F4
  8
SITES
  0
POLYLINE
  5
309
  8
SITES
 66
     1
 10
0.0
 20
0.0
 30
0.0
 70
     1
  0
VERTEX
  5
5F5
  8
SITES
 10
427516.220656429999508
 20
518382.7539350161096081
 30
0.0
  0
VERTEX
  5
5F6
  8
SITES
 10
427522.4965729856048711
 20
518371.8390493742772378
 30
0.0
  0
VERTEX
  5
5F7
  8
SITES
 10
427521.3155358654912561
 20
518360.3727893172763288
 30
0.0
  0
VERTEX
  5
5F8
  8
SITES
 10
427517.8609984982176684
 20
518355.7952327239909209
 30
0.0
  0
VERTEX
  5
5F9
  8
SITES
 10
427511.5441402614815161
 20
518352.9465924656833522
 30
0.0
  0
VERTEX
  5
5FA
  8
SITES
 10
427493.761122738593258
 20
518351.2789898958872072
 30
0.0
  0
VERTEX
  5
5FB
  8
SITES
 10
427477.7275931381154805
 20
518359.3555205871234648
 30
0.0
  0
VERTEX
  5
5FC
  8
SITES
 10
427473.7336154442746192
 20
518366.2491660002269782
 30
0.0
  0
VERTEX
  5
5FD
  8
SITES
 10
427473.7626241910038516
 20
518375.998341838887427
 30
0.0
  0
VERTEX
  5
5FE
  8
SITES
 10
427479.5196693683974445
 20
518383.4365713968873024
 30
0.0
  0
VERTEX
  5
5FF
  8
SITES
 10
427485.2698244121856987
 20
518388.5808302665245719
 30
0.0
  0
VERTEX
  5
600
  8
SITES
 10
427502.4844913238775916
 20
518391.9705602715257555
 30
0.0
  0
SEQEND
  5
601
  8
SITES
  0
POLYLINE
  5
30A
  8
SITES
 66
     1
 10
0.0
 20
0.0
 30
0.0
 70
     1
  0
VERTEX
  5
602
  8
SITES
 10
427570.7037211371934973
 20
518525.4409430155064911
 30
0.0
  0
VERTEX
  5
603
  8
SITES
 10
427571.4099162503844127
 20
518521.8545286062289961
 30
0.0
  0
VERTEX
  5
604
  8
SITES
 10
427567.8064282879931852
 20
518515.413505150412675
 30
0.0
  0
VERTEX
  5
605
  8
SITES
 10
427564.9347456977120601
 20
518513.988359859387856
 30
0.0
  0
VERTEX
  5
606
  8
SITES
 10
427555.6263583239051513
 20
518517.6003846499952488
 30
0.0
  0
VERTEX
  5
607
  8
SITES
 10
427554.9350776546052657
 20
518526.2047360598226078
 30
0.0
  0
VERTEX
  5
608
  8
SITES
 10
427557.8089192435145378
 20
518528.346772437391337
 30
0.0
  0
SEQEND
  5
609
  8
SITES
  0
POLYLINE
  5
30B
  8
SITES
 66
     1
 10
0.0
 20
0.0
 30
0.0
 70
     1
  0
VERTEX
  5
60A
  8
SITES
 10
425538.2214731528074481
 20
518512.7195877896738239
 30
0.0
  0
VERTEX
  5
60B
  8
SITES
 10
425537.4682799652800895
 20
518500.5350618244847283
 30
0.0
  0
VERTEX
  5
60C
  8
SITES
 10
425524.5413566298084334
 20
518492.688066407921724
 30
0.0
  0
VERTEX
  5
60D
  8
SITES
 10
425512.3462354901130311
 20
518489.8568235749844462
 30
0.0
  0
VERTEX
  5
60E
  8
SITES
 10
425488.7005510521121323
 20
518493.5115135635132901
 30
0.0
  0
VERTEX
  5
60F
  8
SITES
 10
425477.2521468758932315
 20
518500.7142331667128019
 30
0.0
  0
VERTEX
  5
610
  8
SITES
 10
425477.2670611459179781
 20
518505.7322438822011463
 30
0.0
  0
VERTEX
  5
611
  8
SITES
 10
425481.5895762598956935
 20
518512.8880614283261821
 30
0.0
  0
VERTEX
  5
612
  8
SITES
 10
425488.7794404095038772
 20
518520.0353424326167442
 30
0.0
  0
VERTEX
  5
613
  8
SITES
 10
425507.4305646354914643
 20
518524.2810284245060757
 30
0.0
  0
VERTEX
  5
614
  8
SITES
 10
425526.0732530992245302
 20
518525.6592656007851474
 30
0.0
  0
SEQEND
  5
615
  8
SITES
  0
POLYLINE
  5
30C
  8
SITES
 66
     1
 10
0.0
 20
0.0
 30
0.0
 70
     1
  0
VERTEX
  5
616
  8
SITES
 10
425050.3285264633013867
 20
518541.4564981067087501
 30
0.0
  0
VERTEX
  5
617
  8
SITES
 10
425063.1850825378205627
 20
518525.6472313678241335
 30
0.0
  0
VERTEX
  5
618
  8
SITES
 10
425066.7374279394280165
 20
518514.8836382579174824
 30
0.0
  0
VERTEX
  5
619
  8
SITES
 10
425067.4180088324937969
 20
518502.6948085704934783
 30
0.0
  0
VERTEX
  5
61A
  8
SITES
 10
425063.0934389056055807
 20
518494.8221122198156081
 30
0.0
  0
VERTEX
  5
61B
  8
SITES
 10
425058.0667968373163603
 20
518491.9695804499206133
 30
0.0
  0
VERTEX
  5
61C
  8
SITES
 10
425048.7625869030016474
 20
518497.0153552176197991
 30
0.0
  0
VERTEX
  5
61D
  8
SITES
 10
425033.7724462260957807
 20
518518.5659911410766654
 30
0.0
  0
VERTEX
  5
61E
  8
SITES
 10
425029.4862414990202524
 20
518523.5968510276288725
 30
0.0
  0
VERTEX
  5
61F
  8
SITES
 10
425028.0866146463085897
 20
518535.0708521933993325
 30
0.0
  0
VERTEX
  5
620
  8
SITES
 10
425031.7007741949055344
 20
518545.0962667731801048
 30
0.0
  0
VERTEX
  5
621
  8
SITES
 10
425041.0242161460919306
 20
518546.502271483594086
 30
0.0
  0
SEQEND
  5
622
  8
SITES
  0
POLYLINE
  5
30D
  8
SITES
 66
     1
 10
0.0
 20
0.0
 30
0.0
 70
     1
  0
VERTEX
  5
623
  8
SITES
 10
425462.4497896584798582
 20
518585.3483681170037016
 30
0.0
  0
VERTEX
  5
624
  8
SITES
 10
425478.1951002035057172
 20
518576.6992224346031435
 30
0.0
  0
VERTEX
  5
625
  8
SITES
 10
425481.7602050947025418
 20
518570.23674196889624
 30
0.0
  0
VERTEX
  5
626
  8
SITES
 10
425480.2880673035979271
 20
518557.3375894328928553
 30
0.0
  0
VERTEX
  5
627
  8
SITES
 10
425469.5053314312826842
 20
518547.3335543468710966
 30
0.0
  0
VERTEX
  5
628
  8
SITES
 10
425454.4342270136112347
 20
518541.6434977020835504
 30
0.0
  0
VERTEX
  5
629
  8
SITES
 10
425436.5212838072911836
 20
518544.564224092871882
 30
0.0
  0
VERTEX
  5
62A
  8
SITES
 10
425427.2276599067845382
 20
518553.1942382507259026
 30
0.0
  0
VERTEX
  5
62B
  8
SITES
 10
425421.5226897796965204
 20
518563.2473310538916849
 30
0.0
  0
VERTEX
  5
62C
  8
SITES
 10
425424.4263424228993244
 20
518575.4253763519227505
 30
0.0
  0
VERTEX
  5
62D
  8
SITES
 10
425434.4879710183013231
 20
518583.9978957360144705
 30
0.0
  0
VERTEX
  5
62E
  8
SITES
 10
425448.1147045386023819
 20
518586.1079357811249793
 30
0.0
  0
SEQEND
  5
62F
  8
SITES
  0
POLYLINE
  5
30E
  8
SITES
 66
     1
 10
0.0
 20
0.0
 30
0.0
 70
     1
  0
VERTEX
  5
630
  8
SITES
 10
426182.9409592038718984
 20
518599.6925708604976535
 30
0.0
  0
VERTEX
  5
631
  8
SITES
 10
426185.074452634784393
 20
518593.9512855355860665
 30
0.0
  0
VERTEX
  5
632
  8
SITES
 10
426181.3494110706960782
 20
518546.6494378744973801
 30
0.0
  0
VERTEX
  5
633
  8
SITES
 10
426166.2591472080093808
 20
518534.5076747664716095
 30
0.0
  0
VERTEX
  5
634
  8
SITES
 10
426149.7693530297838151
 20
518533.8398465064819902
 30
0.0
  0
VERTEX
  5
635
  8
SITES
 10
426144.0578957704128698
 20
518541.7423925246112049
 30
0.0
  0
VERTEX
  5
636
  8
SITES
 10
426141.9436354176723398
 20
518553.9352737560984679
 30
0.0
  0
VERTEX
  5
637
  8
SITES
 10
426141.3141690953052603
 20
518583.3285593942855485
 30
0.0
  0
VERTEX
  5
638
  8
SITES
 10
426147.8214000259758905
 20
518601.9476281945244409
 30
0.0
  0
VERTEX
  5
639
  8
SITES
 10
426154.2901683116797358
 20
518607.6633048792136833
 30
0.0
  0
VERTEX
  5
63A
  8
SITES
 10
426173.6474165900144726
 20
518608.322600249783136
 30
0.0
  0
SEQEND
  5
63B
  8
SITES
  0
POLYLINE
  5
30F
  8
SITES
 66
     1
 10
0.0
 20
0.0
 30
0.0
 70
     1
  0
VERTEX
  5
63C
  8
SITES
 10
427653.0099541838862933
 20
518635.7235833961749449
 30
0.0
  0
VERTEX
  5
63D
  8
SITES
 10
427655.3454287871718407
 20
518634.5474835563800298
 30
0.0
  0
VERTEX
  5
63E
  8
SITES
 10
427655.3367654018802568
 20
518631.6247580465278588
 30
0.0
  0
VERTEX
  5
63F
  8
SITES
 10
427655.9057562727830373
 20
518626.3621594656142406
 30
0.0
  0
VERTEX
  5
640
  8
SITES
 10
427654.7258901310269721
 20
518622.8584136898280121
 30
0.0
  0
VERTEX
  5
641
  8
SITES
 10
427653.5408258928218856
 20
518617.6010126505279914
 30
0.0
  0
VERTEX
  5
642
  8
SITES
 10
427650.6067048431141302
 20
518614.1024642203119583
 30
0.0
  0
VERTEX
  5
643
  8
SITES
 10
427649.4372349350014701
 20
518614.1059291306883097
 30
0.0
  0
VERTEX
  5
644
  8
SITES
 10
427647.1000279071740806
 20
518614.6973440807196312
 30
0.0
  0
VERTEX
  5
645
  8
SITES
 10
427644.7698514171061106
 20
518617.6270993868238293
 30
0.0
  0
VERTEX
  5
646
  8
SITES
 10
427644.7819803213933483
 20
518621.7188950052950531
 30
0.0
  0
VERTEX
  5
647
  8
SITES
 10
427645.3875575195997953
 20
518628.7316836906829849
 30
0.0
  0
VERTEX
  5
648
  8
SITES
 10
427645.9879366040113382
 20
518633.9908171460265294
 30
0.0
  0
VERTEX
  5
649
  8
SITES
 10
427649.5015444422024302
 20
518635.7339779306785204
 30
0.0
  0
SEQEND
  5
64A
  8
SITES
  0
POLYLINE
  5
310
  8
SITES
 66
     1
 10
0.0
 20
0.0
 30
0.0
 70
     1
  0
VERTEX
  5
64B
  8
SITES
 10
426275.6009202346904203
 20
518661.7838740450097248
 30
0.0
  0
VERTEX
  5
64C
  8
SITES
 10
426296.3471144817885943
 20
518647.3848909736261703
 30
0.0
  0
VERTEX
  5
64D
  8
SITES
 10
426303.4581100100185722
 20
518628.0085053531802259
 30
0.0
  0
VERTEX
  5
64E
  8
SITES
 10
426299.1206748654949479
 20
518615.8347505046986043
 30
0.0
  0
VERTEX
  5
64F
  8
SITES
 10
426287.6147521610255353
 20
518603.6822861928958446
 30
0.0
  0
VERTEX
  5
650
  8
SITES
 10
426276.1301197269931436
 20
518598.6984095174120739
 30
0.0
  0
VERTEX
  5
651
  8
SITES
 10
426268.2489621315035038
 20
518600.1556360953836702
 30
0.0
  0
VERTEX
  5
652
  8
SITES
 10
426256.8026926075108349
 20
518608.0751557020121254
 30
0.0
  0
VERTEX
  5
653
  8
SITES
 10
426253.2461163838161156
 20
518617.4049032953917049
 30
0.0
  0
VERTEX
  5
654
  8
SITES
 10
426249.6874808539287187
 20
518626.0178621181985363
 30
0.0
  0
VERTEX
  5
655
  8
SITES
 10
426246.8456338942050934
 20
518634.6286617597797886
 30
0.0
  0
VERTEX
  5
656
  8
SITES
 10
426246.89684855210362
 20
518651.8331893531722017
 30
0.0
  0
VERTEX
  5
657
  8
SITES
 10
426249.062326904211659
 20
518656.8448330761166289
 30
0.0
  0
VERTEX
  5
658
  8
SITES
 10
426267.7219213864882477
 20
518663.9578881337074563
 30
0.0
  0
SEQEND
  5
659
  8
SITES
  0
POLYLINE
  5
311
  8
SITES
 66
     1
 10
0.0
 20
0.0
 30
0.0
 70
     1
  0
VERTEX
  5
65A
  8
SITES
 10
427217.7477260489831679
 20
518726.3649487348156981
 30
0.0
  0
VERTEX
  5
65B
  8
SITES
 10
427219.1451068485039286
 20
518714.1741939709754661
 30
0.0
  0
VERTEX
  5
65C
  8
SITES
 10
427223.4185841954895295
 20
518704.8423655476071872
 30
0.0
  0
VERTEX
  5
65D
  8
SITES
 10
427224.8458884169813246
 20
518702.6875765410950407
 30
0.0
  0
VERTEX
  5
65E
  8
SITES
 10
427229.816926202212926
 20
518686.9018750094110146
 30
0.0
  0
VERTEX
  5
65F
  8
SITES
 10
427229.0722700012847781
 20
518677.5850580871920101
 30
0.0
  0
VERTEX
  5
660
  8
SITES
 10
427224.7476795177790336
 20
518669.7124168663867749
 30
0.0
  0
VERTEX
  5
661
  8
SITES
 10
427216.8559083790169097
 20
518667.5851938215782866
 30
0.0
  0
VERTEX
  5
662
  8
SITES
 10
427206.1117880996898748
 20
518670.4845394049189053
 30
0.0
  0
VERTEX
  5
663
  8
SITES
 10
427197.5201981454156339
 20
518674.0943982239114121
 30
0.0
  0
VERTEX
  5
664
  8
SITES
 10
427188.2287890290026553
 20
518683.4413385175867006
 30
0.0
  0
VERTEX
  5
665
  8
SITES
 10
427181.1007043789722957
 20
518697.0828438859898597
 30
0.0
  0
VERTEX
  5
666
  8
SITES
 10
427181.8795013338094577
 20
518717.8694052118225954
 30
0.0
  0
VERTEX
  5
667
  8
SITES
 10
427187.6462064377265051
 20
518728.6051897581201047
 30
0.0
  0
VERTEX
  5
668
  8
SITES
 10
427199.1267461701063439
 20
518732.1553010247880593
 30
0.0
  0
SEQEND
  5
669
  8
SITES
  0
POLYLINE
  5
312
  8
SITES
 66
     1
 10
0.0
 20
0.0
 30
0.0
 70
     1
  0
VERTEX
  5
66A
  8
SITES
 10
427255.1732432408025488
 20
518776.4336239143740386
 30
0.0
  0
VERTEX
  5
66B
  8
SITES
 10
427265.9004956159042194
 20
518767.7994570892769843
 30
0.0
  0
VERTEX
  5
66C
  8
SITES
 10
427269.4400141183868982
 20
518752.734962762799114
 30
0.0
  0
VERTEX
  5
66D
  8
SITES
 10
427271.5393747860798612
 20
518735.5241142042796127
 30
0.0
  0
VERTEX
  5
66E
  8
SITES
 10
427272.9346973496722057
 20
518722.6163674970739521
 30
0.0
  0
VERTEX
  5
66F
  8
SITES
 10
427267.8825224398169667
 20
518711.1617310455185361
 30
0.0
  0
VERTEX
  5
670
  8
SITES
 10
427259.2547302243765444
 20
518702.5851513136876747
 30
0.0
  0
VERTEX
  5
671
  8
SITES
 10
427244.1774828425259329
 20
518694.7444924754090607
 30
0.0
  0
VERTEX
  5
672
  8
SITES
 10
427233.4288437668001279
 20
518696.210356159019284
 30
0.0
  0
VERTEX
  5
673
  8
SITES
 10
427228.486437649698928
 20
518702.5721309264190495
 30
0.0
  0
VERTEX
  5
674
  8
SITES
 10
427226.0771735528251156
 20
518705.9183812431874685
 30
0.0
  0
VERTEX
  5
675
  8
SITES
 10
427222.0572438127710484
 20
518714.6941395201720297
 30
0.0
  0
VERTEX
  5
676
  8
SITES
 10
427219.7447446064907126
 20
518725.6432822787901387
 30
0.0
  0
VERTEX
  5
677
  8
SITES
 10
427218.5116100102895871
 20
518742.1335791536839679
 30
0.0
  0
VERTEX
  5
678
  8
SITES
 10
427230.0686659149941988
 20
518771.4904463454149663
 30
0.0
  0
VERTEX
  5
679
  8
SITES
 10
427242.2743321412126534
 20
518777.9057620489038527
 30
0.0
  0
SEQEND
  5
67A
  8
SITES
  0
POLYLINE
  5
313
  8
SITES
 66
     1
 10
0.0
 20
0.0
 30
0.0
 70
     1
  0
VERTEX
  5
67B
  8
SITES
 10
426509.8079072477994487
 20
518833.1336594269960187
 30
0.0
  0
VERTEX
  5
67C
  8
SITES
 10
426519.0886109382263385
 20
518820.2024929653853178
 30
0.0
  0
VERTEX
  5
67D
  8
SITES
 10
426523.3512902703951113
 20
518807.2863363464712165
 30
0.0
  0
VERTEX
  5
67E
  8
SITES
 10
426522.5960451401188038
 20
518794.385090266529005
 30
0.0
  0
VERTEX
  5
67F
  8
SITES
 10
426516.8249342946219258
 20
518782.2156442325795069
 30
0.0
  0
VERTEX
  5
680
  8
SITES
 10
426510.3690147356246598
 20
518780.801094320428092
 30
0.0
  0
VERTEX
  5
681
  8
SITES
 10
426494.6110063825035468
 20
518785.1492202421068214
 30
0.0
  0
VERTEX
  5
682
  8
SITES
 10
426486.742596001480706
 20
518790.9074784676195122
 30
0.0
  0
VERTEX
  5
683
  8
SITES
 10
426481.0355460306163877
 20
518800.2437059386284091
 30
0.0
  0
VERTEX
  5
684
  8
SITES
 10
426478.9318692524102516
 20
518816.0208415259839967
 30
0.0
  0
VERTEX
  5
685
  8
SITES
 10
426483.2586071526166052
 20
518824.6103586638928391
 30
0.0
  0
VERTEX
  5
686
  8
SITES
 10
426493.3223163289949298
 20
518833.8995963131892495
 30
0.0
  0
VERTEX
  5
687
  8
SITES
 10
426498.3446571839158423
 20
518835.3183644416276366
 30
0.0
  0
SEQEND
  5
688
  8
SITES
  0
POLYLINE
  5
314
  8
SITES
 66
     1
 10
0.0
 20
0.0
 30
0.0
 70
     1
  0
VERTEX
  5
689
  8
SITES
 10
425093.8648237164015882
 20
518893.0259681685711257
 30
0.0
  0
VERTEX
  5
68A
  8
SITES
 10
425104.5921205382910557
 20
518884.3916522862273268
 30
0.0
  0
VERTEX
  5
68B
  8
SITES
 10
425111.0140808622236364
 20
518874.3364138327888213
 30
0.0
  0
VERTEX
  5
68C
  8
SITES
 10
425114.5620193303911947
 20
518862.1390491360216402
 30
0.0
  0
VERTEX
  5
68D
  8
SITES
 10
425115.9551804962102324
 20
518848.5143867217120714
 30
0.0
  0
VERTEX
  5
68E
  8
SITES
 10
425112.3474034310784191
 20
518840.6396268781973049
 30
0.0
  0
VERTEX
  5
68F
  8
SITES
 10
425103.0112093238276429
 20
518834.9324955706833862
 30
0.0
  0
VERTEX
  5
690
  8
SITES
 10
425096.5636474561179057
 20
518836.385395699122455
 30
0.0
  0
VERTEX
  5
691
  8
SITES
 10
425084.3962030982947908
 20
518842.8734700831118971
 30
0.0
  0
VERTEX
  5
692
  8
SITES
 10
425075.8281013414962217
 20
518854.3688572202227078
 30
0.0
  0
VERTEX
  5
693
  8
SITES
 10
425072.269371013098862
 20
518862.9818880453240126
 30
0.0
  0
VERTEX
  5
694
  8
SITES
 10
425073.7585650120163336
 20
518881.6160205936757848
 30
0.0
  0
VERTEX
  5
695
  8
SITES
 10
425078.8043308932101354
 20
518890.9202361804782413
 30
0.0
  0
VERTEX
  5
696
  8
SITES
 10
425087.4195201167021878
 20
518895.1957540098228492
 30
0.0
  0
SEQEND
  5
697
  8
SITES
  0
POLYLINE
  5
315
  8
SITES
 66
     1
 10
0.0
 20
0.0
 30
0.0
 70
     1
  0
VERTEX
  5
698
  8
SITES
 10
429018.9869631170877255
 20
518976.7560802542138845
 30
0.0
  0
VERTEX
  5
699
  8
SITES
 10
429029.7118092228192836
 20
518967.4050858793780208
 30
0.0
  0
VERTEX
  5
69A
  8
SITES
 10
429034.6976887246128172
 20
518956.6374711443204433
 30
0.0
  0
VERTEX
  5
69B
  8
SITES
 10
429033.9531351421028376
 20
518947.3206113264895976
 30
0.0
  0
VERTEX
  5
69C
  8
SITES
 10
429031.7940200964221731
 20
518944.4597117371158674
 30
0.0
  0
VERTEX
  5
69D
  8
SITES
 10
429012.4242811435833573
 20
518939.4994344703154638
 30
0.0
  0
VERTEX
  5
69E
  8
SITES
 10
428990.9189714718959294
 20
518939.5634886071784422
 30
0.0
  0
VERTEX
  5
69F
  8
SITES
 10
428979.5006764947902411
 20
518956.801870976225473
 30
0.0
  0
VERTEX
  5
6A0
  8
SITES
 10
428980.9557479885988869
 20
518963.9660903245094232
 30
0.0
  0
VERTEX
  5
6A1
  8
SITES
 10
429003.2206191319273785
 20
518978.2367523863795213
 30
0.0
  0
SEQEND
  5
6A2
  8
SITES
  0
POLYLINE
  5
316
  8
SITES
 66
     1
 10
0.0
 20
0.0
 30
0.0
 70
     1
  0
VERTEX
  5
6A3
  8
SITES
 10
425320.7707688888767734
 20
519019.2357884948723949
 30
0.0
  0
VERTEX
  5
6A4
  8
SITES
 10
425326.4608414701069705
 20
519004.1645959733868949
 30
0.0
  0
VERTEX
  5
6A5
  8
SITES
 10
425321.3830007122014649
 20
518984.1074684142949991
 30
0.0
  0
VERTEX
  5
6A6
  8
SITES
 10
425309.8855512182926759
 20
518974.8224708539200947
 30
0.0
  0
VERTEX
  5
6A7
  8
SITES
 10
425297.6775899464264512
 20
518967.6901928848237731
 30
0.0
  0
VERTEX
  5
6A8
  8
SITES
 10
425286.1992659771931358
 20
518964.8568784876260906
 30
0.0
  0
VERTEX
  5
6A9
  8
SITES
 10
425280.4685875503928401
 20
518966.3076189135899767
 30
0.0
  0
VERTEX
  5
6AA
  8
SITES
 10
425276.2015992462984286
 20
518977.7902591701131314
 30
0.0
  0
VERTEX
  5
6AB
  8
SITES
 10
425276.212290735100396
 20
518981.3745936385239474
 30
0.0
  0
VERTEX
  5
6AC
  8
SITES
 10
425294.9168572672060691
 20
519003.541672601015307
 30
0.0
  0
VERTEX
  5
6AD
  8
SITES
 10
425301.4049298861064017
 20
519015.7091262299800292
 30
0.0
  0
VERTEX
  5
6AE
  8
SITES
 10
425310.0243390760151669
 20
519021.4184229631791823
 30
0.0
  0
SEQEND
  5
6AF
  8
SITES
  0
POLYLINE
  5
317
  8
SITES
 66
     1
 10
0.0
 20
0.0
 30
0.0
 70
     1
  0
VERTEX
  5
6B0
  8
SITES
 10
428819.872577901405748
 20
519033.9804882439784706
 30
0.0
  0
VERTEX
  5
6B1
  8
SITES
 10
428854.9809860259993002
 20
519028.1410847483784892
 30
0.0
  0
VERTEX
  5
6B2
  8
SITES
 10
428860.7007250860915519
 20
519023.1060643857927062
 30
0.0
  0
VERTEX
  5
6B3
  8
SITES
 10
428864.2572337688179687
 20
519013.7764584803953767
 30
0.0
  0
VERTEX
  5
6B4
  8
SITES
 10
428864.203875002800487
 20
518995.8553232490085065
 30
0.0
  0
VERTEX
  5
6B5
  8
SITES
 10
428854.1466837903135456
 20
518988.716706462088041
 30
0.0
  0
VERTEX
  5
6B6
  8
SITES
 10
428843.3896663347259164
 20
518987.3150952447904274
 30
0.0
  0
VERTEX
  5
6B7
  8
SITES
 10
428816.1666862756828777
 20
518993.1309603397967294
 30
0.0
  0
VERTEX
  5
6B8
  8
SITES
 10
428806.1713887081714347
 20
519006.7809502232121304
 30
0.0
  0
VERTEX
  5
6B9
  8
SITES
 10
428804.773993844515644
 20
519018.9715530824032612
 30
0.0
  0
VERTEX
  5
6BA
  8
SITES
 10
428812.7041446439106949
 20
519034.0018711906741373
 30
0.0
  0
SEQEND
  5
6BB
  8
SITES
  0
POLYLINE
  5
318
  8
SITES
 66
     1
 10
0.0
 20
0.0
 30
0.0
 70
     1
  0
VERTEX
  5
6BC
  8
SITES
 10
428878.7649647608050145
 20
519071.0813668521004729
 30
0.0
  0
VERTEX
  5
6BD
  8
SITES
 10
428891.6361732155783102
 20
519060.2902168746804819
 30
0.0
  0
VERTEX
  5
6BE
  8
SITES
 10
428894.4501903784112073
 20
519042.3605472448980436
 30
0.0
  0
VERTEX
  5
6BF
  8
SITES
 10
428892.2825437368010171
 20
519036.6321743645239621
 30
0.0
  0
VERTEX
  5
6C0
  8
SITES
 10
428882.9464624944957905
 20
519030.9251845611142926
 30
0.0
  0
VERTEX
  5
6C1
  8
SITES
 10
428867.17374871019274
 20
519030.2553737452835776
 30
0.0
  0
VERTEX
  5
6C2
  8
SITES
 10
428849.269680253288243
 20
519036.0434783658129163
 30
0.0
  0
VERTEX
  5
6C3
  8
SITES
 10
428840.7016922537004575
 20
519047.5386717118090019
 30
0.0
  0
VERTEX
  5
6C4
  8
SITES
 10
428840.0190310751786456
 20
519059.010323895723559
 30
0.0
  0
VERTEX
  5
6C5
  8
SITES
 10
428845.7943845192785375
 20
519072.6133320943918079
 30
0.0
  0
VERTEX
  5
6C6
  8
SITES
 10
428854.4008215171052143
 20
519074.0214201975031756
 30
0.0
  0
VERTEX
  5
6C7
  8
SITES
 10
428863.009317041374743
 20
519076.1463017084752209
 30
0.0
  0
SEQEND
  5
6C8
  8
SITES
  0
POLYLINE
  5
319
  8
SITES
 66
     1
 10
0.0
 20
0.0
 30
0.0
 70
     1
  0
VERTEX
  5
6C9
  8
SITES
 10
424978.4122421540087089
 20
519121.3338985100272112
 30
0.0
  0
VERTEX
  5
6CA
  8
SITES
 10
424988.4162803892977536
 20
519110.5510903060203418
 30
0.0
  0
VERTEX
  5
6CB
  8
SITES
 10
424990.528394193504937
 20
519097.6411612805095501
 30
0.0
  0
VERTEX
  5
6CC
  8
SITES
 10
424988.3628284670994617
 20
519092.629530877689831
 30
0.0
  0
VERTEX
  5
6CD
  8
SITES
 10
424973.2745852991938591
 20
519081.2045693395193666
 30
0.0
  0
VERTEX
  5
6CE
  8
SITES
 10
424958.2097817503963597
 20
519077.6651580621837638
 30
0.0
  0
VERTEX
  5
6CF
  8
SITES
 10
424944.6001326193800196
 20
519081.2899939109920524
 30
0.0
  0
VERTEX
  5
6D0
  8
SITES
 10
424938.1632629117229953
 20
519086.3272208474227227
 30
0.0
  0
VERTEX
  5
6D1
  8
SITES
 10
424931.0309877197723836
 20
519098.5352685002144426
 30
0.0
  0
VERTEX
  5
6D2
  8
SITES
 10
424933.9410942536196671
 20
519112.8639616153086536
 30
0.0
  0
VERTEX
  5
6D3
  8
SITES
 10
424954.7578513764892705
 20
519122.121200090914499
 30
0.0
  0
VERTEX
  5
6D4
  8
SITES
 10
424966.2362645459943451
 20
519124.9545168739859946
 30
0.0
  0
SEQEND
  5
6D5
  8
SITES
  0
POLYLINE
  5
31A
  8
SITES
 66
     1
 10
0.0
 20
0.0
 30
0.0
 70
     1
  0
VERTEX
  5
6D6
  8
SITES
 10
425057.3524695556843653
 20
519149.7734738424187526
 30
0.0
  0
VERTEX
  5
6D7
  8
SITES
 10
425073.0742385881021619
 20
519133.2387077491730452
 30
0.0
  0
VERTEX
  5
6D8
  8
SITES
 10
425073.7762188604101539
 20
519128.2185441040783189
 30
0.0
  0
VERTEX
  5
6D9
  8
SITES
 10
425070.1555995193193667
 20
519116.0425633668201044
 30
0.0
  0
VERTEX
  5
6DA
  8
SITES
 10
425050.0642549442127347
 20
519109.6506104631116614
 30
0.0
  0
VERTEX
  5
6DB
  8
SITES
 10
425038.6115359468967654
 20
519115.419631217897404
 30
0.0
  0
VERTEX
  5
6DC
  8
SITES
 10
425025.7378925796947442
 20
519125.4940863642259501
 30
0.0
  0
VERTEX
  5
6DD
  8
SITES
 10
425025.0423863520263694
 20
519132.6649087629048154
 30
0.0
  0
VERTEX
  5
6DE
  8
SITES
 10
425032.249494950287044
 20
519145.5470847765100189
 30
0.0
  0
VERTEX
  5
6DF
  8
SITES
 10
425040.8688965303008445
 20
519151.2562805740744807
 30
0.0
  0
SEQEND
  5
6E0
  8
SITES
  0
POLYLINE
  5
31B
  8
SITES
 66
     1
 10
0.0
 20
0.0
 30
0.0
 70
     1
  0
VERTEX
  5
6E1
  8
SITES
 10
429809.7149661128059961
 20
519108.4322928661713377
 30
0.0
  0
VERTEX
  5
6E2
  8
SITES
 10
429811.8570186746073887
 20
519105.5585378617979586
 30
0.0
  0
VERTEX
  5
6E3
  8
SITES
 10
429808.9212754764012061
 20
519082.6281264828867279
 30
0.0
  0
VERTEX
  5
6E4
  8
SITES
 10
429806.0346708563738503
 20
519076.1851032695849426
 30
0.0
  0
VERTEX
  5
6E5
  8
SITES
 10
429793.8184384732157923
 20
519066.1856619009049609
 30
0.0
  0
VERTEX
  5
6E6
  8
SITES
 10
429785.9268176869954914
 20
519064.0586175578064285
 30
0.0
  0
VERTEX
  5
6E7
  8
SITES
 10
429775.9123691958957352
 20
519071.2569838424096815
 30
0.0
  0
VERTEX
  5
6E8
  8
SITES
 10
429773.0941283595748246
 20
519087.7529032757738605
 30
0.0
  0
VERTEX
  5
6E9
  8
SITES
 10
429788.2225618517841212
 20
519112.7975088511011563
 30
0.0
  0
VERTEX
  5
6EA
  8
SITES
 10
429796.8310775206191465
 20
519114.9223960970994085
 30
0.0
  0
SEQEND
  5
6EB
  8
SITES
  0
POLYLINE
  5
31C
  8
SITES
 66
     1
 10
0.0
 20
0.0
 30
0.0
 70
     1
  0
VERTEX
  5
6EC
  8
SITES
 10
424727.7922479580156505
 20
519216.7072506570257246
 30
0.0
  0
VERTEX
  5
6ED
  8
SITES
 10
424731.3637303375871852
 20
519212.3953458998003043
 30
0.0
  0
VERTEX
  5
6EE
  8
SITES
 10
424732.0378585311118513
 20
519198.0559697718126699
 30
0.0
  0
VERTEX
  5
6EF
  8
SITES
 10
424729.1319724342902191
 20
519185.1610550166224129
 30
0.0
  0
VERTEX
  5
6F0
  8
SITES
 10
424725.5348953910870478
 20
519180.870529307925608
 30
0.0
  0
VERTEX
  5
6F1
  8
SITES
 10
424715.492419267015066
 20
519178.7497827021288686
 30
0.0
  0
VERTEX
  5
6F2
  8
SITES
 10
424703.3291967296972871
 20
519186.6716118818148971
 30
0.0
  0
VERTEX
  5
6F3
  8
SITES
 10
424702.2580123561201617
 20
519191.0593423700192943
 30
0.0
  0
VERTEX
  5
6F4
  8
SITES
 10
424702.657226835610345
 20
519201.7278728557866998
 30
0.0
  0
VERTEX
  5
6F5
  8
SITES
 10
424714.9015490760793909
 20
519221.0469074525753967
 30
0.0
  0
SEQEND
  5
6F6
  8
SITES
  0
POLYLINE
  5
31D
  8
SITES
 66
     1
 10
0.0
 20
0.0
 30
0.0
 70
     1
  0
VERTEX
  5
6F7
  8
SITES
 10
428170.9068944391910918
 20
519224.972871093894355
 30
0.0
  0
VERTEX
  5
6F8
  8
SITES
 10
428175.9534193287836388
 20
519224.957803163677454
 30
0.0
  0
VERTEX
  5
6F9
  8
SITES
 10
428180.9748938577249646
 20
519216.5346916107810102
 30
0.0
  0
VERTEX
  5
6FA
  8
SITES
 10
428179.2425843445817009
 20
519199.7234938410110772
 30
0.0
  0
VERTEX
  5
6FB
  8
SITES
 10
428177.5404152842820622
 20
519193.0020485079730861
 30
0.0
  0
VERTEX
  5
6FC
  8
SITES
 10
428169.1295738738263026
 20
519193.0270958284963854
 30
0.0
  0
VERTEX
  5
6FD
  8
SITES
 10
428162.4059310319134966
 20
519194.7287623392767273
 30
0.0
  0
VERTEX
  5
6FE
  8
SITES
 10
428155.7023489736020565
 20
519203.1568632827256806
 30
0.0
  0
VERTEX
  5
6FF
  8
SITES
 10
428155.7373798078042455
 20
519214.9282234755228274
 30
0.0
  0
VERTEX
  5
700
  8
SITES
 10
428160.8139449123991653
 20
519225.0029071526951157
 30
0.0
  0
SEQEND
  5
701
  8
SITES
  0
POLYLINE
  5
31E
  8
SITES
 66
     1
 10
0.0
 20
0.0
 30
0.0
 70
     1
  0
VERTEX
  5
702
  8
SITES
 10
429581.4354695442016236
 20
519241.0127798928879201
 30
0.0
  0
VERTEX
  5
703
  8
SITES
 10
429590.011910995002836
 20
519232.384947863582056
 30
0.0
  0
VERTEX
  5
704
  8
SITES
 10
429590.6967361221904866
 20
519221.6302688518189825
 30
0.0
  0
VERTEX
  5
705
  8
SITES
 10
429583.4920032222871669
 20
519209.4652383591164835
 30
0.0
  0
VERTEX
  5
706
  8
SITES
 10
429570.5674184432136826
 20
519202.3353351338882931
 30
0.0
  0
VERTEX
  5
707
  8
SITES
 10
429561.2441715499735437
 20
519200.9293998377979733
 30
0.0
  0
VERTEX
  5
708
  8
SITES
 10
429556.9644836108200252
 20
519208.1105946640018374
 30
0.0
  0
VERTEX
  5
709
  8
SITES
 10
429556.2796587726916187
 20
519218.8653727081837133
 30
0.0
  0
VERTEX
  5
70A
  8
SITES
 10
429561.3531284530763514
 20
519237.4883286390104331
 30
0.0
  0
VERTEX
  5
70B
  8
SITES
 10
429569.2533755218028091
 20
519242.4827541625127196
 30
0.0
  0
SEQEND
  5
70C
  8
SITES
  0
POLYLINE
  5
31F
  8
SITES
 66
     1
 10
0.0
 20
0.0
 30
0.0
 70
     1
  0
VERTEX
  5
70D
  8
SITES
 10
425591.9560631946078502
 20
519330.2646823378745466
 30
0.0
  0
VERTEX
  5
70E
  8
SITES
 10
425601.2517658456927165
 20
519322.351470151101239
 30
0.0
  0
VERTEX
  5
70F
  8
SITES
 10
425601.2068540179170668
 20
519307.2974327449919656
 30
0.0
  0
VERTEX
  5
710
  8
SITES
 10
425591.8514352971105836
 20
519295.138596105389297
 30
0.0
  0
VERTEX
  5
711
  8
SITES
 10
425578.9286413257941604
 20
519288.7253482174710371
 30
0.0
  0
VERTEX
  5
712
  8
SITES
 10
425571.7515358653035946
 20
519285.8792760279029608
 30
0.0
  0
VERTEX
  5
713
  8
SITES
 10
425559.567107405688148
 20
519286.6324453739216551
 30
0.0
  0
VERTEX
  5
714
  8
SITES
 10
425543.8217776783858426
 20
519295.2817645542090759
 30
0.0
  0
VERTEX
  5
715
  8
SITES
 10
425543.8453127212123945
 20
519303.1672258609905839
 30
0.0
  0
VERTEX
  5
716
  8
SITES
 10
425551.0544833271997049
 20
519316.7661092692869715
 30
0.0
  0
VERTEX
  5
717
  8
SITES
 10
425563.2731345946085639
 20
519327.4827396632172167
 30
0.0
  0
VERTEX
  5
718
  8
SITES
 10
425575.4747246053884737
 20
519332.4644712075823918
 30
0.0
  0
SEQEND
  5
719
  8
SITES
  0
POLYLINE
  5
320
  8
SITES
 66
     1
 10
0.0
 20
0.0
 30
0.0
 70
     1
  0
VERTEX
  5
71A
  8
SITES
 10
424559.0760366215836257
 20
519372.770780332677532
 30
0.0
  0
VERTEX
  5
71B
  8
SITES
 10
424569.7927416627062485
 20
519360.5520612525870092
 30
0.0
  0
VERTEX
  5
71C
  8
SITES
 10
424570.4903089110739529
 20
519354.0981329879723489
 30
0.0
  0
VERTEX
  5
71D
  8
SITES
 10
424564.010789334308356
 20
519344.79813857388217
 30
0.0
  0
VERTEX
  5
71E
  8
SITES
 10
424554.6723578913952224
 20
519338.3741174195893109
 30
0.0
  0
VERTEX
  5
71F
  8
SITES
 10
424543.1897427625954151
 20
519334.1071261999895796
 30
0.0
  0
VERTEX
  5
720
  8
SITES
 10
424521.6837764504016377
 20
519334.1711554926005192
 30
0.0
  0
VERTEX
  5
721
  8
SITES
 10
424513.0963536924100481
 20
519339.2148458121810108
 30
0.0
  0
VERTEX
  5
722
  8
SITES
 10
424507.38068820850458
 20
519345.6837764179799706
 30
0.0
  0
VERTEX
  5
723
  8
SITES
 10
424506.6937094395980239
 20
519355.7219311380758882
 30
0.0
  0
VERTEX
  5
724
  8
SITES
 10
424517.478756018623244
 20
519366.4428499984787777
 30
0.0
  0
VERTEX
  5
725
  8
SITES
 10
424549.0442535973270424
 20
519374.2343576300190762
 30
0.0
  0
SEQEND
  5
726
  8
SITES
  0
POLYLINE
  5
321
  8
SITES
 66
     1
 10
0.0
 20
0.0
 30
0.0
 70
     1
  0
VERTEX
  5
727
  8
SITES
 10
429585.9885656724218279
 20
519325.5873101045144722
 30
0.0
  0
VERTEX
  5
728
  8
SITES
 10
429587.3988192527904175
 20
519317.6978525283047929
 30
0.0
  0
VERTEX
  5
729
  8
SITES
 10
429588.8325087617849931
 20
519317.6935369693092071
 30
0.0
  0
VERTEX
  5
72A
  8
SITES
 10
429588.0835468975128606
 20
519306.9430736618232913
 30
0.0
  0
VERTEX
  5
72B
  8
SITES
 10
429588.7790634025004692
 20
519299.7724685929715633
 30
0.0
  0
VERTEX
  5
72C
  8
SITES
 10
429578.6578229871229269
 20
519271.1286896293750033
 30
0.0
  0
VERTEX
  5
72D
  8
SITES
 10
429568.609149903524667
 20
519266.8575317243230529
 30
0.0
  0
VERTEX
  5
72E
  8
SITES
 10
429563.6083502129768021
 20
519272.6071944761206396
 30
0.0
  0
VERTEX
  5
72F
  8
SITES
 10
429560.0497712481883354
 20
519281.2200200072838925
 30
0.0
  0
VERTEX
  5
730
  8
SITES
 10
429557.9035029996884987
 20
519282.6600829546805471
 30
0.0
  0
VERTEX
  5
731
  8
SITES
 10
429555.7765552853816189
 20
519290.5517980161239393
 30
0.0
  0
VERTEX
  5
732
  8
SITES
 10
429554.3428658985067159
 20
519290.5561136726173572
 30
0.0
  0
VERTEX
  5
733
  8
SITES
 10
429549.3783491349895485
 20
519308.4920851300121285
 30
0.0
  0
VERTEX
  5
734
  8
SITES
 10
429550.8376321960240602
 20
519317.0899054399924353
 30
0.0
  0
VERTEX
  5
735
  8
SITES
 10
429556.6022985065937974
 20
519327.1086684910114855
 30
0.0
  0
VERTEX
  5
736
  8
SITES
 10
429565.2087502414942719
 20
519328.516664641094394
 30
0.0
  0
VERTEX
  5
737
  8
SITES
 10
429565.2129658312769607
 20
519329.9503539460711181
 30
0.0
  0
VERTEX
  5
738
  8
SITES
 10
429577.401433486607857
 20
519330.6308665046817623
 30
0.0
  0
SEQEND
  5
739
  8
SITES
  0
POLYLINE
  5
322
  8
SITES
 66
     1
 10
0.0
 20
0.0
 30
0.0
 70
     1
  0
VERTEX
  5
73A
  8
SITES
 10
429083.5410455579985864
 20
519470.4742774614132941
 30
0.0
  0
VERTEX
  5
73B
  8
SITES
 10
429139.3502475410932675
 20
519435.1821897543268278
 30
0.0
  0
VERTEX
  5
73C
  8
SITES
 10
429161.5083317469106987
 20
519413.6105862110271119
 30
0.0
  0
VERTEX
  5
73D
  8
SITES
 10
429188.6308322728145868
 20
519374.1029263649252243
 30
0.0
  0
VERTEX
  5
73E
  8
SITES
 10
429200.0618978230049834
 20
519361.16561085608555
 30
0.0
  0
VERTEX
  5
73F
  8
SITES
 10
429216.4723824025713839
 20
519335.3099974897922948
 30
0.0
  0
VERTEX
  5
740
  8
SITES
 10
429220.7029399868915789
 20
519311.641346772084944
 30
0.0
  0
VERTEX
  5
741
  8
SITES
 10
429209.2185305071179755
 20
519306.6576133224880323
 30
0.0
  0
VERTEX
  5
742
  8
SITES
 10
429187.7431190378265455
 20
519316.7575636039837264
 30
0.0
  0
VERTEX
  5
743
  8
SITES
 10
429166.2954594902112149
 20
519336.1764343588147312
 30
0.0
  0
VERTEX
  5
744
  8
SITES
 10
429155.5513811510754749
 20
519339.0758764884085394
 30
0.0
  0
VERTEX
  5
745
  8
SITES
 10
429113.9507993874140084
 20
519331.3144931172137149
 30
0.0
  0
VERTEX
  5
746
  8
SITES
 10
429099.6246111129876226
 20
519334.9414176074787974
 30
0.0
  0
VERTEX
  5
747
  8
SITES
 10
429078.8831605279119685
 20
519350.7739563002833165
 30
0.0
  0
VERTEX
  5
748
  8
SITES
 10
429078.91306846489897
 20
519360.8098695537191816
 30
0.0
  0
VERTEX
  5
749
  8
SITES
 10
429081.7975054665002972
 20
519366.5359892580891028
 30
0.0
  0
VERTEX
  5
74A
  8
SITES
 10
429102.635153207811527
 20
519382.9614746539737098
 30
0.0
  0
VERTEX
  5
74B
  8
SITES
 10
429106.2663908950053155
 20
519398.7213512421003543
 30
0.0
  0
VERTEX
  5
74C
  8
SITES
 10
429103.4609864857047796
 20
519419.5184035720885731
 30
0.0
  0
VERTEX
  5
74D
  8
SITES
 10
429099.1791416936903261
 20
519425.9828937384882011
 30
0.0
  0
VERTEX
  5
74E
  8
SITES
 10
429090.5983915756223723
 20
519433.1769231816288084
 30
0.0
  0
VERTEX
  5
74F
  8
SITES
 10
429079.1417358748149127
 20
519437.5122072838130407
 30
0.0
  0
VERTEX
  5
750
  8
SITES
 10
429038.9920119972084649
 20
519435.4813497887807898
 30
0.0
  0
VERTEX
  5
751
  8
SITES
 10
429034.6781041314243339
 20
519431.1931327841011807
 30
0.0
  0
VERTEX
  5
752
  8
SITES
 10
429017.4716975588235073
 20
519430.527520991221536
 30
0.0
  0
VERTEX
  5
753
  8
SITES
 10
429011.0350573472096585
 20
519435.564694996108301
 30
0.0
  0
VERTEX
  5
754
  8
SITES
 10
429006.7574285736191086
 20
519443.4627708286861889
 30
0.0
  0
VERTEX
  5
755
  8
SITES
 10
429004.6218504151911475
 20
519448.4870992195792496
 30
0.0
  0
VERTEX
  5
756
  8
SITES
 10
429006.7938067800132558
 20
519455.6491634321864694
 30
0.0
  0
VERTEX
  5
757
  8
SITES
 10
429022.5964308931143023
 20
519466.3548033299739473
 30
0.0
  0
VERTEX
  5
758
  8
SITES
 10
429043.4126964499009773
 20
519475.6118540852912702
 30
0.0
  0
VERTEX
  5
759
  8
SITES
 10
429057.0370927390176803
 20
519477.0049492631806061
 30
0.0
  0
SEQEND
  5
75A
  8
SITES
  0
POLYLINE
  5
323
  8
SITES
 66
     1
 10
0.0
 20
0.0
 30
0.0
 70
     1
  0
VERTEX
  5
75B
  8
SITES
 10
425429.7951786571065895
 20
519520.7174780201748945
 30
0.0
  0
VERTEX
  5
75C
  8
SITES
 10
425441.9647020761040039
 20
519514.9464056934812106
 30
0.0
  0
VERTEX
  5
75D
  8
SITES
 10
425432.5472295089857653
 20
519481.9986403331859037
 30
0.0
  0
VERTEX
  5
75E
  8
SITES
 10
425431.8219125000177883
 20
519479.1334490160224959
 30
0.0
  0
VERTEX
  5
75F
  8
SITES
 10
425424.6468686279840767
 20
519477.004161526390817
 30
0.0
  0
VERTEX
  5
760
  8
SITES
 10
425417.4867267789086327
 20
519479.8928841847227886
 30
0.0
  0
VERTEX
  5
761
  8
SITES
 10
425412.5157791557139717
 20
519495.6788034198107198
 30
0.0
  0
VERTEX
  5
762
  8
SITES
 10
425415.4408763641840778
 20
519515.0255271389032714
 30
0.0
  0
VERTEX
  5
763
  8
SITES
 10
425421.1929324571974576
 20
519520.7431660111178644
 30
0.0
  0
SEQEND
  5
764
  8
SITES
  0
POLYLINE
  5
324
  8
SITES
 66
     1
 10
0.0
 20
0.0
 30
0.0
 70
     1
  0
VERTEX
  5
765
  8
SITES
 10
428726.0532515360973775
 20
519544.6589746486861259
 30
0.0
  0
VERTEX
  5
766
  8
SITES
 10
428732.4813589926925488
 20
519536.7544333477271721
 30
0.0
  0
VERTEX
  5
767
  8
SITES
 10
428738.8602459789835848
 20
519512.3624482068116777
 30
0.0
  0
VERTEX
  5
768
  8
SITES
 10
428734.5207529900944792
 20
519499.4720154696842656
 30
0.0
  0
VERTEX
  5
769
  8
SITES
 10
428721.6046312685939483
 20
519495.2093904446228407
 30
0.0
  0
VERTEX
  5
76A
  8
SITES
 10
428707.2976724781910889
 20
519505.2880434524267912
 30
0.0
  0
VERTEX
  5
76B
  8
SITES
 10
428701.5970462998957373
 20
519516.7746928915730678
 30
0.0
  0
VERTEX
  5
76C
  8
SITES
 10
428704.500794650579337
 20
519528.9525465191109106
 30
0.0
  0
VERTEX
  5
76D
  8
SITES
 10
428710.7652619350119494
 20
519540.666742090776097
 30
0.0
  0
VERTEX
  5
76E
  8
SITES
 10
428720.32056362478761
 20
519545.3929266430786811
 30
0.0
  0
SEQEND
  5
76F
  8
SITES
  0
POLYLINE
  5
325
  8
SITES
 66
     1
 10
0.0
 20
0.0
 30
0.0
 70
     1
  0
VERTEX
  5
770
  8
SITES
 10
428551.1618732669157907
 20
519551.6322064063861035
 30
0.0
  0
VERTEX
  5
771
  8
SITES
 10
428564.7648788883234374
 20
519545.8567738214042038
 30
0.0
  0
VERTEX
  5
772
  8
SITES
 10
428565.458240739419125
 20
519537.9692948260926642
 30
0.0
  0
VERTEX
  5
773
  8
SITES
 10
428561.8654468503082171
 20
519535.1126101677073166
 30
0.0
  0
VERTEX
  5
774
  8
SITES
 10
428530.3391634224099107
 20
519540.2245844961726107
 30
0.0
  0
VERTEX
  5
775
  8
SITES
 10
428525.3340579345822334
 20
519544.5406429038848728
 30
0.0
  0
VERTEX
  5
776
  8
SITES
 10
428526.0722242799238302
 20
519551.7070135385147296
 30
0.0
  0
VERTEX
  5
777
  8
SITES
 10
428533.961859920702409
 20
519553.1171684520086274
 30
0.0
  0
SEQEND
  5
778
  8
SITES
  0
POLYLINE
  5
326
  8
SITES
 66
     1
 10
0.0
 20
0.0
 30
0.0
 70
     1
  0
VERTEX
  5
779
  8
SITES
 10
428401.3942290311097167
 20
519570.0001060711219907
 30
0.0
  0
VERTEX
  5
77A
  8
SITES
 10
428405.6611673816223629
 20
519558.5176808480755426
 30
0.0
  0
VERTEX
  5
77B
  8
SITES
 10
428402.7637942307046615
 20
519548.4904138604761101
 30
0.0
  0
VERTEX
  5
77C
  8
SITES
 10
428394.84641556837596
 20
519537.7611561830271967
 30
0.0
  0
VERTEX
  5
77D
  8
SITES
 10
428386.954725279705599
 20
519535.6341096354881302
 30
0.0
  0
VERTEX
  5
77E
  8
SITES
 10
428372.6219891554210335
 20
519537.1106419964926317
 30
0.0
  0
VERTEX
  5
77F
  8
SITES
 10
428369.7610912231029943
 20
519539.2696492156246677
 30
0.0
  0
VERTEX
  5
780
  8
SITES
 10
428364.775203957920894
 20
519550.0373384900158271
 30
0.0
  0
VERTEX
  5
781
  8
SITES
 10
428373.4307475638925098
 20
519567.9328635804122314
 30
0.0
  0
VERTEX
  5
782
  8
SITES
 10
428377.7425892655737698
 20
519571.5042824886040762
 30
0.0
  0
VERTEX
  5
783
  8
SITES
 10
428393.5217545814230107
 20
519574.324691936315503
 30
0.0
  0
SEQEND
  5
784
  8
SITES
  0
POLYLINE
  5
327
  8
SITES
 66
     1
 10
0.0
 20
0.0
 30
0.0
 70
     1
  0
VERTEX
  5
785
  8
SITES
 10
429455.907939565309789
 20
519578.3251918436726555
 30
0.0
  0
VERTEX
  5
786
  8
SITES
 10
429462.3253727043047547
 20
519566.8364638533093967
 30
0.0
  0
VERTEX
  5
787
  8
SITES
 10
429459.4237769650062546
 20
519555.3755810747970827
 30
0.0
  0
VERTEX
  5
788
  8
SITES
 10
429453.6826488747028634
 20
519553.242156527529005
 30
0.0
  0
VERTEX
  5
789
  8
SITES
 10
429441.5027148480876349
 20
519555.4290151537861675
 30
0.0
  0
VERTEX
  5
78A
  8
SITES
 10
429432.22437649872154
 20
519569.0768554981914349
 30
0.0
  0
VERTEX
  5
78B
  8
SITES
 10
429432.969016315008048
 20
519578.3936261496273801
 30
0.0
  0
VERTEX
  5
78C
  8
SITES
 10
429435.8427661558962427
 20
519580.5355802266276442
 30
0.0
  0
VERTEX
  5
78D
  8
SITES
 10
429450.1818127979058772
 20
519581.209728405403439
 30
0.0
  0
SEQEND
  5
78E
  8
SITES
  0
POLYLINE
  5
328
  8
SITES
 66
     1
 10
0.0
 20
0.0
 30
0.0
 70
     1
  0
VERTEX
  5
78F
  8
SITES
 10
424566.2480365604278632
 20
519614.334514984395355
 30
0.0
  0
VERTEX
  5
790
  8
SITES
 10
424572.6506925756111741
 20
519597.8274312859284692
 30
0.0
  0
VERTEX
  5
791
  8
SITES
 10
424571.9059636676101945
 20
519588.5103751390124671
 30
0.0
  0
VERTEX
  5
792
  8
SITES
 10
424564.0055215714965016
 20
519583.5158048960729502
 30
0.0
  0
VERTEX
  5
793
  8
SITES
 10
424553.2504802226903848
 20
519582.8310771890101023
 30
0.0
  0
VERTEX
  5
794
  8
SITES
 10
424542.5167112402850762
 20
519589.3149052028893493
 30
0.0
  0
VERTEX
  5
795
  8
SITES
 10
424535.3780559666920453
 20
519599.3723749709897675
 30
0.0
  0
VERTEX
  5
796
  8
SITES
 10
424532.5468854489154182
 20
519611.5675580807728693
 30
0.0
  0
VERTEX
  5
797
  8
SITES
 10
424534.7124420899781398
 20
519616.5791856084833853
 30
0.0
  0
VERTEX
  5
798
  8
SITES
 10
424541.1855833902955055
 20
519623.7286271320190281
 30
0.0
  0
VERTEX
  5
799
  8
SITES
 10
424554.1269885771907866
 20
519626.5139114017947577
 30
0.0
  0
SEQEND
  5
79A
  8
SITES
  0
POLYLINE
  5
329
  8
SITES
 66
     1
 10
0.0
 20
0.0
 30
0.0
 70
     1
  0
VERTEX
  5
79B
  8
SITES
 10
428242.3930306435213424
 20
519617.0697277269791812
 30
0.0
  0
VERTEX
  5
79C
  8
SITES
 10
428255.2727625104016624
 20
519609.1459821658791043
 30
0.0
  0
VERTEX
  5
79D
  8
SITES
 10
428258.8270227070897818
 20
519599.0994033727911301
 30
0.0
  0
VERTEX
  5
79E
  8
SITES
 10
428257.3719654345768504
 20
519591.9351946745882742
 30
0.0
  0
VERTEX
  5
79F
  8
SITES
 10
428252.3262746557011269
 20
519582.6310955411172472
 30
0.0
  0
VERTEX
  5
7A0
  8
SITES
 10
428203.3817675213213079
 20
519516.1096138703287579
 30
0.0
  0
VERTEX
  5
7A1
  8
SITES
 10
428194.0563966085901484
 20
519513.9867836349876598
 30
0.0
  0
VERTEX
  5
7A2
  8
SITES
 10
428188.3300886614015326
 20
519516.8713115518912673
 30
0.0
  0
VERTEX
  5
7A3
  8
SITES
 10
428194.1375771468156017
 20
519541.227087368897628
 30
0.0
  0
VERTEX
  5
7A4
  8
SITES
 10
428209.9936992826987989
 20
519569.8540148620959371
 30
0.0
  0
VERTEX
  5
7A5
  8
SITES
 10
428223.7250302722095512
 20
519607.0894237746833824
 30
0.0
  0
VERTEX
  5
7A6
  8
SITES
 10
428230.2065618588821962
 20
519617.1061003914801404
 30
0.0
  0
VERTEX
  5
7A7
  8
SITES
 10
428235.233036617806647
 20
519619.9585689333034679
 30
0.0
  0
SEQEND
  5
7A8
  8
SITES
  0
POLYLINE
  5
32A
  8
SITES
 66
     1
 10
0.0
 20
0.0
 30
0.0
 70
     1
  0
VERTEX
  5
7A9
  8
SITES
 10
429522.7454149816767313
 20
519635.4738306468934752
 30
0.0
  0
VERTEX
  5
7AA
  8
SITES
 10
429525.582792294502724
 20
519625.429476919292938
 30
0.0
  0
VERTEX
  5
7AB
  8
SITES
 10
429524.1149869895889424
 20
519613.9642775186221115
 30
0.0
  0
VERTEX
  5
7AC
  8
SITES
 10
429519.7967612177017145
 20
519608.2423640501801856
 30
0.0
  0
VERTEX
  5
7AD
  8
SITES
 10
429510.4799886075197719
 20
519608.9870031882892363
 30
0.0
  0
VERTEX
  5
7AE
  8
SITES
 10
429499.7743294116226025
 20
519624.789642843476031
 30
0.0
  0
VERTEX
  5
7AF
  8
SITES
 10
429497.658061336085666
 20
519636.2655278521124274
 30
0.0
  0
VERTEX
  5
7B0
  8
SITES
 10
429499.1024365351186134
 20
519639.8454862990183756
 30
0.0
  0
VERTEX
  5
7B1
  8
SITES
 10
429506.9962058212258853
 20
519642.6893352920887992
 30
0.0
  0
SEQEND
  5
7B2
  8
SITES
  0
POLYLINE
  5
32B
  8
SITES
 66
     1
 10
0.0
 20
0.0
 30
0.0
 70
     1
  0
VERTEX
  5
7B3
  8
SITES
 10
427917.5007427185191773
 20
519649.1303685830207542
 30
0.0
  0
VERTEX
  5
7B4
  8
SITES
 10
427917.4756015586899593
 20
519640.7222304187016562
 30
0.0
  0
VERTEX
  5
7B5
  8
SITES
 10
427914.0862457802868448
 20
519632.3240676136920229
 30
0.0
  0
VERTEX
  5
7B6
  8
SITES
 10
427905.6353032130864449
 20
519618.8961450022179633
 30
0.0
  0
VERTEX
  5
7B7
  8
SITES
 10
427902.2257934334920719
 20
519603.7715522617800161
 30
0.0
  0
VERTEX
  5
7B8
  8
SITES
 10
427902.195762742892839
 20
519593.6818070333101787
 30
0.0
  0
VERTEX
  5
7B9
  8
SITES
 10
427897.1291873008012772
 20
519586.9704400728223845
 30
0.0
  0
VERTEX
  5
7BA
  8
SITES
 10
427893.7547961006057449
 20
519583.617200568318367
 30
0.0
  0
VERTEX
  5
7BB
  8
SITES
 10
427888.7082747687236406
 20
519583.6322638915735297
 30
0.0
  0
VERTEX
  5
7BC
  8
SITES
 10
427883.686895995400846
 20
519592.0553647201159038
 30
0.0
  0
VERTEX
  5
7BD
  8
SITES
 10
427883.7220149851054884
 20
519603.8268169878283516
 30
0.0
  0
VERTEX
  5
7BE
  8
SITES
 10
427887.1365129922050983
 20
519620.6330164876999334
 30
0.0
  0
VERTEX
  5
7BF
  8
SITES
 10
427890.5409337399178185
 20
519634.0760011891834438
 30
0.0
  0
VERTEX
  5
7C0
  8
SITES
 10
427893.9453541922266595
 20
519647.5188861982896924
 30
0.0
  0
VERTEX
  5
7C1
  8
SITES
 10
427902.3762426815228537
 20
519654.2203787753824145
 30
0.0
  0
VERTEX
  5
7C2
  8
SITES
 10
427914.1564811583957635
 20
519655.8668740530265495
 30
0.0
  0
SEQEND
  5
7C3
  8
SITES
  0
POLYLINE
  5
32C
  8
SITES
 66
     1
 10
0.0
 20
0.0
 30
0.0
 70
     1
  0
VERTEX
  5
7C4
  8
SITES
 10
425109.8927275274763815
 20
519700.8882525183726102
 30
0.0
  0
VERTEX
  5
7C5
  8
SITES
 10
425110.5818729767925106
 20
519691.5669696524273604
 30
0.0
  0
VERTEX
  5
7C6
  8
SITES
 10
425106.9504855155828409
 20
519675.8066493978840299
 30
0.0
  0
VERTEX
  5
7C7
  8
SITES
 10
425102.6343665737076662
 20
519670.8014854441280477
 30
0.0
  0
VERTEX
  5
7C8
  8
SITES
 10
425091.1602672616718337
 20
519669.4019250115961768
 30
0.0
  0
VERTEX
  5
7C9
  8
SITES
 10
425081.8496700412943028
 20
519672.2972129050758667
 30
0.0
  0
VERTEX
  5
7CA
  8
SITES
 10
425079.7268519073259085
 20
519681.6228092139936052
 30
0.0
  0
VERTEX
  5
7CB
  8
SITES
 10
425084.0686545796925202
 20
519695.2303117829142138
 30
0.0
  0
VERTEX
  5
7CC
  8
SITES
 10
425091.9841046408982947
 20
519705.2428968654712662
 30
0.0
  0
VERTEX
  5
7CD
  8
SITES
 10
425102.0222738508018665
 20
519705.9297856793855317
 30
0.0
  0
SEQEND
  5
7CE
  8
SITES
  0
POLYLINE
  5
32D
  8
SITES
 66
     1
 10
0.0
 20
0.0
 30
0.0
 70
     1
  0
VERTEX
  5
7CF
  8
SITES
 10
427757.9932249328121543
 20
519682.3145401693764143
 30
0.0
  0
VERTEX
  5
7D0
  8
SITES
 10
427760.841376649972517
 20
519675.854388952779118
 30
0.0
  0
VERTEX
  5
7D1
  8
SITES
 10
427753.6579627175815403
 20
519670.8578201730852015
 30
0.0
  0
VERTEX
  5
7D2
  8
SITES
 10
427751.5117027999949642
 20
519672.2978743814746849
 30
0.0
  0
VERTEX
  5
7D3
  8
SITES
 10
427752.2605507696862333
 20
519683.0484882916207425
 30
0.0
  0
SEQEND
  5
7D4
  8
SITES
  0
POLYLINE
  5
32E
  8
SITES
 66
     1
 10
0.0
 20
0.0
 30
0.0
 70
     1
  0
VERTEX
  5
7D5
  8
SITES
 10
424910.6522548730717972
 20
519717.2535929947043769
 30
0.0
  0
VERTEX
  5
7D6
  8
SITES
 10
424916.3657751941937022
 20
519710.0678747498895973
 30
0.0
  0
VERTEX
  5
7D7
  8
SITES
 10
424922.0150853855884634
 20
519681.3762681768857874
 30
0.0
  0
VERTEX
  5
7D8
  8
SITES
 10
424914.8400517057161778
 20
519679.2470796295092441
 30
0.0
  0
VERTEX
  5
7D9
  8
SITES
 10
424899.0818967067170888
 20
519683.5952515719109215
 30
0.0
  0
VERTEX
  5
7DA
  8
SITES
 10
424890.5159312122850679
 20
519695.8076013934914954
 30
0.0
  0
VERTEX
  5
7DB
  8
SITES
 10
424884.8344662155723199
 20
519713.7462123946170323
 30
0.0
  0
VERTEX
  5
7DC
  8
SITES
 10
424889.1527391342096962
 20
519719.4682602960965596
 30
0.0
  0
VERTEX
  5
7DD
  8
SITES
 10
424891.3054546298808418
 20
519720.178775587817654
 30
0.0
  0
VERTEX
  5
7DE
  8
SITES
 10
424892.7455979870283045
 20
519722.3250203867792152
 30
0.0
  0
VERTEX
  5
7DF
  8
SITES
 10
424894.1815273336833343
 20
519723.0375928059220314
 30
0.0
  0
SEQEND
  5
7E0
  8
SITES
  0
POLYLINE
  5
32F
  8
SITES
 66
     1
 10
0.0
 20
0.0
 30
0.0
 70
     1
  0
VERTEX
  5
7E1
  8
SITES
 10
424974.6325160044943914
 20
519777.279678272199817
 30
0.0
  0
VERTEX
  5
7E2
  8
SITES
 10
424988.9291629560175352
 20
519763.616599831788335
 30
0.0
  0
VERTEX
  5
7E3
  8
SITES
 10
424992.4599726119195111
 20
519745.6843554641818628
 30
0.0
  0
VERTEX
  5
7E4
  8
SITES
 10
424988.8585853247204795
 20
519739.9601489144843072
 30
0.0
  0
VERTEX
  5
7E5
  8
SITES
 10
424973.8044715104042552
 20
519740.0050441757193767
 30
0.0
  0
VERTEX
  5
7E6
  8
SITES
 10
424963.096471278113313
 20
519755.091211203020066
 30
0.0
  0
VERTEX
  5
7E7
  8
SITES
 10
424957.4107887310092337
 20
519771.5961520418059081
 30
0.0
  0
VERTEX
  5
7E8
  8
SITES
 10
424960.3017594731063582
 20
519779.473074343521148
 30
0.0
  0
SEQEND
  5
7E9
  8
SITES
  0
POLYLINE
  5
330
  8
SITES
 66
     1
 10
0.0
 20
0.0
 30
0.0
 70
     1
  0
VERTEX
  5
7EA
  8
SITES
 10
425342.5042297613108531
 20
519817.0438723628758453
 30
0.0
  0
VERTEX
  5
7EB
  8
SITES
 10
425351.7764115970931016
 20
519801.2451190769206733
 30
0.0
  0
VERTEX
  5
7EC
  8
SITES
 10
425351.5005270970286801
 20
519799.4050805324804969
 30
0.0
  0
VERTEX
  5
7ED
  8
SITES
 10
425349.5723296575015411
 20
519783.3300133019802161
 30
0.0
  0
VERTEX
  5
7EE
  8
SITES
 10
425339.4977877089986578
 20
519770.4564426697907038
 30
0.0
  0
VERTEX
  5
7EF
  8
SITES
 10
425333.7607346755103208
 20
519769.7567105641937815
 30
0.0
  0
VERTEX
  5
7F0
  8
SITES
 10
425322.3102543613058515
 20
519776.2427035215077922
 30
0.0
  0
VERTEX
  5
7F1
  8
SITES
 10
425313.7464338355930522
 20
519789.171851533872541
 30
0.0
  0
VERTEX
  5
7F2
  8
SITES
 10
425308.7733183659147471
 20
519804.2408758350065909
 30
0.0
  0
VERTEX
  5
7F3
  8
SITES
 10
425308.7968432197812945
 20
519812.1263325511245057
 30
0.0
  0
VERTEX
  5
7F4
  8
SITES
 10
425312.3982324078097008
 20
519817.8505443743197247
 30
0.0
  0
VERTEX
  5
7F5
  8
SITES
 10
425327.4672566814115271
 20
519822.8236609257874079
 30
0.0
  0
SEQEND
  5
7F6
  8
SITES
  0
POLYLINE
  5
331
  8
SITES
 66
     1
 10
0.0
 20
0.0
 30
0.0
 70
     1
  0
VERTEX
  5
7F7
  8
SITES
 10
424609.9825145293143578
 20
519856.5061539359157905
 30
0.0
  0
VERTEX
  5
7F8
  8
SITES
 10
424611.0271061517996714
 20
519854.974048922478687
 30
0.0
  0
VERTEX
  5
7F9
  8
SITES
 10
424611.8179868598235771
 20
519852.889560300973244
 30
0.0
  0
VERTEX
  5
7FA
  8
SITES
 10
424612.3694019729737192
 20
519850.2732578060240485
 30
0.0
  0
VERTEX
  5
7FB
  8
SITES
 10
424612.8200633779051714
 20
519846.4615272352821194
 30
0.0
  0
VERTEX
  5
7FC
  8
SITES
 10
424612.9193362627993338
 20
519843.9464508551754989
 30
0.0
  0
VERTEX
  5
7FD
  8
SITES
 10
424612.7258582960930653
 20
519841.139582913427148
 30
0.0
  0
VERTEX
  5
7FE
  8
SITES
 10
424611.3477708474965766
 20
519833.5622978108003736
 30
0.0
  0
VERTEX
  5
7FF
  8
SITES
 10
424609.5653320078854449
 20
519826.459710716502741
 30
0.0
  0
VERTEX
  5
800
  8
SITES
 10
424607.4100384403136559
 20
519820.2833295710152015
 30
0.0
  0
VERTEX
  5
801
  8
SITES
 10
424604.8743869313038886
 20
519815.0119134716223925
 30
0.0
  0
VERTEX
  5
802
  8
SITES
 10
424603.4644470048951916
 20
519812.7171784134116024
 30
0.0
  0
VERTEX
  5
803
  8
SITES
 10
424601.9601405241992325
 20
519810.6503934207721613
 30
0.0
  0
VERTEX
  5
804
  8
SITES
 10
424600.3046776789124124
 20
519808.7556787977810018
 30
0.0
  0
VERTEX
  5
805
  8
SITES
 10
424598.3895433656289242
 20
519806.9129922458087094
 30
0.0
  0
VERTEX
  5
806
  8
SITES
 10
424593.7285798456869088
 20
519803.3362627453170717
 30
0.0
  0
VERTEX
  5
807
  8
SITES
 10
424587.9535955347819254
 20
519799.8611602004966699
 30
0.0
  0
VERTEX
  5
808
  8
SITES
 10
424579.6924921632162295
 20
519795.6625549987074919
 30
0.0
  0
VERTEX
  5
809
  8
SITES
 10
424572.1711606803000905
 20
519791.9318604118889198
 30
0.0
  0
VERTEX
  5
80A
  8
SITES
 10
424569.7191402100143023
 20
519791.0931511578965001
 30
0.0
  0
VERTEX
  5
80B
  8
SITES
 10
424567.4908386184833944
 20
519790.6809212781954557
 30
0.0
  0
VERTEX
  5
80C
  8
SITES
 10
424563.3699976406060159
 20
519790.519299267383758
 30
0.0
  0
VERTEX
  5
80D
  8
SITES
 10
424559.8222183777834289
 20
519790.8464025147841312
 30
0.0
  0
VERTEX
  5
80E
  8
SITES
 10
424557.1216867024195381
 20
519791.6357512432732619
 30
0.0
  0
VERTEX
  5
80F
  8
SITES
 10
424556.1026615694863722
 20
519792.1975739565095864
 30
0.0
  0
VERTEX
  5
810
  8
SITES
 10
424555.3105537089868449
 20
519792.8678439449868165
 30
0.0
  0
VERTEX
  5
811
  8
SITES
 10
424554.3855447432142682
 20
519794.3273026364040561
 30
0.0
  0
VERTEX
  5
812
  8
SITES
 10
424553.7639424208900891
 20
519796.4200539555167779
 30
0.0
  0
VERTEX
  5
813
  8
SITES
 10
424553.4292643485823646
 20
519799.0117874689749442
 30
0.0
  0
VERTEX
  5
814
  8
SITES
 10
424553.1920489817857742
 20
519803.6271984165068716
 30
0.0
  0
VERTEX
  5
815
  8
SITES
 10
424553.1381902475841343
 20
519806.9749569097766653
 30
0.0
  0
VERTEX
  5
816
  8
SITES
 10
424553.370893569313921
 20
519810.4156905930140056
 30
0.0
  0
VERTEX
  5
817
  8
SITES
 10
424553.8847907537710853
 20
519813.8689255759818479
 30
0.0
  0
VERTEX
  5
818
  8
SITES
 10
424554.6663990595261566
 20
519817.2433113096049055
 30
0.0
  0
VERTEX
  5
819
  8
SITES
 10
424555.669289346493315
 20
519820.2841653309878893
 30
0.0
  0
VERTEX
  5
81A
  8
SITES
 10
424557.0550364765804261
 20
519823.4985012811957859
 30
0.0
  0
VERTEX
  5
81B
  8
SITES
 10
424558.8432090007117949
 20
519826.9381170275737531
 30
0.0
  0
VERTEX
  5
81C
  8
SITES
 10
424561.1588477941113524
 20
519830.8445271283271722
 30
0.0
  0
VERTEX
  5
81D
  8
SITES
 10
424564.5093203738215379
 20
519835.6420229714713059
 30
0.0
  0
VERTEX
  5
81E
  8
SITES
 10
424568.5964511946076527
 20
519840.4291315785958432
 30
0.0
  0
VERTEX
  5
81F
  8
SITES
 10
424573.4442863900912926
 20
519845.2355530952918343
 30
0.0
  0
VERTEX
  5
820
  8
SITES
 10
424579.1381202740012668
 20
519850.1463210438960232
 30
0.0
  0
VERTEX
  5
821
  8
SITES
 10
424585.0382668995880522
 20
519854.8353547488804907
 30
0.0
  0
VERTEX
  5
822
  8
SITES
 10
424587.1778712152736261
 20
519856.2305433679139242
 30
0.0
  0
VERTEX
  5
823
  8
SITES
 10
424589.195586389512755
 20
519857.2850837460136972
 30
0.0
  0
VERTEX
  5
824
  8
SITES
 10
424592.6325172822107561
 20
519858.7067636764841154
 30
0.0
  0
VERTEX
  5
825
  8
SITES
 10
424595.6071928404853679
 20
519859.627990389126353
 30
0.0
  0
VERTEX
  5
826
  8
SITES
 10
424598.2816421128227375
 20
519860.0985517306253314
 30
0.0
  0
VERTEX
  5
827
  8
SITES
 10
424600.6739839357906021
 20
519860.1183194089098834
 30
0.0
  0
VERTEX
  5
828
  8
SITES
 10
424603.5519578492967412
 20
519859.6568875763914548
 30
0.0
  0
VERTEX
  5
829
  8
SITES
 10
424606.2268030393752269
 20
519858.8467490741750225
 30
0.0
  0
VERTEX
  5
82A
  8
SITES
 10
424608.3993836204172112
 20
519857.7805004161782563
 30
0.0
  0
SEQEND
  5
82B
  8
SITES
  0
POLYLINE
  5
332
  8
SITES
 66
     1
 10
0.0
 20
0.0
 30
0.0
 70
     1
  0
VERTEX
  5
82C
  8
SITES
 10
428493.5393550617154688
 20
519940.3385815895744599
 30
0.0
  0
VERTEX
  5
82D
  8
SITES
 10
428498.5337812576908618
 20
519932.4382647033198737
 30
0.0
  0
VERTEX
  5
82E
  8
SITES
 10
428501.3455787457060069
 20
519913.7917259684181772
 30
0.0
  0
VERTEX
  5
82F
  8
SITES
 10
428497.7292644041008316
 20
519903.0497179116937332
 30
0.0
  0
VERTEX
  5
830
  8
SITES
 10
428493.4195810019155033
 20
519900.1951870467164554
 30
0.0
  0
VERTEX
  5
831
  8
SITES
 10
428484.8153113385778852
 20
519899.503974923514761
 30
0.0
  0
VERTEX
  5
832
  8
SITES
 10
428473.3564112519961782
 20
519903.1224458928918466
 30
0.0
  0
VERTEX
  5
833
  8
SITES
 10
428461.2149258760036901
 20
519918.2125566506874748
 30
0.0
  0
VERTEX
  5
834
  8
SITES
 10
428456.2419670431991108
 20
519933.2813000190071762
 30
0.0
  0
VERTEX
  5
835
  8
SITES
 10
428457.6970188943087123
 20
519940.4455136064789258
 30
0.0
  0
VERTEX
  5
836
  8
SITES
 10
428463.4532267656759359
 20
519947.596887590480037
 30
0.0
  0
VERTEX
  5
837
  8
SITES
 10
428466.3312806545873173
 20
519951.1726245597237721
 30
0.0
  0
VERTEX
  5
838
  8
SITES
 10
428473.5018644675146788
 20
519951.868051070778165
 30
0.0
  0
SEQEND
  5
839
  8
SITES
  0
POLYLINE
  5
333
  8
SITES
 66
     1
 10
0.0
 20
0.0
 30
0.0
 70
     1
  0
VERTEX
  5
83A
  8
SITES
 10
428363.3127302869106643
 20
520021.014852415304631
 30
0.0
  0
VERTEX
  5
83B
  8
SITES
 10
428361.1087399465031922
 20
520003.1001088796183467
 30
0.0
  0
VERTEX
  5
83C
  8
SITES
 10
428353.9188496436108835
 20
519995.9529490548884496
 30
0.0
  0
VERTEX
  5
83D
  8
SITES
 10
428342.4535827218205668
 20
519997.4209385727881454
 30
0.0
  0
VERTEX
  5
83E
  8
SITES
 10
428337.4656267766840756
 20
520007.4717290680273436
 30
0.0
  0
VERTEX
  5
83F
  8
SITES
 10
428344.6661991860019043
 20
520018.203051300777588
 30
0.0
  0
VERTEX
  5
840
  8
SITES
 10
428359.7392500847927295
 20
520024.6097975344746374
 30
0.0
  0
SEQEND
  5
841
  8
SITES
  0
ENDBLK
  5
335
  8
0
  0
ENDSEC
  0
SECTION
  2
ENTITIES
  0
TEXT
  5
C3
  8
LABEL
 10
426259.7473999997018836
 20
514031.1848000009777024
 30
0.0
 40
10.0
  1
345S
  0
TEXT
  5
C8
  8
LABEL
 10
426561.1319000003859401
 20
514396.5517999996081926
 30
0.0
 40
10.0
  1
365S
  0
TEXT
  5
CD
  8
LABEL
 10
427544.3638000003993511
 20
514673.8270999994128942
 30
0.0
 40
10.0
  1
150S
  0
TEXT
  5
D2
  8
LABEL
 10
427546.8778999997884966
 20
514702.3815000000176951
 30
0.0
 40
10.0
  1
149S
  0
TEXT
  5
D7
  8
LABEL
 10
428107.1361999996006489
 20
515116.4900000002817251
 30
0.0
 40
10.0
  1
154S
  0
TEXT
  5
DC
  8
LABEL
 10
428091.9369999999180436
 20
515153.9321999996900558
 30
0.0
 40
10.0
  1
153S
  0
TEXT
  5
E1
  8
LABEL
 10
427944.9857999999076128
 20
515619.2468999996199273
 30
0.0
 40
10.0
  1
260S
  0
TEXT
  5
E6
  8
LABEL
 10
426500.7187999999150634
 20
515919.6429999992251396
 30
0.0
 40
10.0
  1
437S
  0
TEXT
  5
EB
  8
LABEL
 10
426561.8278000000282191
 20
516093.3127999996067956
 30
0.0
 40
10.0
  1
755S
  0
TEXT
  5
F0
  8
LABEL
 10
426535.3832999999285676
 20
516144.7687999997287989
 30
0.0
 40
10.0
  1
770S
  0
TEXT
  5
F5
  8
LABEL
 10
427945.0876000002026558
 20
516320.3690000009955838
 30
0.0
 40
10.0
  1
287S
  0
TEXT
  5
FA
  8
LABEL
 10
428023.9397999998182058
 20
516383.7090000007883646
 30
0.0
 40
10.0
  1
286S
  0
TEXT
  5
FF
  8
LABEL
 10
427739.1840000004158355
 20
516398.2190000003902242
 30
0.0
 40
10.0
  1
377S
  0
TEXT
  5
104
  8
LABEL
 10
428140.7648999998928048
 20
516421.8648000006214716
 30
0.0
 40
10.0
  1
285S
  0
TEXT
  5
109
  8
LABEL
 10
428599.0373000000254251
 20
516628.5919000002904795
 30
0.0
 40
10.0
  1
056S
  0
TEXT
  5
10E
  8
LABEL
 10
428498.0506999996141531
 20
516733.0343999993056059
 30
0.0
 40
10.0
  1
055S
  0
TEXT
  5
113
  8
LABEL
 10
427284.0881000002846122
 20
516794.0924999992130324
 30
0.0
 40
10.0
  1
040S
  0
TEXT
  5
118
  8
LABEL
 10
426202.1343999999226071
 20
516897.1484999993117526
 30
0.0
 40
10.0
  1
071S
  0
TEXT
  5
11D
  8
LABEL
 10
427471.7267000005231239
 20
516964.2421000003814697
 30
0.0
 40
10.0
  1
405S
  0
TEXT
  5
122
  8
LABEL
 10
428220.881699999794364
 20
516939.5254999995231628
 30
0.0
 40
10.0
  1
053S
  0
TEXT
  5
127
  8
LABEL
 10
427758.5026000002981164
 20
516956.5691000000224449
 30
0.0
 40
10.0
  1
045S
  0
TEXT
  5
12C
  8
LABEL
 10
427844.2854000004008412
 20
516984.5114999990910292
 30
0.0
 40
10.0
  1
048S
  0
TEXT
  5
131
  8
LABEL
 10
428655.2191000003949739
 20
517068.0351999996928498
 30
0.0
 40
10.0
  1
107S
  0
TEXT
  5
136
  8
LABEL
 10
427890.7515000001876615
 20
517087.4376999996020459
 30
0.0
 40
10.0
  1
415S
  0
TEXT
  5
13B
  8
LABEL
 10
426165.7070000004023314
 20
517214.8852999993832782
 30
0.0
 40
10.0
  1
116S
  0
TEXT
  5
140
  8
LABEL
 10
427689.6824999999953434
 20
517300.0976999998092651
 30
0.0
 40
10.0
  1
413S
  0
TEXT
  5
145
  8
LABEL
 10
428940.3285999997169711
 20
517320.456100000126753
 30
0.0
 40
10.0
  1
443S
  0
TEXT
  5
14A
  8
LABEL
 10
427414.4167000000015832
 20
517467.4894999992102385
 30
0.0
 40
10.0
  1
324S
  0
TEXT
  5
14F
  8
LABEL
 10
428916.5701000001863576
 20
517533.0329999997047707
 30
0.0
 40
10.0
  1
460S
  0
TEXT
  5
154
  8
LABEL
 10
428946.5952000003890134
 20
517577.5028000007732771
 30
0.0
 40
10.0
  1
420S
  0
TEXT
  5
159
  8
LABEL
 10
427854.4578999996883795
 20
517638.878900000709109
 30
0.0
 40
10.0
  1
173S
  0
TEXT
  5
15E
  8
LABEL
 10
429394.004700000397861
 20
517723.8400999996229075
 30
0.0
 40
10.0
  1
147S
  0
TEXT
  5
163
  8
LABEL
 10
428062.891499999910593
 20
517672.7248999997973442
 30
0.0
 40
10.0
  1
174S
  0
TEXT
  5
168
  8
LABEL
 10
428883.6865999996080063
 20
517983.6072000003769062
 30
0.0
 40
10.0
  1
453S
  0
TEXT
  5
16D
  8
LABEL
 10
427959.8427999998093583
 20
518123.8658000007271767
 30
0.0
 40
10.0
  1
329S
  0
TEXT
  5
172
  8
LABEL
 10
426716.1517999999923632
 20
518112.0949000007822178
 30
0.0
 40
10.0
  1
273S
  0
TEXT
  5
177
  8
LABEL
 10
428068.8410999997868203
 20
518224.3990000002086163
 30
0.0
 40
10.0
  1
328S
  0
TEXT
  5
17C
  8
LABEL
 10
427531.2307000001892447
 20
518211.8659000006737188
 30
0.0
 40
10.0
  1
255S
  0
TEXT
  5
181
  8
LABEL
 10
425737.048200000077486
 20
518239.9058999997214414
 30
0.0
 40
10.0
  1
623S
  0
TEXT
  5
186
  8
LABEL
 10
428131.6727999998838641
 20
518265.9443999995128252
 30
0.0
 40
10.0
  1
239S
  0
TEXT
  5
18B
  8
LABEL
 10
427355.578200000396464
 20
518274.474999999627471
 30
0.0
 40
10.0
  1
247S
  0
TEXT
  5
190
  8
LABEL
 10
428178.8036999999894761
 20
518305.1314000003039837
 30
0.0
 40
10.0
  1
320S
  0
TEXT
  5
195
  8
LABEL
 10
428112.9633999997749925
 20
518317.597899999585934
 30
0.0
 40
10.0
  1
321S
  0
TEXT
  5
19A
  8
LABEL
 10
427498.1836999999941327
 20
518370.7458999995142221
 30
0.0
 40
10.0
  1
252S
  0
TEXT
  5
19F
  8
LABEL
 10
427562.7703999996883795
 20
518521.477700000628829
 30
0.0
 40
10.0
  1
214S
  0
TEXT
  5
1A4
  8
LABEL
 10
425508.963299999886658
 20
518507.5438999999896623
 30
0.0
 40
10.0
  1
630S
  0
TEXT
  5
1A9
  8
LABEL
 10
425048.4488000004203059
 20
518520.4685999993816949
 30
0.0
 40
10.0
  1
699S
  0
TEXT
  5
1AE
  8
LABEL
 10
425451.662600000272505
 20
518564.7002000007778406
 30
0.0
 40
10.0
  1
631S
  0
TEXT
  5
1B3
  8
LABEL
 10
426162.6456000003963709
 20
518571.7279000002890825
 30
0.0
 40
10.0
  1
552S
  0
TEXT
  5
1B8
  8
LABEL
 10
427650.0948000000789762
 20
518625.4151000007987022
 30
0.0
 40
10.0
  1
213S
  0
TEXT
  5
1BD
  8
LABEL
 10
426273.4813999999896623
 20
518631.7720999998273328
 30
0.0
 40
10.0
  1
551S
  0
TEXT
  5
1C2
  8
LABEL
 10
427204.9436999997124076
 20
518699.5917000006884336
 30
0.0
 40
10.0
  1
168S
  0
TEXT
  5
1C7
  8
LABEL
 10
427245.6505000003962778
 20
518736.3028999996022321
 30
0.0
 40
10.0
  1
165S
  0
TEXT
  5
1CC
  8
LABEL
 10
426501.832799999974668
 20
518807.8343000002205372
 30
0.0
 40
10.0
  1
310S
  0
TEXT
  5
1D1
  8
LABEL
 10
425093.8595000003115274
 20
518864.4584999996004626
 30
0.0
 40
10.0
  1
689S
  0
TEXT
  5
1D6
  8
LABEL
 10
429007.8339000000269152
 20
518957.5267999991774559
 30
0.0
 40
10.0
  1
518S
  0
TEXT
  5
1DB
  8
LABEL
 10
425302.9256999996723607
 20
518991.7564000003039837
 30
0.0
 40
10.0
  1
639S
  0
TEXT
  5
1E0
  8
LABEL
 10
428835.1588000003248453
 20
519010.785000000090804
 30
0.0
 40
10.0
  1
521S
  0
TEXT
  5
1E5
  8
LABEL
 10
428866.9221000000834465
 20
519052.4111000000848435
 30
0.0
 40
10.0
  1
520S
  0
TEXT
  5
1EA
  8
LABEL
 10
424960.9742999998852611
 20
519101.2487000002874993
 30
0.0
 40
10.0
  1
693S
  0
TEXT
  5
1EF
  8
LABEL
 10
425049.5785000000032596
 20
519130.681099999579601
 30
0.0
 40
10.0
  1
692S
  0
TEXT
  5
1F4
  8
LABEL
 10
429792.8381000002846122
 20
519089.5526000001118518
 30
0.0
 40
10.0
  1
537S
  0
TEXT
  5
1F9
  8
LABEL
 10
424717.8343999999924563
 20
519199.0307000001193956
 30
0.0
 40
10.0
  1
720S
  0
TEXT
  5
1FE
  8
LABEL
 10
428168.4874999998137355
 20
519209.3776999990805052
 30
0.0
 40
10.0
  1
593S
  0
TEXT
  5
203
  8
LABEL
 10
429572.5739999999059364
 20
519222.257300000579562
 30
0.0
 40
10.0
  1
497S
  0
TEXT
  5
208
  8
LABEL
 10
425573.4939999998896383
 20
519308.8506000005290844
 30
0.0
 40
10.0
  1
560S
  0
TEXT
  5
20D
  8
LABEL
 10
424538.5996000003069639
 20
519353.4134999997913837
 30
0.0
 40
10.0
  1
716S
  0
TEXT
  5
212
  8
LABEL
 10
429570.0898000001907349
 20
519302.3034000006155111
 30
0.0
 40
10.0
  1
498S
  0
TEXT
  5
217
  8
LABEL
 10
429121.8596000000834465
 20
519393.5338000003248453
 30
0.0
 40
10.0
  1
597S
  0
TEXT
  5
21C
  8
LABEL
 10
425425.9967999999062158
 20
519500.4663999992772005
 30
0.0
 40
10.0
  1
571S
  0
TEXT
  5
221
  8
LABEL
 10
428720.7518999996245839
 20
519519.8571000006049871
 30
0.0
 40
10.0
  1
680S
  0
TEXT
  5
226
  8
LABEL
 10
428545.5779999996884726
 20
519544.5672999992966652
 30
0.0
 40
10.0
  1
569S
  0
TEXT
  5
22B
  8
LABEL
 10
428385.7060000002966262
 20
519554.5228000003262423
 30
0.0
 40
10.0
  1
567S
  0
TEXT
  5
230
  8
LABEL
 10
429447.3372000000090338
 20
519567.8508000000729226
 30
0.0
 40
10.0
  1
511S
  0
TEXT
  5
235
  8
LABEL
 10
424552.8398000001907349
 20
519603.8915999996825121
 30
0.0
 40
10.0
  1
710S
  0
TEXT
  5
23A
  8
LABEL
 10
428224.4840000002877787
 20
519570.4132000003010035
 30
0.0
 40
10.0
  1
566S
  0
TEXT
  5
23F
  8
LABEL
 10
429512.2395000001997687
 20
519625.8979999999864958
 30
0.0
 40
10.0
  1
512S
  0
TEXT
  5
244
  8
LABEL
 10
427898.9556999998167157
 20
519622.1623999996809289
 30
0.0
 40
10.0
  1
653S
  0
TEXT
  5
249
  8
LABEL
 10
425095.7392999994917773
 20
519687.1840000004158355
 30
0.0
 40
10.0
  1
563S
  0
TEXT
  5
24E
  8
LABEL
 10
427755.4264000002876855
 20
519677.2690999992191792
 30
0.0
 40
10.0
  1
662S
  0
TEXT
  5
253
  8
LABEL
 10
424903.8640000001178123
 20
519701.0419999993755482
 30
0.0
 40
10.0
  1
478S
  0
TEXT
  5
258
  8
LABEL
 10
424975.2088000001967885
 20
519759.113700000627432
 30
0.0
 40
10.0
  1
515S
  0
TEXT
  5
25D
  8
LABEL
 10
425330.5657999999821186
 20
519797.567399999126792
 30
0.0
 40
10.0
  1
479S
  0
TEXT
  5
262
  8
LABEL
 10
424583.3837000001221895
 20
519824.8226999993785284
 30
0.0
 40
10.0
  1
695S
  0
TEXT
  5
267
  8
LABEL
 10
428479.3885000004083849
 20
519925.2660000007017516
 30
0.0
 40
10.0
  1
671S
  0
TEXT
  5
26C
  8
LABEL
 10
428351.4861000003875233
 20
520009.4811000003828667
 30
0.0
 40
10.0
  1
673S
  0
POLYLINE
  5
337
  8
SITES
 66
     1
 10
0.0
 20
0.0
 30
0.0
 70
     1
  0
VERTEX
  5
842
  8
SITES
 10
426282.0778156667947769
 20
514055.6786693760077469
 30
0.0
  0
VERTEX
  5
843
  8
SITES
 10
426287.0641265248996206
 20
514044.9110693347174674
 30
0.0
  0
VERTEX
  5
844
  8
SITES
 10
426284.8713146465015598
 20
514030.5801992270862684
 30
0.0
  0
VERTEX
  5
845
  8
SITES
 10
426276.2204027003026567
 20
514014.1179694184102118
 30
0.0
  0
VERTEX
  5
846
  8
SITES
 10
426264.7169077998260036
 20
514002.6820299907121807
 30
0.0
  0
VERTEX
  5
847
  8
SITES
 10
426252.5070612060953863
 20
513994.8326011737226509
 30
0.0
  0
VERTEX
  5
848
  8
SITES
 10
426243.1943124057142995
 20
513997.0106427937862463
 30
0.0
  0
VERTEX
  5
849
  8
SITES
 10
426241.7732396514038555
 20
514001.3160086481948383
 30
0.0
  0
VERTEX
  5
84A
  8
SITES
 10
426243.2470965575776063
 20
514014.9320559186162427
 30
0.0
  0
VERTEX
  5
84B
  8
SITES
 10
426234.672309813904576
 20
514024.2765147822210565
 30
0.0
  0
VERTEX
  5
84C
  8
SITES
 10
426236.1419312453945167
 20
514036.4588848322746344
 30
0.0
  0
VERTEX
  5
84D
  8
SITES
 10
426239.0537985258852132
 20
514051.5043746489100158
 30
0.0
  0
VERTEX
  5
84E
  8
SITES
 10
426244.8013104404089972
 20
514055.788567598501686
 30
0.0
  0
VERTEX
  5
84F
  8
SITES
 10
426258.4385307873017155
 20
514061.4832978991908021
 30
0.0
  0
SEQEND
  5
850
  8
SITES
  0
POLYLINE
  5
338
  8
SITES
 66
     1
 10
0.0
 20
0.0
 30
0.0
 70
     1
  0
VERTEX
  5
851
  8
SITES
 10
426579.9346517677186057
 20
514420.399380348273553
 30
0.0
  0
VERTEX
  5
852
  8
SITES
 10
426586.3546546208090149
 20
514409.6275433994014747
 30
0.0
  0
VERTEX
  5
853
  8
SITES
 10
426585.6187657217960805
 20
514403.1779076451202855
 30
0.0
  0
VERTEX
  5
854
  8
SITES
 10
426578.4057741540018469
 20
514388.1452019704738632
 30
0.0
  0
VERTEX
  5
855
  8
SITES
 10
426546.8091191395069472
 20
514369.6000193852232769
 30
0.0
  0
VERTEX
  5
856
  8
SITES
 10
426541.0763733003986999
 20
514370.3337421515025198
 30
0.0
  0
VERTEX
  5
857
  8
SITES
 10
426536.7901057135895826
 20
514375.3644659303827211
 30
0.0
  0
VERTEX
  5
858
  8
SITES
 10
426537.5640952616231516
 20
514394.7174042256083339
 30
0.0
  0
VERTEX
  5
859
  8
SITES
 10
426565.601802340708673
 20
514421.8753909828956239
 30
0.0
  0
VERTEX
  5
85A
  8
SITES
 10
426574.2083050271030515
 20
514423.2837698584189638
 30
0.0
  0
SEQEND
  5
85B
  8
SITES
  0
POLYLINE
  5
339
  8
SITES
 66
     1
 10
0.0
 20
0.0
 30
0.0
 70
     1
  0
VERTEX
  5
85C
  8
SITES
 10
427556.9390076951822266
 20
514681.9332830327912234
 30
0.0
  0
VERTEX
  5
85D
  8
SITES
 10
427561.2273562013288029
 20
514677.619540284271352
 30
0.0
  0
VERTEX
  5
85E
  8
SITES
 10
427561.9273177420836873
 20
514671.8825467021088116
 30
0.0
  0
VERTEX
  5
85F
  8
SITES
 10
427556.1777269128942862
 20
514666.8815397092257626
 30
0.0
  0
VERTEX
  5
860
  8
SITES
 10
427549.7217762010986917
 20
514665.466953496390488
 30
0.0
  0
VERTEX
  5
861
  8
SITES
 10
427540.3984620973933488
 20
514664.0607322489959188
 30
0.0
  0
VERTEX
  5
862
  8
SITES
 10
427534.66373491397826
 20
514664.077661944727879
 30
0.0
  0
VERTEX
  5
863
  8
SITES
 10
427529.6520974045270123
 20
514666.2429979594890028
 30
0.0
  0
VERTEX
  5
864
  8
SITES
 10
427528.2395774160977453
 20
514673.4158390805823728
 30
0.0
  0
VERTEX
  5
865
  8
SITES
 10
427530.4091457853210159
 20
514679.8610584958805703
 30
0.0
  0
VERTEX
  5
866
  8
SITES
 10
427534.7187556514982134
 20
514682.715825040708296
 30
0.0
  0
VERTEX
  5
867
  8
SITES
 10
427542.6062216634163633
 20
514683.4093881194130518
 30
0.0
  0
SEQEND
  5
868
  8
SITES
  0
POLYLINE
  5
33A
  8
SITES
 66
     1
 10
0.0
 20
0.0
 30
0.0
 70
     1
  0
VERTEX
  5
869
  8
SITES
 10
427554.1583557944977656
 20
514711.3326755840098485
 30
0.0
  0
VERTEX
  5
86A
  8
SITES
 10
427562.7437179476837628
 20
514705.5724548106081784
 30
0.0
  0
VERTEX
  5
86B
  8
SITES
 10
427562.0098979488830082
 20
514699.8397933464148082
 30
0.0
  0
VERTEX
  5
86C
  8
SITES
 10
427555.5391843186807819
 20
514693.4071702035143971
 30
0.0
  0
VERTEX
  5
86D
  8
SITES
 10
427546.2158700414001942
 20
514692.001048203674145
 30
0.0
  0
VERTEX
  5
86E
  8
SITES
 10
427536.9052529557957314
 20
514694.8959716752287932
 30
0.0
  0
VERTEX
  5
86F
  8
SITES
 10
427531.8979474807274528
 20
514698.4949892282020301
 30
0.0
  0
VERTEX
  5
870
  8
SITES
 10
427532.6401319346041419
 20
514707.0951136260991916
 30
0.0
  0
VERTEX
  5
871
  8
SITES
 10
427538.389821844000835
 20
514712.0961210390087217
 30
0.0
  0
SEQEND
  5
872
  8
SITES
  0
POLYLINE
  5
33B
  8
SITES
 66
     1
 10
0.0
 20
0.0
 30
0.0
 70
     1
  0
VERTEX
  5
873
  8
SITES
 10
428121.7216473518055864
 20
515133.3177890926017426
 30
0.0
  0
VERTEX
  5
874
  8
SITES
 10
428125.282588129513897
 20
515125.4218505920143798
 30
0.0
  0
VERTEX
  5
875
  8
SITES
 10
428122.3685816134093329
 20
515109.6596887659979984
 30
0.0
  0
VERTEX
  5
876
  8
SITES
 10
428112.3030784789007157
 20
515099.653417204215657
 30
0.0
  0
VERTEX
  5
877
  8
SITES
 10
428101.5354415006004274
 20
515094.6672549127833918
 30
0.0
  0
VERTEX
  5
878
  8
SITES
 10
428094.3817802087869495
 20
515099.7064525731257163
 30
0.0
  0
VERTEX
  5
879
  8
SITES
 10
428090.101882892602589
 20
515106.8876641939277761
 30
0.0
  0
VERTEX
  5
87A
  8
SITES
 10
428089.4104758431203663
 20
515115.4919325467199087
 30
0.0
  0
VERTEX
  5
87B
  8
SITES
 10
428091.5822054528980516
 20
515122.6540554946986958
 30
0.0
  0
VERTEX
  5
87C
  8
SITES
 10
428098.7761091563152149
 20
515131.2350048334919848
 30
0.0
  0
VERTEX
  5
87D
  8
SITES
 10
428109.5458109425962903
 20
515136.938059932726901
 30
0.0
  0
SEQEND
  5
87E
  8
SITES
  0
POLYLINE
  5
33C
  8
SITES
 66
     1
 10
0.0
 20
0.0
 30
0.0
 70
     1
  0
VERTEX
  5
87F
  8
SITES
 10
428101.0389474232215434
 20
515169.2216809947276488
 30
0.0
  0
VERTEX
  5
880
  8
SITES
 10
428106.7589257207000628
 20
515164.1868150579975918
 30
0.0
  0
VERTEX
  5
881
  8
SITES
 10
428108.8628644724958576
 20
515148.4097963665844873
 30
0.0
  0
VERTEX
  5
882
  8
SITES
 10
428102.3858529123244807
 20
515139.8266812391229905
 30
0.0
  0
VERTEX
  5
883
  8
SITES
 10
428090.1929943584837019
 20
515137.7121163523988798
 30
0.0
  0
VERTEX
  5
884
  8
SITES
 10
428080.8782303757034242
 20
515139.1733497572713532
 30
0.0
  0
VERTEX
  5
885
  8
SITES
 10
428075.1667140417266637
 20
515147.0756831847247668
 30
0.0
  0
VERTEX
  5
886
  8
SITES
 10
428076.6428043004125357
 20
515161.4083902786951512
 30
0.0
  0
VERTEX
  5
887
  8
SITES
 10
428082.3987923603272066
 20
515168.5599867473938502
 30
0.0
  0
VERTEX
  5
888
  8
SITES
 10
428095.3084425302222371
 20
515170.6723872107104398
 30
0.0
  0
SEQEND
  5
889
  8
SITES
  0
POLYLINE
  5
33D
  8
SITES
 66
     1
 10
0.0
 20
0.0
 30
0.0
 70
     1
  0
VERTEX
  5
88A
  8
SITES
 10
427955.4819744544220157
 20
515642.0599769555265084
 30
0.0
  0
VERTEX
  5
88B
  8
SITES
 10
427962.6229535709717311
 20
515632.7196407872252166
 30
0.0
  0
VERTEX
  5
88C
  8
SITES
 10
427963.3058138028136455
 20
515621.2480091425823048
 30
0.0
  0
VERTEX
  5
88D
  8
SITES
 10
427961.119242621876765
 20
515609.067843969212845
 30
0.0
  0
VERTEX
  5
88E
  8
SITES
 10
427949.6242017074255273
 20
515600.4996757816988975
 30
0.0
  0
VERTEX
  5
88F
  8
SITES
 10
427937.4313502421719022
 20
515598.3850974728120491
 30
0.0
  0
VERTEX
  5
890
  8
SITES
 10
427925.2683020540280268
 20
515606.3065020820940845
 30
0.0
  0
VERTEX
  5
891
  8
SITES
 10
427921.7179758056881838
 20
515617.7866904080729
 30
0.0
  0
VERTEX
  5
892
  8
SITES
 10
427923.8684506104909815
 20
515617.7803968347143382
 30
0.0
  0
VERTEX
  5
893
  8
SITES
 10
427946.8819389136042446
 20
515642.802241878292989
 30
0.0
  0
SEQEND
  5
894
  8
SITES
  0
POLYLINE
  5
33E
  8
SITES
 66
     1
 10
0.0
 20
0.0
 30
0.0
 70
     1
  0
VERTEX
  5
895
  8
SITES
 10
426519.518700851185713
 20
515957.2104622235056013
 30
0.0
  0
VERTEX
  5
896
  8
SITES
 10
426528.0933399106725119
 20
515947.8659380163880996
 30
0.0
  0
VERTEX
  5
897
  8
SITES
 10
426527.3297459668247029
 20
515932.0972417768207379
 30
0.0
  0
VERTEX
  5
898
  8
SITES
 10
426526.5662513240240514
 20
515916.3285457342281006
 30
0.0
  0
VERTEX
  5
899
  8
SITES
 10
426521.5079134771949612
 20
515902.7231004987261258
 30
0.0
  0
VERTEX
  5
89A
  8
SITES
 10
426504.9566467165132053
 20
515881.2661993735819124
 30
0.0
  0
VERTEX
  5
89B
  8
SITES
 10
426494.1825713618891314
 20
515874.1295684120850638
 30
0.0
  0
VERTEX
  5
89C
  8
SITES
 10
426482.7213031796854921
 20
515877.0308480315725319
 30
0.0
  0
VERTEX
  5
89D
  8
SITES
 10
426473.463800773024559
 20
515897.8472605139832012
 30
0.0
  0
VERTEX
  5
89E
  8
SITES
 10
426475.6715934398816898
 20
515917.1960714890738018
 30
0.0
  0
VERTEX
  5
89F
  8
SITES
 10
426480.7510691466159187
 20
515937.9699054189841263
 30
0.0
  0
VERTEX
  5
8A0
  8
SITES
 10
426489.4043693711282685
 20
515955.1490757127758116
 30
0.0
  0
VERTEX
  5
8A1
  8
SITES
 10
426498.0214845670270734
 20
515960.1415330821182579
 30
0.0
  0
VERTEX
  5
8A2
  8
SITES
 10
426506.6322084625717252
 20
515962.9834234716254286
 30
0.0
  0
SEQEND
  5
8A3
  8
SITES
  0
POLYLINE
  5
33F
  8
SITES
 66
     1
 10
0.0
 20
0.0
 30
0.0
 70
     1
  0
VERTEX
  5
8A4
  8
SITES
 10
426548.2207656435202807
 20
516103.5813080715015531
 30
0.0
  0
VERTEX
  5
8A5
  8
SITES
 10
426570.4475563815794885
 20
516104.9492160868248902
 30
0.0
  0
VERTEX
  5
8A6
  8
SITES
 10
426583.3361166405957192
 20
516099.8930476725799963
 30
0.0
  0
VERTEX
  5
8A7
  8
SITES
 10
426584.0359972461010329
 20
516094.1560705375159159
 30
0.0
  0
VERTEX
  5
8A8
  8
SITES
 10
426571.0943473175866529
 20
516081.2909097176743671
 30
0.0
  0
VERTEX
  5
8A9
  8
SITES
 10
426555.3214223100803792
 20
516080.6207198312040418
 30
0.0
  0
VERTEX
  5
8AA
  8
SITES
 10
426548.8739472589804791
 20
516082.0735704607213847
 30
0.0
  0
VERTEX
  5
8AB
  8
SITES
 10
426544.5834304711897857
 20
516085.6705976779921912
 30
0.0
  0
VERTEX
  5
8AC
  8
SITES
 10
426541.7479277441161685
 20
516096.4318889898131602
 30
0.0
  0
VERTEX
  5
8AD
  8
SITES
 10
426545.3576361837913282
 20
516105.0235406049760059
 30
0.0
  0
SEQEND
  5
8AE
  8
SITES
  0
POLYLINE
  5
340
  8
SITES
 66
     1
 10
0.0
 20
0.0
 30
0.0
 70
     1
  0
VERTEX
  5
8AF
  8
SITES
 10
426549.0905277087003924
 20
516155.1928622685954906
 30
0.0
  0
VERTEX
  5
8B0
  8
SITES
 10
426556.2357210998889059
 20
516147.286047084198799
 30
0.0
  0
VERTEX
  5
8B1
  8
SITES
 10
426556.2166495519923046
 20
516140.8344447201816365
 30
0.0
  0
VERTEX
  5
8B2
  8
SITES
 10
426549.0246595360222273
 20
516132.9703989477129653
 30
0.0
  0
VERTEX
  5
8B3
  8
SITES
 10
426532.5328830342041329
 20
516131.5852817361010239
 30
0.0
  0
VERTEX
  5
8B4
  8
SITES
 10
426513.6666369599988684
 20
516141.2191715005901642
 30
0.0
  0
VERTEX
  5
8B5
  8
SITES
 10
426513.78828867780976
 20
516149.3163277644780464
 30
0.0
  0
VERTEX
  5
8B6
  8
SITES
 10
426515.6202436349121854
 20
516151.7177963285939768
 30
0.0
  0
VERTEX
  5
8B7
  8
SITES
 10
426516.3823323018150404
 20
516152.9178303998196498
 30
0.0
  0
VERTEX
  5
8B8
  8
SITES
 10
426519.6973107598023489
 20
516154.5631751674809493
 30
0.0
  0
VERTEX
  5
8B9
  8
SITES
 10
426534.0429465384804644
 20
516157.3880623637815006
 30
0.0
  0
SEQEND
  5
8BA
  8
SITES
  0
POLYLINE
  5
341
  8
SITES
 66
     1
 10
0.0
 20
0.0
 30
0.0
 70
     1
  0
VERTEX
  5
8BB
  8
SITES
 10
427968.2892125821090303
 20
516335.9383834999753162
 30
0.0
  0
VERTEX
  5
8BC
  8
SITES
 10
427966.0919473029207438
 20
516320.174055332725402
 30
0.0
  0
VERTEX
  5
8BD
  8
SITES
 10
427956.0242152670980431
 20
516309.451064724184107
 30
0.0
  0
VERTEX
  5
8BE
  8
SITES
 10
427938.7879665596992709
 20
516298.7493070333730429
 30
0.0
  0
VERTEX
  5
8BF
  8
SITES
 10
427930.9004951508832164
 20
516298.0558110157726333
 30
0.0
  0
VERTEX
  5
8C0
  8
SITES
 10
427925.1762782160076313
 20
516301.6570750632090494
 30
0.0
  0
VERTEX
  5
8C1
  8
SITES
 10
427923.0682677797158249
 20
516316.0003975788713433
 30
0.0
  0
VERTEX
  5
8C2
  8
SITES
 10
427925.9674823802197352
 20
516326.7446193249779753
 30
0.0
  0
VERTEX
  5
8C3
  8
SITES
 10
427930.2749216951197013
 20
516328.8825150387128815
 30
0.0
  0
VERTEX
  5
8C4
  8
SITES
 10
427948.2280609225854278
 20
516339.5821107389056124
 30
0.0
  0
VERTEX
  5
8C5
  8
SITES
 10
427964.0050676048849709
 20
516341.685996112821158
 30
0.0
  0
SEQEND
  5
8C6
  8
SITES
  0
POLYLINE
  5
342
  8
SITES
 66
     1
 10
0.0
 20
0.0
 30
0.0
 70
     1
  0
VERTEX
  5
8C7
  8
SITES
 10
428033.0095310154138133
 20
516404.5648140928824432
 30
0.0
  0
VERTEX
  5
8C8
  8
SITES
 10
428044.4578700027195737
 20
516397.3622867494123057
 30
0.0
  0
VERTEX
  5
8C9
  8
SITES
 10
428052.3092712503275834
 20
516385.8693231779034249
 30
0.0
  0
VERTEX
  5
8CA
  8
SITES
 10
428053.7195609307964332
 20
516377.9797863003914244
 30
0.0
  0
VERTEX
  5
8CB
  8
SITES
 10
428050.0971654888126068
 20
516365.0871482669026591
 30
0.0
  0
VERTEX
  5
8CC
  8
SITES
 10
428040.7652927380986512
 20
516360.8136176589759998
 30
0.0
  0
VERTEX
  5
8CD
  8
SITES
 10
428028.5789315289002843
 20
516360.8496909695095383
 30
0.0
  0
VERTEX
  5
8CE
  8
SITES
 10
428008.5262290007085539
 20
516367.3608845797134563
 30
0.0
  0
VERTEX
  5
8CF
  8
SITES
 10
427997.7946835923939943
 20
516374.56114904867718
 30
0.0
  0
VERTEX
  5
8D0
  8
SITES
 10
427994.2338187450077385
 20
516382.4571739694220014
 30
0.0
  0
VERTEX
  5
8D1
  8
SITES
 10
427994.269991027074866
 20
516394.6436340648215264
 30
0.0
  0
VERTEX
  5
8D2
  8
SITES
 10
428001.4639655618229881
 20
516403.2245048024924472
 30
0.0
  0
VERTEX
  5
8D3
  8
SITES
 10
428012.2272576107061468
 20
516406.7769179214956239
 30
0.0
  0
SEQEND
  5
8D4
  8
SITES
  0
POLYLINE
  5
343
  8
SITES
 66
     1
 10
0.0
 20
0.0
 30
0.0
 70
     1
  0
VERTEX
  5
8D5
  8
SITES
 10
427758.475221652595792
 20
516411.8299825455178507
 30
0.0
  0
VERTEX
  5
8D6
  8
SITES
 10
427760.6045652944012545
 20
516404.6550800949917175
 30
0.0
  0
VERTEX
  5
8D7
  8
SITES
 10
427754.8357257117168047
 20
516393.2025230195722543
 30
0.0
  0
VERTEX
  5
8D8
  8
SITES
 10
427749.800781955011189
 20
516387.4825339213712141
 30
0.0
  0
VERTEX
  5
8D9
  8
SITES
 10
427726.1341537379194051
 20
516383.9683590228087269
 30
0.0
  0
VERTEX
  5
8DA
  8
SITES
 10
427719.6909846129128709
 20
516386.8548917816951871
 30
0.0
  0
VERTEX
  5
8DB
  8
SITES
 10
427716.1300220647244714
 20
516394.7509108979138546
 30
0.0
  0
VERTEX
  5
8DC
  8
SITES
 10
427718.2954372870735824
 20
516399.7624605927849188
 30
0.0
  0
VERTEX
  5
8DD
  8
SITES
 10
427741.2708299331716262
 20
516411.8809952465235256
 30
0.0
  0
VERTEX
  5
8DE
  8
SITES
 10
427749.877251865924336
 20
516413.2891215633135289
 30
0.0
  0
SEQEND
  5
8DF
  8
SITES
  0
POLYLINE
  5
344
  8
SITES
 66
     1
 10
0.0
 20
0.0
 30
0.0
 70
     1
  0
VERTEX
  5
8E0
  8
SITES
 10
428158.5558209624141455
 20
516437.1681151686934754
 30
0.0
  0
VERTEX
  5
8E1
  8
SITES
 10
428169.2809830125770532
 20
516427.8171732543269172
 30
0.0
  0
VERTEX
  5
8E2
  8
SITES
 10
428171.4102290517184883
 20
516420.6423632245860063
 30
0.0
  0
VERTEX
  5
8E3
  8
SITES
 10
428170.6700436359969899
 20
516412.7591133523965254
 30
0.0
  0
VERTEX
  5
8E4
  8
SITES
 10
428166.3562127962941304
 20
516408.4708390589803457
 30
0.0
  0
VERTEX
  5
8E5
  8
SITES
 10
428144.110565553419292
 20
516400.6512811154243536
 30
0.0
  0
VERTEX
  5
8E6
  8
SITES
 10
428130.4882541110273451
 20
516399.9747871445724741
 30
0.0
  0
VERTEX
  5
8E7
  8
SITES
 10
428119.7546415081014857
 20
516406.4583609462133609
 30
0.0
  0
VERTEX
  5
8E8
  8
SITES
 10
428111.913953504874371
 20
516421.5354861678206362
 30
0.0
  0
VERTEX
  5
8E9
  8
SITES
 10
428113.3688675711164251
 20
516428.6997798908269033
 30
0.0
  0
VERTEX
  5
8EA
  8
SITES
 10
428118.4122675785911269
 20
516437.2870427470770665
 30
0.0
  0
VERTEX
  5
8EB
  8
SITES
 10
428127.0357013297034428
 20
516444.430106888175942
 30
0.0
  0
VERTEX
  5
8EC
  8
SITES
 10
428134.2063844330259599
 20
516445.1256692393799312
 30
0.0
  0
SEQEND
  5
8ED
  8
SITES
  0
POLYLINE
  5
345
  8
SITES
 66
     1
 10
0.0
 20
0.0
 30
0.0
 70
     1
  0
VERTEX
  5
8EE
  8
SITES
 10
428617.8661819446715526
 20
516641.2476615546038374
 30
0.0
  0
VERTEX
  5
8EF
  8
SITES
 10
428619.2594773864257149
 20
516627.6233709850930609
 30
0.0
  0
VERTEX
  5
8F0
  8
SITES
 10
428618.536196539294906
 20
516625.4749548495165072
 30
0.0
  0
VERTEX
  5
8F1
  8
SITES
 10
428617.8172409731778316
 20
516624.7602246340247802
 30
0.0
  0
VERTEX
  5
8F2
  8
SITES
 10
428604.163173294509761
 20
516613.3310292123933323
 30
0.0
  0
VERTEX
  5
8F3
  8
SITES
 10
428589.8198279803036712
 20
516611.2230042748269625
 30
0.0
  0
VERTEX
  5
8F4
  8
SITES
 10
428584.8104288610047661
 20
516614.1052145388093777
 30
0.0
  0
VERTEX
  5
8F5
  8
SITES
 10
428579.8116430013906211
 20
516620.5717887990758754
 30
0.0
  0
VERTEX
  5
8F6
  8
SITES
 10
428579.1266901941853575
 20
516631.3265440589166246
 30
0.0
  0
VERTEX
  5
8F7
  8
SITES
 10
428584.1615412734099664
 20
516637.0464481472736225
 30
0.0
  0
VERTEX
  5
8F8
  8
SITES
 10
428587.0396256853709929
 20
516640.6222618654719554
 30
0.0
  0
VERTEX
  5
8F9
  8
SITES
 10
428589.1944295156863518
 20
516642.0495597003027797
 30
0.0
  0
VERTEX
  5
8FA
  8
SITES
 10
428610.7082662048051134
 20
516644.8531522505218163
 30
0.0
  0
SEQEND
  5
8FB
  8
SITES
  0
POLYLINE
  5
346
  8
SITES
 66
     1
 10
0.0
 20
0.0
 30
0.0
 70
     1
  0
VERTEX
  5
8FC
  8
SITES
 10
428510.6600040086195804
 20
516749.8104556354228407
 30
0.0
  0
VERTEX
  5
8FD
  8
SITES
 10
428522.8379304893896915
 20
516746.906923356174957
 30
0.0
  0
VERTEX
  5
8FE
  8
SITES
 10
428526.4114819946116768
 20
516743.3120473847957328
 30
0.0
  0
VERTEX
  5
8FF
  8
SITES
 10
428524.2376167256152257
 20
516735.4331146809272468
 30
0.0
  0
VERTEX
  5
900
  8
SITES
 10
428509.8560503376065753
 20
516720.4218169826781377
 30
0.0
  0
VERTEX
  5
901
  8
SITES
 10
428493.3515185127034783
 20
516714.7359126948285848
 30
0.0
  0
VERTEX
  5
902
  8
SITES
 10
428478.3040600838139653
 20
516716.9311030277749524
 30
0.0
  0
VERTEX
  5
903
  8
SITES
 10
428469.748722980322782
 20
516732.7271911117131822
 30
0.0
  0
VERTEX
  5
904
  8
SITES
 10
428479.0931768071022816
 20
516741.3017908064066432
 30
0.0
  0
VERTEX
  5
905
  8
SITES
 10
428500.6241063434281386
 20
516749.8401297209202312
 30
0.0
  0
SEQEND
  5
906
  8
SITES
  0
POLYLINE
  5
347
  8
SITES
 66
     1
 10
0.0
 20
0.0
 30
0.0
 70
     1
  0
VERTEX
  5
907
  8
SITES
 10
427291.0375021680956706
 20
516805.0946607281803153
 30
0.0
  0
VERTEX
  5
908
  8
SITES
 10
427295.3194843084784225
 20
516798.630272313777823
 30
0.0
  0
VERTEX
  5
909
  8
SITES
 10
427295.3067104290239513
 20
516794.3291292667854577
 30
0.0
  0
VERTEX
  5
90A
  8
SITES
 10
427290.9801194604951888
 20
516785.7396172888111323
 30
0.0
  0
VERTEX
  5
90B
  8
SITES
 10
427286.6683647626196034
 20
516782.1681388322031125
 30
0.0
  0
VERTEX
  5
90C
  8
SITES
 10
427276.6367227482260205
 20
516783.6315926720853895
 30
0.0
  0
VERTEX
  5
90D
  8
SITES
 10
427271.6548491920111701
 20
516795.8329668932128698
 30
0.0
  0
VERTEX
  5
90E
  8
SITES
 10
427278.1277864736039191
 20
516802.9824107409804128
 30
0.0
  0
VERTEX
  5
90F
  8
SITES
 10
427286.7385214410023764
 20
516805.8243250118102878
 30
0.0
  0
SEQEND
  5
910
  8
SITES
  0
POLYLINE
  5
348
  8
SITES
 66
     1
 10
0.0
 20
0.0
 30
0.0
 70
     1
  0
VERTEX
  5
911
  8
SITES
 10
426204.481560644286219
 20
516922.1699704221100546
 30
0.0
  0
VERTEX
  5
912
  8
SITES
 10
426210.9247091187862679
 20
516919.2834575622109696
 30
0.0
  0
VERTEX
  5
913
  8
SITES
 10
426221.6457060733227991
 20
516908.4986981638940051
 30
0.0
  0
VERTEX
  5
914
  8
SITES
 10
426231.6328174127847888
 20
516891.9812915871152654
 30
0.0
  0
VERTEX
  5
915
  8
SITES
 10
426225.1385776164825074
 20
516877.6632793545722961
 30
0.0
  0
VERTEX
  5
916
  8
SITES
 10
426212.9307507185731083
 20
516870.5308504065033048
 30
0.0
  0
VERTEX
  5
917
  8
SITES
 10
426199.316855201323051
 20
516872.7217969991033897
 30
0.0
  0
VERTEX
  5
918
  8
SITES
 10
426178.5726937729050405
 20
516887.8374576200149022
 30
0.0
  0
VERTEX
  5
919
  8
SITES
 10
426174.3203916681814007
 20
516904.3378652342944406
 30
0.0
  0
VERTEX
  5
91A
  8
SITES
 10
426178.6620021234848537
 20
516917.9453739140881225
 30
0.0
  0
VERTEX
  5
91B
  8
SITES
 10
426190.8612787947058678
 20
516922.2104495925013907
 30
0.0
  0
SEQEND
  5
91C
  8
SITES
  0
POLYLINE
  5
349
  8
SITES
 66
     1
 10
0.0
 20
0.0
 30
0.0
 70
     1
  0
VERTEX
  5
91D
  8
SITES
 10
427485.0701944240136072
 20
516967.2461615264764987
 30
0.0
  0
VERTEX
  5
91E
  8
SITES
 10
427481.4667819628957659
 20
516960.8051539164152928
 30
0.0
  0
VERTEX
  5
91F
  8
SITES
 10
427465.6811495861038566
 20
516955.8338827855768614
 30
0.0
  0
VERTEX
  5
920
  8
SITES
 10
427459.233756348316092
 20
516957.2867227367823943
 30
0.0
  0
VERTEX
  5
921
  8
SITES
 10
427457.0917319635045715
 20
516960.1605720372172073
 30
0.0
  0
VERTEX
  5
922
  8
SITES
 10
427459.9718673567986116
 20
516964.4531687573180534
 30
0.0
  0
VERTEX
  5
923
  8
SITES
 10
427469.3101060758926906
 20
516970.8771800028043799
 30
0.0
  0
VERTEX
  5
924
  8
SITES
 10
427482.9366179584758356
 20
516972.9873743265052326
 30
0.0
  0
SEQEND
  5
925
  8
SITES
  0
POLYLINE
  5
34A
  8
SITES
 66
     1
 10
0.0
 20
0.0
 30
0.0
 70
     1
  0
VERTEX
  5
926
  8
SITES
 10
428228.0897038669208996
 20
516947.783370763878338
 30
0.0
  0
VERTEX
  5
927
  8
SITES
 10
428230.2318320989143103
 20
516944.909615830576513
 30
0.0
  0
VERTEX
  5
928
  8
SITES
 10
428227.3303700357209891
 20
516933.4484888549195603
 30
0.0
  0
VERTEX
  5
929
  8
SITES
 10
428218.0006610380951315
 20
516929.8919350450742058
 30
0.0
  0
VERTEX
  5
92A
  8
SITES
 10
428212.9912641327246092
 20
516932.7742384796729311
 30
0.0
  0
VERTEX
  5
92B
  8
SITES
 10
428211.5788006999064237
 20
516939.9469843661063351
 30
0.0
  0
VERTEX
  5
92C
  8
SITES
 10
428214.46110397571465
 20
516944.9563813579152338
 30
0.0
  0
VERTEX
  5
92D
  8
SITES
 10
428222.3571282714256085
 20
516948.5172595889889635
 30
0.0
  0
SEQEND
  5
92E
  8
SITES
  0
POLYLINE
  5
34B
  8
SITES
 66
     1
 10
0.0
 20
0.0
 30
0.0
 70
     1
  0
VERTEX
  5
92F
  8
SITES
 10
427769.4828114776173607
 20
516965.2385387244867161
 30
0.0
  0
VERTEX
  5
930
  8
SITES
 10
427775.1218324779183604
 20
516954.4239246214274317
 30
0.0
  0
VERTEX
  5
931
  8
SITES
 10
427776.5511102029122412
 20
516951.2141591475810856
 30
0.0
  0
VERTEX
  5
932
  8
SITES
 10
427777.5870466200285591
 20
516948.347749829699751
 30
0.0
  0
VERTEX
  5
933
  8
SITES
 10
427778.3237733737914823
 20
516945.4355726739158854
 30
0.0
  0
VERTEX
  5
934
  8
SITES
 10
427778.6373129215207882
 20
516942.7566241641761735
 30
0.0
  0
VERTEX
  5
935
  8
SITES
 10
427778.5317140592960641
 20
516940.2747605904005468
 30
0.0
  0
VERTEX
  5
936
  8
SITES
 10
427778.0058492288808338
 20
516937.9724240492796525
 30
0.0
  0
VERTEX
  5
937
  8
SITES
 10
427776.8956558614154346
 20
516934.9256678724195808
 30
0.0
  0
VERTEX
  5
938
  8
SITES
 10
427775.8199808257049881
 20
516932.7791438442072831
 30
0.0
  0
VERTEX
  5
939
  8
SITES
 10
427774.5951318208826706
 20
516931.1662237591226585
 30
0.0
  0
VERTEX
  5
93A
  8
SITES
 10
427773.2041749826748855
 20
516930.0871770256781019
 30
0.0
  0
VERTEX
  5
93B
  8
SITES
 10
427771.8071621563285589
 20
516929.5195143314194866
 30
0.0
  0
VERTEX
  5
93C
  8
SITES
 10
427770.1309964983956888
 20
516929.208196877327282
 30
0.0
  0
VERTEX
  5
93D
  8
SITES
 10
427768.1619839274790138
 20
516929.1485372335882857
 30
0.0
  0
VERTEX
  5
93E
  8
SITES
 10
427765.8020353688043542
 20
516929.3372429048176855
 30
0.0
  0
VERTEX
  5
93F
  8
SITES
 10
427763.4143810759996995
 20
516929.8202518412144855
 30
0.0
  0
VERTEX
  5
940
  8
SITES
 10
427760.9699284170055762
 20
516930.6983065942768008
 30
0.0
  0
VERTEX
  5
941
  8
SITES
 10
427758.5120976367034018
 20
516931.9565265697892755
 30
0.0
  0
VERTEX
  5
942
  8
SITES
 10
427756.1197335707838647
 20
516933.5549861860927194
 30
0.0
  0
VERTEX
  5
943
  8
SITES
 10
427753.7387864097254351
 20
516935.8349983320222236
 30
0.0
  0
VERTEX
  5
944
  8
SITES
 10
427751.6040154877118766
 20
516938.9357315647066571
 30
0.0
  0
VERTEX
  5
945
  8
SITES
 10
427749.8225985529716127
 20
516942.469373720115982
 30
0.0
  0
VERTEX
  5
946
  8
SITES
 10
427746.4989855160238221
 20
516950.2527056385879405
 30
0.0
  0
VERTEX
  5
947
  8
SITES
 10
427741.9248393970774487
 20
516959.303416307317093
 30
0.0
  0
VERTEX
  5
948
  8
SITES
 10
427740.2080109490198083
 20
516963.2442576924804598
 30
0.0
  0
VERTEX
  5
949
  8
SITES
 10
427739.0151623692945577
 20
516967.3378308854880743
 30
0.0
  0
VERTEX
  5
94A
  8
SITES
 10
427738.7405907718930393
 20
516969.2357658257824369
 30
0.0
  0
VERTEX
  5
94B
  8
SITES
 10
427738.6752800476970151
 20
516971.0647363609750755
 30
0.0
  0
VERTEX
  5
94C
  8
SITES
 10
427738.6093923303997144
 20
516975.0899671111255884
 30
0.0
  0
VERTEX
  5
94D
  8
SITES
 10
427738.7642418402829207
 20
516977.0312082453165203
 30
0.0
  0
VERTEX
  5
94E
  8
SITES
 10
427739.2625143846962601
 20
516978.6228176046861336
 30
0.0
  0
VERTEX
  5
94F
  8
SITES
 10
427740.134506736183539
 20
516979.6627081591286696
 30
0.0
  0
VERTEX
  5
950
  8
SITES
 10
427743.6314291196176782
 20
516981.8826948694186285
 30
0.0
  0
VERTEX
  5
951
  8
SITES
 10
427747.2045297162840143
 20
516983.5371020763996057
 30
0.0
  0
VERTEX
  5
952
  8
SITES
 10
427750.5809390888898633
 20
516984.5014816998736933
 30
0.0
  0
VERTEX
  5
953
  8
SITES
 10
427753.6204538273741491
 20
516984.7386046599713154
 30
0.0
  0
VERTEX
  5
954
  8
SITES
 10
427755.0445957414922304
 20
516984.347347867093049
 30
0.0
  0
VERTEX
  5
955
  8
SITES
 10
427756.6975800307118334
 20
516983.2974488420877606
 30
0.0
  0
VERTEX
  5
956
  8
SITES
 10
427758.5645625222241506
 20
516981.5979193613748066
 30
0.0
  0
VERTEX
  5
957
  8
SITES
 10
427760.6172170385252684
 20
516979.2743154977215454
 30
0.0
  0
VERTEX
  5
958
  8
SITES
 10
427762.8711436776211485
 20
516976.2929481047904119
 30
0.0
  0
VERTEX
  5
959
  8
SITES
 10
427765.1944323439965956
 20
516972.8136484592105262
 30
0.0
  0
VERTEX
  5
95A
  8
SITES
 10
427767.4708860610844567
 20
516969.0081020147772506
 30
0.0
  0
SEQEND
  5
95B
  8
SITES
  0
POLYLINE
  5
34C
  8
SITES
 66
     1
 10
0.0
 20
0.0
 30
0.0
 70
     1
  0
VERTEX
  5
95C
  8
SITES
 10
427855.5622594286105596
 20
516984.3382669285056181
 30
0.0
  0
VERTEX
  5
95D
  8
SITES
 10
427844.0586031434941106
 20
516972.9026946282247081
 30
0.0
  0
VERTEX
  5
95E
  8
SITES
 10
427832.6018112510209903
 20
516977.237835802603513
 30
0.0
  0
VERTEX
  5
95F
  8
SITES
 10
427833.344146792718675
 20
516985.83787164487876
 30
0.0
  0
VERTEX
  5
960
  8
SITES
 10
427841.2507730119978078
 20
516992.9830047927098349
 30
0.0
  0
VERTEX
  5
961
  8
SITES
 10
427854.1625680839060806
 20
516995.8121552892262116
 30
0.0
  0
SEQEND
  5
962
  8
SITES
  0
POLYLINE
  5
34D
  8
SITES
 66
     1
 10
0.0
 20
0.0
 30
0.0
 70
     1
  0
VERTEX
  5
963
  8
SITES
 10
428662.8928795286919922
 20
517079.1113582762191072
 30
0.0
  0
VERTEX
  5
964
  8
SITES
 10
428668.6042431750101969
 20
517071.2090404502814636
 30
0.0
  0
VERTEX
  5
965
  8
SITES
 10
428670.722894191974774
 20
517060.449959738412872
 30
0.0
  0
VERTEX
  5
966
  8
SITES
 10
428667.130081724608317
 20
517057.5931970017263666
 30
0.0
  0
VERTEX
  5
967
  8
SITES
 10
428649.9257500364910811
 20
517057.6442820418742485
 30
0.0
  0
VERTEX
  5
968
  8
SITES
 10
428639.1858268827782013
 20
517061.9772679574089125
 30
0.0
  0
VERTEX
  5
969
  8
SITES
 10
428642.0893504210980609
 20
517074.155100793519523
 30
0.0
  0
VERTEX
  5
96A
  8
SITES
 10
428649.9938295555766672
 20
517080.5833572344272397
 30
0.0
  0
SEQEND
  5
96B
  8
SITES
  0
POLYLINE
  5
34E
  8
SITES
 66
     1
 10
0.0
 20
0.0
 30
0.0
 70
     1
  0
VERTEX
  5
96C
  8
SITES
 10
427903.0741119345766492
 20
517094.9861369093996473
 30
0.0
  0
VERTEX
  5
96D
  8
SITES
 10
427902.3082987720845267
 20
517078.5006914893165231
 30
0.0
  0
VERTEX
  5
96E
  8
SITES
 10
427893.6976521015749313
 20
517075.6588669918128289
 30
0.0
  0
VERTEX
  5
96F
  8
SITES
 10
427883.6659935779171064
 20
517077.1223157370113768
 30
0.0
  0
VERTEX
  5
970
  8
SITES
 10
427876.5208578822785057
 20
517085.0289411920239218
 30
0.0
  0
VERTEX
  5
971
  8
SITES
 10
427877.2569056103820913
 20
517091.4785035646054894
 30
0.0
  0
VERTEX
  5
972
  8
SITES
 10
427879.4180892978911288
 20
517095.0563760410877876
 30
0.0
  0
VERTEX
  5
973
  8
SITES
 10
427888.0287355235195719
 20
517097.8982008587918244
 30
0.0
  0
VERTEX
  5
974
  8
SITES
 10
427897.3520497877034359
 20
517099.3042808385798708
 30
0.0
  0
SEQEND
  5
975
  8
SITES
  0
POLYLINE
  5
34F
  8
SITES
 66
     1
 10
0.0
 20
0.0
 30
0.0
 70
     1
  0
VERTEX
  5
976
  8
SITES
 10
426184.590170442010276
 20
517224.7450155885890126
 30
0.0
  0
VERTEX
  5
977
  8
SITES
 10
426186.6854359458084218
 20
517206.1004298984771594
 30
0.0
  0
VERTEX
  5
978
  8
SITES
 10
426179.4913123758160509
 20
517197.5193834932870232
 30
0.0
  0
VERTEX
  5
979
  8
SITES
 10
426172.3164427495794371
 20
517195.3901337765273638
 30
0.0
  0
VERTEX
  5
97A
  8
SITES
 10
426144.3866936290869489
 20
517204.7921845249948092
 30
0.0
  0
VERTEX
  5
97B
  8
SITES
 10
426142.99977068498265
 20
517220.5672529772273265
 30
0.0
  0
VERTEX
  5
97C
  8
SITES
 10
426155.9372466960921884
 20
517231.9986607760074548
 30
0.0
  0
VERTEX
  5
97D
  8
SITES
 10
426173.1481541760731488
 20
517234.098250070004724
 30
0.0
  0
SEQEND
  5
97E
  8
SITES
  0
POLYLINE
  5
350
  8
SITES
 66
     1
 10
0.0
 20
0.0
 30
0.0
 70
     1
  0
VERTEX
  5
97F
  8
SITES
 10
427690.1484038162743673
 20
517330.0301833758712746
 30
0.0
  0
VERTEX
  5
980
  8
SITES
 10
427697.2913797929068096
 20
517321.4066747938049957
 30
0.0
  0
VERTEX
  5
981
  8
SITES
 10
427702.9921274817897938
 20
517309.9201235519140027
 30
0.0
  0
VERTEX
  5
982
  8
SITES
 10
427702.1901793217984959
 20
517281.2481347129796632
 30
0.0
  0
VERTEX
  5
983
  8
SITES
 10
427697.1467029986088164
 20
517272.6608698565978557
 30
0.0
  0
VERTEX
  5
984
  8
SITES
 10
427689.2506920892046764
 20
517269.0999897994915955
 30
0.0
  0
VERTEX
  5
985
  8
SITES
 10
427683.5307924911030568
 20
517274.1350201084860601
 30
0.0
  0
VERTEX
  5
986
  8
SITES
 10
427677.1217005518847145
 20
517288.4911975070717745
 30
0.0
  0
VERTEX
  5
987
  8
SITES
 10
427677.94496201450238
 20
517324.3315968075185083
 30
0.0
  0
VERTEX
  5
988
  8
SITES
 10
427683.6988441018038429
 20
517330.7662267739069648
 30
0.0
  0
SEQEND
  5
989
  8
SITES
  0
POLYLINE
  5
351
  8
SITES
 66
     1
 10
0.0
 20
0.0
 30
0.0
 70
     1
  0
VERTEX
  5
98A
  8
SITES
 10
428956.052149931085296
 20
517337.0099944737157784
 30
0.0
  0
VERTEX
  5
98B
  8
SITES
 10
428956.7520523437997326
 20
517331.2730849161162041
 30
0.0
  0
VERTEX
  5
98C
  8
SITES
 10
428954.5780964185833
 20
517323.3941402240889147
 30
0.0
  0
VERTEX
  5
98D
  8
SITES
 10
428950.9832217188086361
 20
517319.8205795782851055
 30
0.0
  0
VERTEX
  5
98E
  8
SITES
 10
428943.7785423879977316
 20
517307.6555038710939698
 30
0.0
  0
VERTEX
  5
98F
  8
SITES
 10
428933.0130713999969885
 20
517303.3862644127220847
 30
0.0
  0
VERTEX
  5
990
  8
SITES
 10
428927.2847078142222017
 20
517305.5538363854284398
 30
0.0
  0
VERTEX
  5
991
  8
SITES
 10
428924.4280409257044084
 20
517309.146649559319485
 30
0.0
  0
VERTEX
  5
992
  8
SITES
 10
428923.7260774816968478
 20
517314.1666653297143057
 30
0.0
  0
VERTEX
  5
993
  8
SITES
 10
428927.3337204640265554
 20
517322.0412865881226026
 30
0.0
  0
VERTEX
  5
994
  8
SITES
 10
428946.7352955213864334
 20
517337.7544859349145554
 30
0.0
  0
SEQEND
  5
995
  8
SITES
  0
POLYLINE
  5
352
  8
SITES
 66
     1
 10
0.0
 20
0.0
 30
0.0
 70
     1
  0
VERTEX
  5
996
  8
SITES
 10
427438.5727234543883242
 20
517483.5220748200081289
 30
0.0
  0
VERTEX
  5
997
  8
SITES
 10
427435.6308218786725774
 20
517458.4407419146155007
 30
0.0
  0
VERTEX
  5
998
  8
SITES
 10
427432.0338013494038023
 20
517454.1502029533148743
 30
0.0
  0
VERTEX
  5
999
  8
SITES
 10
427409.0605191583163105
 20
517442.7487074134987779
 30
0.0
  0
VERTEX
  5
99A
  8
SITES
 10
427402.6066415159148164
 20
517442.0510668869828805
 30
0.0
  0
VERTEX
  5
99B
  8
SITES
 10
427392.5835385142127052
 20
517446.3819672570098191
 30
0.0
  0
VERTEX
  5
99C
  8
SITES
 10
427387.5868151903850958
 20
517453.5653021531761624
 30
0.0
  0
VERTEX
  5
99D
  8
SITES
 10
427389.0503521441714838
 20
517463.5970495914807543
 30
0.0
  0
VERTEX
  5
99E
  8
SITES
 10
427404.1659287479124032
 20
517484.3409971647779457
 30
0.0
  0
VERTEX
  5
99F
  8
SITES
 10
427412.7894281517947093
 20
517491.4839716451242566
 30
0.0
  0
VERTEX
  5
9A0
  8
SITES
 10
427428.5708297794917598
 20
517495.0214821071131155
 30
0.0
  0
SEQEND
  5
9A1
  8
SITES
  0
POLYLINE
  5
353
  8
SITES
 66
     1
 10
0.0
 20
0.0
 30
0.0
 70
     1
  0
VERTEX
  5
9A2
  8
SITES
 10
428930.936407379922457
 20
517542.1192394883837551
 30
0.0
  0
VERTEX
  5
9A3
  8
SITES
 10
428931.6276687257923186
 20
517533.5149564819876105
 30
0.0
  0
VERTEX
  5
9A4
  8
SITES
 10
428918.67980416782666
 20
517518.499591956322547
 30
0.0
  0
VERTEX
  5
9A5
  8
SITES
 10
428906.4954765000729822
 20
517519.2526231132214889
 30
0.0
  0
VERTEX
  5
9A6
  8
SITES
 10
428902.2071821289719082
 20
517523.5664500704151578
 30
0.0
  0
VERTEX
  5
9A7
  8
SITES
 10
428901.5223041906137951
 20
517534.321212814305909
 30
0.0
  0
VERTEX
  5
9A8
  8
SITES
 10
428915.1786168778198771
 20
517546.4671424562111497
 30
0.0
  0
VERTEX
  5
9A9
  8
SITES
 10
428925.2208085117163137
 20
517548.5878689120290801
 30
0.0
  0
SEQEND
  5
9AA
  8
SITES
  0
POLYLINE
  5
354
  8
SITES
 66
     1
 10
0.0
 20
0.0
 30
0.0
 70
     1
  0
VERTEX
  5
9AB
  8
SITES
 10
428963.3413222192903049
 20
517591.4858494031941518
 30
0.0
  0
VERTEX
  5
9AC
  8
SITES
 10
428966.1980918914778158
 20
517587.8930380275123753
 30
0.0
  0
VERTEX
  5
9AD
  8
SITES
 10
428964.0219800284830853
 20
517579.2972980702179484
 30
0.0
  0
VERTEX
  5
9AE
  8
SITES
 10
428953.9499342204071581
 20
517567.1407610232708976
 30
0.0
  0
VERTEX
  5
9AF
  8
SITES
 10
428948.9299185589770786
 20
517566.4387942745233886
 30
0.0
  0
VERTEX
  5
9B0
  8
SITES
 10
428941.7443956063943915
 20
517560.7253556923242286
 30
0.0
  0
VERTEX
  5
9B1
  8
SITES
 10
428937.4454955806722865
 20
517561.4549151302198879
 30
0.0
  0
VERTEX
  5
9B2
  8
SITES
 10
428937.4497175514115952
 20
517562.8886021021171473
 30
0.0
  0
VERTEX
  5
9B3
  8
SITES
 10
428933.8655499299056828
 20
517562.8993069761199877
 30
0.0
  0
VERTEX
  5
9B4
  8
SITES
 10
428928.8603612898150459
 20
517567.2152946371934377
 30
0.0
  0
VERTEX
  5
9B5
  8
SITES
 10
428927.454366710386239
 20
517576.5385319557972252
 30
0.0
  0
VERTEX
  5
9B6
  8
SITES
 10
428946.8560318017262034
 20
517592.2516440495965071
 30
0.0
  0
SEQEND
  5
9B7
  8
SITES
  0
POLYLINE
  5
355
  8
SITES
 66
     1
 10
0.0
 20
0.0
 30
0.0
 70
     1
  0
VERTEX
  5
9B8
  8
SITES
 10
427863.4067948805750348
 20
517650.5295124775147997
 30
0.0
  0
VERTEX
  5
9B9
  8
SITES
 10
427866.9825094370171428
 20
517647.6515422248048708
 30
0.0
  0
VERTEX
  5
9BA
  8
SITES
 10
427868.3821198110817932
 20
517636.1776555489050224
 30
0.0
  0
VERTEX
  5
9BB
  8
SITES
 10
427859.7522304424783215
 20
517626.8841950321220793
 30
0.0
  0
VERTEX
  5
9BC
  8
SITES
 10
427842.5520554058020934
 20
517628.3689378746203147
 30
0.0
  0
VERTEX
  5
9BD
  8
SITES
 10
427840.4121849421062507
 20
517631.9595779699739069
 30
0.0
  0
VERTEX
  5
9BE
  8
SITES
 10
427842.6053754978929646
 20
517646.290225995820947
 30
0.0
  0
VERTEX
  5
9BF
  8
SITES
 10
427855.5235485350713134
 20
517651.2698725343798287
 30
0.0
  0
SEQEND
  5
9C0
  8
SITES
  0
POLYLINE
  5
356
  8
SITES
 66
     1
 10
0.0
 20
0.0
 30
0.0
 70
     1
  0
VERTEX
  5
9C1
  8
SITES
 10
429406.0518088688259013
 20
517730.6735546818817966
 30
0.0
  0
VERTEX
  5
9C2
  8
SITES
 10
429417.4936299364781007
 20
517721.3204569590743631
 30
0.0
  0
VERTEX
  5
9C3
  8
SITES
 10
429416.7533678798936307
 20
517713.437279479810968
 30
0.0
  0
VERTEX
  5
9C4
  8
SITES
 10
429403.1226713474025019
 20
517709.8935610515763983
 30
0.0
  0
VERTEX
  5
9C5
  8
SITES
 10
429394.5333035064977594
 20
517714.2201556296204217
 30
0.0
  0
VERTEX
  5
9C6
  8
SITES
 10
429382.3555426833918318
 20
517717.1237649309914559
 30
0.0
  0
VERTEX
  5
9C7
  8
SITES
 10
429371.6284564314992167
 20
517725.7578070421004668
 30
0.0
  0
VERTEX
  5
9C8
  8
SITES
 10
429367.3529188274987973
 20
517734.3727026099804789
 30
0.0
  0
VERTEX
  5
9C9
  8
SITES
 10
429389.579363665310666
 20
517735.7404106060857885
 30
0.0
  0
SEQEND
  5
9CA
  8
SITES
  0
POLYLINE
  5
357
  8
SITES
 66
     1
 10
0.0
 20
0.0
 30
0.0
 70
     1
  0
VERTEX
  5
9CB
  8
SITES
 10
428081.4693976253038272
 20
517697.1941025389824063
 30
0.0
  0
VERTEX
  5
9CC
  8
SITES
 10
428085.7534635848132893
 20
517691.4466025652945973
 30
0.0
  0
VERTEX
  5
9CD
  8
SITES
 10
428087.1616187894833274
 20
517682.8401775371166877
 30
0.0
  0
VERTEX
  5
9CE
  8
SITES
 10
428080.6716977577889338
 20
517669.9560689759091474
 30
0.0
  0
VERTEX
  5
9CF
  8
SITES
 10
428065.5667087335023098
 20
517652.7963385093025863
 30
0.0
  0
VERTEX
  5
9D0
  8
SITES
 10
428050.4851881946087815
 20
517643.5221201821113937
 30
0.0
  0
VERTEX
  5
9D1
  8
SITES
 10
428041.1725761197158135
 20
517645.7002863201196305
 30
0.0
  0
VERTEX
  5
9D2
  8
SITES
 10
428039.7580394325195812
 20
517652.1562347923172638
 30
0.0
  0
VERTEX
  5
9D3
  8
SITES
 10
428049.1708072779001668
 20
517683.6698881373158656
 30
0.0
  0
VERTEX
  5
9D4
  8
SITES
 10
428059.2386047292966396
 20
517694.3928166534169577
 30
0.0
  0
VERTEX
  5
9D5
  8
SITES
 10
428060.6786707396968268
 20
517696.5390709912753664
 30
0.0
  0
VERTEX
  5
9D6
  8
SITES
 10
428070.720939805789385
 20
517698.6597969431895763
 30
0.0
  0
SEQEND
  5
9D7
  8
SITES
  0
POLYLINE
  5
358
  8
SITES
 66
     1
 10
0.0
 20
0.0
 30
0.0
 70
     1
  0
VERTEX
  5
9D8
  8
SITES
 10
428906.7361362606170587
 20
517995.1030387997161597
 30
0.0
  0
VERTEX
  5
9D9
  8
SITES
 10
428913.8768884286982939
 20
517985.7627218043198809
 30
0.0
  0
VERTEX
  5
9DA
  8
SITES
 10
428910.2862404923071153
 20
517983.6228423549910076
 30
0.0
  0
VERTEX
  5
9DB
  8
SITES
 10
428903.8048563299234957
 20
517973.6061758662108332
 30
0.0
  0
VERTEX
  5
9DC
  8
SITES
 10
428890.1613184083835222
 20
517965.7613922444288619
 30
0.0
  0
VERTEX
  5
9DD
  8
SITES
 10
428874.3864428990054876
 20
517964.3745306250057183
 30
0.0
  0
VERTEX
  5
9DE
  8
SITES
 10
428858.6690939497202635
 20
517982.342590163287241
 30
0.0
  0
VERTEX
  5
9DF
  8
SITES
 10
428857.9778229568037204
 20
517990.9468708579079248
 30
0.0
  0
VERTEX
  5
9E0
  8
SITES
 10
428859.4115096474997699
 20
517990.942650446202606
 30
0.0
  0
VERTEX
  5
9E1
  8
SITES
 10
428860.8644380578771234
 20
517997.3899705802905373
 30
0.0
  0
VERTEX
  5
9E2
  8
SITES
 10
428865.1761992414831184
 20
518000.9613765234826133
 30
0.0
  0
SEQEND
  5
9E3
  8
SITES
  0
POLYLINE
  5
359
  8
SITES
 66
     1
 10
0.0
 20
0.0
 30
0.0
 70
     1
  0
VERTEX
  5
9E4
  8
SITES
 10
427961.6911583220935427
 20
518144.3440346663119271
 30
0.0
  0
VERTEX
  5
9E5
  8
SITES
 10
427970.2571411053068005
 20
518132.13195606530644
 30
0.0
  0
VERTEX
  5
9E6
  8
SITES
 10
427970.9100349085056223
 20
518110.624343145696912
 30
0.0
  0
VERTEX
  5
9E7
  8
SITES
 10
427966.5833648892003112
 20
518102.0349017748958431
 30
0.0
  0
VERTEX
  5
9E8
  8
SITES
 10
427960.8464707935927436
 20
518101.3351897288812324
 30
0.0
  0
VERTEX
  5
9E9
  8
SITES
 10
427952.9845213225926273
 20
518109.2439583722734824
 30
0.0
  0
VERTEX
  5
9EA
  8
SITES
 10
427950.8510258276946843
 20
518114.9850721239927225
 30
0.0
  0
VERTEX
  5
9EB
  8
SITES
 10
427949.4577810189221054
 20
518128.6095347278169356
 30
0.0
  0
VERTEX
  5
9EC
  8
SITES
 10
427947.334984608925879
 20
518137.9350069182110019
 30
0.0
  0
VERTEX
  5
9ED
  8
SITES
 10
427947.3413644153042696
 20
518140.0854821237153374
 30
0.0
  0
VERTEX
  5
9EE
  8
SITES
 10
427953.0889575434848666
 20
518144.3695533570717089
 30
0.0
  0
SEQEND
  5
9EF
  8
SITES
  0
POLYLINE
  5
35A
  8
SITES
 66
     1
 10
0.0
 20
0.0
 30
0.0
 70
     1
  0
VERTEX
  5
9F0
  8
SITES
 10
426735.6991493582027033
 20
518137.1065748622058891
 30
0.0
  0
VERTEX
  5
9F1
  8
SITES
 10
426744.9969143377966247
 20
518129.9104010288720019
 30
0.0
  0
VERTEX
  5
9F2
  8
SITES
 10
426749.9851025323150679
 20
518119.8595281980233267
 30
0.0
  0
VERTEX
  5
9F3
  8
SITES
 10
426752.0994525573914871
 20
518107.6666261028731242
 30
0.0
  0
VERTEX
  5
9F4
  8
SITES
 10
426750.6337744913180359
 20
518096.918002754508052
 30
0.0
  0
VERTEX
  5
9F5
  8
SITES
 10
426744.8860984746133909
 20
518092.6339449951774441
 30
0.0
  0
VERTEX
  5
9F6
  8
SITES
 10
426721.9319142778986134
 20
518087.684137106873095
 30
0.0
  0
VERTEX
  5
9F7
  8
SITES
 10
426696.8462027981877327
 20
518089.1924145686207339
 30
0.0
  0
VERTEX
  5
9F8
  8
SITES
 10
426686.1126007226994261
 20
518095.6761188409873284
 30
0.0
  0
VERTEX
  5
9F9
  8
SITES
 10
426679.6865152036189102
 20
518104.2975314620998688
 30
0.0
  0
VERTEX
  5
9FA
  8
SITES
 10
426677.5807052255258895
 20
518119.3578890044009313
 30
0.0
  0
VERTEX
  5
9FB
  8
SITES
 10
426685.4937676250119694
 20
518128.6534926759195514
 30
0.0
  0
VERTEX
  5
9FC
  8
SITES
 10
426724.2337369227898307
 20
518138.5744117888971232
 30
0.0
  0
SEQEND
  5
9FD
  8
SITES
  0
POLYLINE
  5
35B
  8
SITES
 66
     1
 10
0.0
 20
0.0
 30
0.0
 70
     1
  0
VERTEX
  5
9FE
  8
SITES
 10
428088.1187828570837155
 20
518232.1414075074135326
 30
0.0
  0
VERTEX
  5
9FF
  8
SITES
 10
428086.6594819669262506
 20
518223.5435231666779146
 30
0.0
  0
VERTEX
  5
A00
  8
SITES
 10
428070.1315314524108544
 20
518209.9723504809080623
 30
0.0
  0
VERTEX
  5
A01
  8
SITES
 10
428063.6734246939886361
 20
518207.841012506512925
 30
0.0
  0
VERTEX
  5
A02
  8
SITES
 10
428053.637537770322524
 20
518207.8708493651938625
 30
0.0
  0
VERTEX
  5
A03
  8
SITES
 10
428050.8127654533018358
 20
518222.2163267461000942
 30
0.0
  0
VERTEX
  5
A04
  8
SITES
 10
428058.015440410526935
 20
518233.6646001801709644
 30
0.0
  0
VERTEX
  5
A05
  8
SITES
 10
428071.6547246660920791
 20
518240.0757928210077807
 30
0.0
  0
VERTEX
  5
A06
  8
SITES
 10
428079.5443556174868718
 20
518241.48601991700707
 30
0.0
  0
SEQEND
  5
A07
  8
SITES
  0
POLYLINE
  5
35C
  8
SITES
 66
     1
 10
0.0
 20
0.0
 30
0.0
 70
     1
  0
VERTEX
  5
A08
  8
SITES
 10
427545.3217598731280304
 20
518234.3429135092883371
 30
0.0
  0
VERTEX
  5
A09
  8
SITES
 10
427550.2907230058917776
 20
518217.8404024452902377
 30
0.0
  0
VERTEX
  5
A0A
  8
SITES
 10
427548.7759696646826342
 20
518190.6043637755210511
 30
0.0
  0
VERTEX
  5
A0B
  8
SITES
 10
427538.0040666427230462
 20
518184.1846419409266673
 30
0.0
  0
VERTEX
  5
A0C
  8
SITES
 10
427530.8355568193946965
 20
518184.2060399404144846
 30
0.0
  0
VERTEX
  5
A0D
  8
SITES
 10
427517.9471383146010339
 20
518189.2623530395212583
 30
0.0
  0
VERTEX
  5
A0E
  8
SITES
 10
427512.2550065956893377
 20
518203.616350227908697
 30
0.0
  0
VERTEX
  5
A0F
  8
SITES
 10
427513.0507081620162353
 20
518230.1377550718025304
 30
0.0
  0
VERTEX
  5
A10
  8
SITES
 10
427518.8088925919728354
 20
518238.0060776175814681
 30
0.0
  0
VERTEX
  5
A11
  8
SITES
 10
427536.0155353206791915
 20
518238.6717357396846637
 30
0.0
  0
SEQEND
  5
A12
  8
SITES
  0
POLYLINE
  5
35D
  8
SITES
 66
     1
 10
0.0
 20
0.0
 30
0.0
 70
     1
  0
VERTEX
  5
A13
  8
SITES
 10
425743.2306853857007809
 20
518266.9420046610757709
 30
0.0
  0
VERTEX
  5
A14
  8
SITES
 10
425748.240161013614852
 20
518264.0596364421071485
 30
0.0
  0
VERTEX
  5
A15
  8
SITES
 10
425753.2325595752918161
 20
518255.4424661351949908
 30
0.0
  0
VERTEX
  5
A16
  8
SITES
 10
425753.8769190098973922
 20
518231.0671232230961323
 30
0.0
  0
VERTEX
  5
A17
  8
SITES
 10
425750.2585251986165531
 20
518219.6081177853047848
 30
0.0
  0
VERTEX
  5
A18
  8
SITES
 10
425744.4959472457994707
 20
518210.3059549785102718
 30
0.0
  0
VERTEX
  5
A19
  8
SITES
 10
425738.7589857762795873
 20
518209.6061450341949239
 30
0.0
  0
VERTEX
  5
A1A
  8
SITES
 10
425729.456923313322477
 20
518215.3687229857896455
 30
0.0
  0
VERTEX
  5
A1B
  8
SITES
 10
425721.5991348950192332
 20
518224.7113195704878308
 30
0.0
  0
VERTEX
  5
A1C
  8
SITES
 10
425718.0681883594952524
 20
518242.6434100514743477
 30
0.0
  0
VERTEX
  5
A1D
  8
SITES
 10
425726.0217612673877738
 20
518265.5594598759780638
 30
0.0
  0
VERTEX
  5
A1E
  8
SITES
 10
425731.7630417011096142
 20
518267.6929461199906655
 30
0.0
  0
SEQEND
  5
A1F
  8
SITES
  0
POLYLINE
  5
35E
  8
SITES
 66
     1
 10
0.0
 20
0.0
 30
0.0
 70
     1
  0
VERTEX
  5
A20
  8
SITES
 10
428144.18223932152614
 20
518282.1545942185912281
 30
0.0
  0
VERTEX
  5
A21
  8
SITES
 10
428146.3264366135117598
 20
518279.9976390964002348
 30
0.0
  0
VERTEX
  5
A22
  8
SITES
 10
428147.0197725361213088
 20
518272.1101663840236142
 30
0.0
  0
VERTEX
  5
A23
  8
SITES
 10
428140.5276099689071998
 20
518258.5092538109747693
 30
0.0
  0
VERTEX
  5
A24
  8
SITES
 10
428129.7429335757042281
 20
518247.7884682870935649
 30
0.0
  0
VERTEX
  5
A25
  8
SITES
 10
428120.4324757175054401
 20
518250.6836126454873011
 30
0.0
  0
VERTEX
  5
A26
  8
SITES
 10
428116.1440818643895909
 20
518254.9974229697254486
 30
0.0
  0
VERTEX
  5
A27
  8
SITES
 10
428115.4464269952732138
 20
518261.4512109464849345
 30
0.0
  0
VERTEX
  5
A28
  8
SITES
 10
428125.5250087499152869
 20
518275.7584164693253115
 30
0.0
  0
VERTEX
  5
A29
  8
SITES
 10
428134.1506695991265588
 20
518283.6181134264916182
 30
0.0
  0
SEQEND
  5
A2A
  8
SITES
  0
POLYLINE
  5
35F
  8
SITES
 66
     1
 10
0.0
 20
0.0
 30
0.0
 70
     1
  0
VERTEX
  5
A2B
  8
SITES
 10
427356.2435561295133084
 20
518292.2537298959796317
 30
0.0
  0
VERTEX
  5
A2C
  8
SITES
 10
427378.46380731620593
 20
518291.4707913980819285
 30
0.0
  0
VERTEX
  5
A2D
  8
SITES
 10
427385.6046392131829634
 20
518282.1304161564912647
 30
0.0
  0
VERTEX
  5
A2E
  8
SITES
 10
427385.5726446636836044
 20
518271.3776555167860352
 30
0.0
  0
VERTEX
  5
A2F
  8
SITES
 10
427376.9342421499895863
 20
518259.2167295907856897
 30
0.0
  0
VERTEX
  5
A30
  8
SITES
 10
427362.5865302465972491
 20
518255.6751695083803497
 30
0.0
  0
VERTEX
  5
A31
  8
SITES
 10
427331.7725314035778865
 20
518259.3510883903945796
 30
0.0
  0
VERTEX
  5
A32
  8
SITES
 10
427323.195960090321023
 20
518267.9788915751269087
 30
0.0
  0
VERTEX
  5
A33
  8
SITES
 10
427323.2001794499228708
 20
518269.4125727214850485
 30
0.0
  0
VERTEX
  5
A34
  8
SITES
 10
427323.9319875973160379
 20
518274.4283473236719146
 30
0.0
  0
VERTEX
  5
A35
  8
SITES
 10
427330.4155973963206634
 20
518285.1619696283014491
 30
0.0
  0
VERTEX
  5
A36
  8
SITES
 10
427341.18543351610424
 20
518290.8648003831040114
 30
0.0
  0
VERTEX
  5
A37
  8
SITES
 10
427353.3804127644980326
 20
518293.6959496234776452
 30
0.0
  0
SEQEND
  5
A38
  8
SITES
  0
POLYLINE
  5
360
  8
SITES
 66
     1
 10
0.0
 20
0.0
 30
0.0
 70
     1
  0
VERTEX
  5
A39
  8
SITES
 10
428192.326230643375311
 20
518320.7215754460194148
 30
0.0
  0
VERTEX
  5
A3A
  8
SITES
 10
428195.8934148420812562
 20
518314.9761401293217205
 30
0.0
  0
VERTEX
  5
A3B
  8
SITES
 10
428192.996211790596135
 20
518304.9487880815868266
 30
0.0
  0
VERTEX
  5
A3C
  8
SITES
 10
428185.8020747891860083
 20
518296.3679780481033958
 30
0.0
  0
VERTEX
  5
A3D
  8
SITES
 10
428173.592252392496448
 20
518288.518878102011513
 30
0.0
  0
VERTEX
  5
A3E
  8
SITES
 10
428167.1426829249830917
 20
518289.254906834976282
 30
0.0
  0
VERTEX
  5
A3F
  8
SITES
 10
428161.422863440704532
 20
518294.2898288025171496
 30
0.0
  0
VERTEX
  5
A40
  8
SITES
 10
428168.6446747705922462
 20
518312.1897358549758792
 30
0.0
  0
VERTEX
  5
A41
  8
SITES
 10
428173.6753771374933422
 20
518316.4759714808897115
 30
0.0
  0
VERTEX
  5
A42
  8
SITES
 10
428185.8746011072071269
 20
518320.7408115828875452
 30
0.0
  0
SEQEND
  5
A43
  8
SITES
  0
POLYLINE
  5
361
  8
SITES
 66
     1
 10
0.0
 20
0.0
 30
0.0
 70
     1
  0
VERTEX
  5
A44
  8
SITES
 10
428130.704983206698671
 20
518330.2239955008262768
 30
0.0
  0
VERTEX
  5
A45
  8
SITES
 10
428130.6857471590046771
 20
518323.7723668803228065
 30
0.0
  0
VERTEX
  5
A46
  8
SITES
 10
428125.6421879318077117
 20
518315.1850791968172416
 30
0.0
  0
VERTEX
  5
A47
  8
SITES
 10
428112.6963392510078847
 20
518300.8865111768245697
 30
0.0
  0
VERTEX
  5
A48
  8
SITES
 10
428105.5299787903786637
 20
518301.6245993202901445
 30
0.0
  0
VERTEX
  5
A49
  8
SITES
 10
428093.3691300100181252
 20
518310.2630165467853658
 30
0.0
  0
VERTEX
  5
A4A
  8
SITES
 10
428093.3840471293078735
 20
518315.2809604876092635
 30
0.0
  0
VERTEX
  5
A4B
  8
SITES
 10
428112.7858417279203422
 20
518330.9941763036185876
 30
0.0
  0
VERTEX
  5
A4C
  8
SITES
 10
428127.1334802922210656
 20
518334.5357455384219065
 30
0.0
  0
SEQEND
  5
A4D
  8
SITES
  0
POLYLINE
  5
362
  8
SITES
 66
     1
 10
0.0
 20
0.0
 30
0.0
 70
     1
  0
VERTEX
  5
A4E
  8
SITES
 10
427516.220656429999508
 20
518382.7539350161096081
 30
0.0
  0
VERTEX
  5
A4F
  8
SITES
 10
427522.4965729856048711
 20
518371.8390493742772378
 30
0.0
  0
VERTEX
  5
A50
  8
SITES
 10
427521.3155358654912561
 20
518360.3727893172763288
 30
0.0
  0
VERTEX
  5
A51
  8
SITES
 10
427517.8609984982176684
 20
518355.7952327239909209
 30
0.0
  0
VERTEX
  5
A52
  8
SITES
 10
427511.5441402614815161
 20
518352.9465924656833522
 30
0.0
  0
VERTEX
  5
A53
  8
SITES
 10
427493.761122738593258
 20
518351.2789898958872072
 30
0.0
  0
VERTEX
  5
A54
  8
SITES
 10
427477.7275931381154805
 20
518359.3555205871234648
 30
0.0
  0
VERTEX
  5
A55
  8
SITES
 10
427473.7336154442746192
 20
518366.2491660002269782
 30
0.0
  0
VERTEX
  5
A56
  8
SITES
 10
427473.7626241910038516
 20
518375.998341838887427
 30
0.0
  0
VERTEX
  5
A57
  8
SITES
 10
427479.5196693683974445
 20
518383.4365713968873024
 30
0.0
  0
VERTEX
  5
A58
  8
SITES
 10
427485.2698244121856987
 20
518388.5808302665245719
 30
0.0
  0
VERTEX
  5
A59
  8
SITES
 10
427502.4844913238775916
 20
518391.9705602715257555
 30
0.0
  0
SEQEND
  5
A5A
  8
SITES
  0
POLYLINE
  5
363
  8
SITES
 66
     1
 10
0.0
 20
0.0
 30
0.0
 70
     1
  0
VERTEX
  5
A5B
  8
SITES
 10
427570.7037211371934973
 20
518525.4409430155064911
 30
0.0
  0
VERTEX
  5
A5C
  8
SITES
 10
427571.4099162503844127
 20
518521.8545286062289961
 30
0.0
  0
VERTEX
  5
A5D
  8
SITES
 10
427567.8064282879931852
 20
518515.413505150412675
 30
0.0
  0
VERTEX
  5
A5E
  8
SITES
 10
427564.9347456977120601
 20
518513.988359859387856
 30
0.0
  0
VERTEX
  5
A5F
  8
SITES
 10
427555.6263583239051513
 20
518517.6003846499952488
 30
0.0
  0
VERTEX
  5
A60
  8
SITES
 10
427554.9350776546052657
 20
518526.2047360598226078
 30
0.0
  0
VERTEX
  5
A61
  8
SITES
 10
427557.8089192435145378
 20
518528.346772437391337
 30
0.0
  0
SEQEND
  5
A62
  8
SITES
  0
POLYLINE
  5
364
  8
SITES
 66
     1
 10
0.0
 20
0.0
 30
0.0
 70
     1
  0
VERTEX
  5
A63
  8
SITES
 10
425538.2214731528074481
 20
518512.7195877896738239
 30
0.0
  0
VERTEX
  5
A64
  8
SITES
 10
425537.4682799652800895
 20
518500.5350618244847283
 30
0.0
  0
VERTEX
  5
A65
  8
SITES
 10
425524.5413566298084334
 20
518492.688066407921724
 30
0.0
  0
VERTEX
  5
A66
  8
SITES
 10
425512.3462354901130311
 20
518489.8568235749844462
 30
0.0
  0
VERTEX
  5
A67
  8
SITES
 10
425488.7005510521121323
 20
518493.5115135635132901
 30
0.0
  0
VERTEX
  5
A68
  8
SITES
 10
425477.2521468758932315
 20
518500.7142331667128019
 30
0.0
  0
VERTEX
  5
A69
  8
SITES
 10
425477.2670611459179781
 20
518505.7322438822011463
 30
0.0
  0
VERTEX
  5
A6A
  8
SITES
 10
425481.5895762598956935
 20
518512.8880614283261821
 30
0.0
  0
VERTEX
  5
A6B
  8
SITES
 10
425488.7794404095038772
 20
518520.0353424326167442
 30
0.0
  0
VERTEX
  5
A6C
  8
SITES
 10
425507.4305646354914643
 20
518524.2810284245060757
 30
0.0
  0
VERTEX
  5
A6D
  8
SITES
 10
425526.0732530992245302
 20
518525.6592656007851474
 30
0.0
  0
SEQEND
  5
A6E
  8
SITES
  0
POLYLINE
  5
365
  8
SITES
 66
     1
 10
0.0
 20
0.0
 30
0.0
 70
     1
  0
VERTEX
  5
A6F
  8
SITES
 10
425050.3285264633013867
 20
518541.4564981067087501
 30
0.0
  0
VERTEX
  5
A70
  8
SITES
 10
425063.1850825378205627
 20
518525.6472313678241335
 30
0.0
  0
VERTEX
  5
A71
  8
SITES
 10
425066.7374279394280165
 20
518514.8836382579174824
 30
0.0
  0
VERTEX
  5
A72
  8
SITES
 10
425067.4180088324937969
 20
518502.6948085704934783
 30
0.0
  0
VERTEX
  5
A73
  8
SITES
 10
425063.0934389056055807
 20
518494.8221122198156081
 30
0.0
  0
VERTEX
  5
A74
  8
SITES
 10
425058.0667968373163603
 20
518491.9695804499206133
 30
0.0
  0
VERTEX
  5
A75
  8
SITES
 10
425048.7625869030016474
 20
518497.0153552176197991
 30
0.0
  0
VERTEX
  5
A76
  8
SITES
 10
425033.7724462260957807
 20
518518.5659911410766654
 30
0.0
  0
VERTEX
  5
A77
  8
SITES
 10
425029.4862414990202524
 20
518523.5968510276288725
 30
0.0
  0
VERTEX
  5
A78
  8
SITES
 10
425028.0866146463085897
 20
518535.0708521933993325
 30
0.0
  0
VERTEX
  5
A79
  8
SITES
 10
425031.7007741949055344
 20
518545.0962667731801048
 30
0.0
  0
VERTEX
  5
A7A
  8
SITES
 10
425041.0242161460919306
 20
518546.502271483594086
 30
0.0
  0
SEQEND
  5
A7B
  8
SITES
  0
POLYLINE
  5
366
  8
SITES
 66
     1
 10
0.0
 20
0.0
 30
0.0
 70
     1
  0
VERTEX
  5
A7C
  8
SITES
 10
425462.4497896584798582
 20
518585.3483681170037016
 30
0.0
  0
VERTEX
  5
A7D
  8
SITES
 10
425478.1951002035057172
 20
518576.6992224346031435
 30
0.0
  0
VERTEX
  5
A7E
  8
SITES
 10
425481.7602050947025418
 20
518570.23674196889624
 30
0.0
  0
VERTEX
  5
A7F
  8
SITES
 10
425480.2880673035979271
 20
518557.3375894328928553
 30
0.0
  0
VERTEX
  5
A80
  8
SITES
 10
425469.5053314312826842
 20
518547.3335543468710966
 30
0.0
  0
VERTEX
  5
A81
  8
SITES
 10
425454.4342270136112347
 20
518541.6434977020835504
 30
0.0
  0
VERTEX
  5
A82
  8
SITES
 10
425436.5212838072911836
 20
518544.564224092871882
 30
0.0
  0
VERTEX
  5
A83
  8
SITES
 10
425427.2276599067845382
 20
518553.1942382507259026
 30
0.0
  0
VERTEX
  5
A84
  8
SITES
 10
425421.5226897796965204
 20
518563.2473310538916849
 30
0.0
  0
VERTEX
  5
A85
  8
SITES
 10
425424.4263424228993244
 20
518575.4253763519227505
 30
0.0
  0
VERTEX
  5
A86
  8
SITES
 10
425434.4879710183013231
 20
518583.9978957360144705
 30
0.0
  0
VERTEX
  5
A87
  8
SITES
 10
425448.1147045386023819
 20
518586.1079357811249793
 30
0.0
  0
SEQEND
  5
A88
  8
SITES
  0
POLYLINE
  5
367
  8
SITES
 66
     1
 10
0.0
 20
0.0
 30
0.0
 70
     1
  0
VERTEX
  5
A89
  8
SITES
 10
426182.9409592038718984
 20
518599.6925708604976535
 30
0.0
  0
VERTEX
  5
A8A
  8
SITES
 10
426185.074452634784393
 20
518593.9512855355860665
 30
0.0
  0
VERTEX
  5
A8B
  8
SITES
 10
426181.3494110706960782
 20
518546.6494378744973801
 30
0.0
  0
VERTEX
  5
A8C
  8
SITES
 10
426166.2591472080093808
 20
518534.5076747664716095
 30
0.0
  0
VERTEX
  5
A8D
  8
SITES
 10
426149.7693530297838151
 20
518533.8398465064819902
 30
0.0
  0
VERTEX
  5
A8E
  8
SITES
 10
426144.0578957704128698
 20
518541.7423925246112049
 30
0.0
  0
VERTEX
  5
A8F
  8
SITES
 10
426141.9436354176723398
 20
518553.9352737560984679
 30
0.0
  0
VERTEX
  5
A90
  8
SITES
 10
426141.3141690953052603
 20
518583.3285593942855485
 30
0.0
  0
VERTEX
  5
A91
  8
SITES
 10
426147.8214000259758905
 20
518601.9476281945244409
 30
0.0
  0
VERTEX
  5
A92
  8
SITES
 10
426154.2901683116797358
 20
518607.6633048792136833
 30
0.0
  0
VERTEX
  5
A93
  8
SITES
 10
426173.6474165900144726
 20
518608.322600249783136
 30
0.0
  0
SEQEND
  5
A94
  8
SITES
  0
POLYLINE
  5
368
  8
SITES
 66
     1
 10
0.0
 20
0.0
 30
0.0
 70
     1
  0
VERTEX
  5
A95
  8
SITES
 10
427653.0099541838862933
 20
518635.7235833961749449
 30
0.0
  0
VERTEX
  5
A96
  8
SITES
 10
427655.3454287871718407
 20
518634.5474835563800298
 30
0.0
  0
VERTEX
  5
A97
  8
SITES
 10
427655.3367654018802568
 20
518631.6247580465278588
 30
0.0
  0
VERTEX
  5
A98
  8
SITES
 10
427655.9057562727830373
 20
518626.3621594656142406
 30
0.0
  0
VERTEX
  5
A99
  8
SITES
 10
427654.7258901310269721
 20
518622.8584136898280121
 30
0.0
  0
VERTEX
  5
A9A
  8
SITES
 10
427653.5408258928218856
 20
518617.6010126505279914
 30
0.0
  0
VERTEX
  5
A9B
  8
SITES
 10
427650.6067048431141302
 20
518614.1024642203119583
 30
0.0
  0
VERTEX
  5
A9C
  8
SITES
 10
427649.4372349350014701
 20
518614.1059291306883097
 30
0.0
  0
VERTEX
  5
A9D
  8
SITES
 10
427647.1000279071740806
 20
518614.6973440807196312
 30
0.0
  0
VERTEX
  5
A9E
  8
SITES
 10
427644.7698514171061106
 20
518617.6270993868238293
 30
0.0
  0
VERTEX
  5
A9F
  8
SITES
 10
427644.7819803213933483
 20
518621.7188950052950531
 30
0.0
  0
VERTEX
  5
AA0
  8
SITES
 10
427645.3875575195997953
 20
518628.7316836906829849
 30
0.0
  0
VERTEX
  5
AA1
  8
SITES
 10
427645.9879366040113382
 20
518633.9908171460265294
 30
0.0
  0
VERTEX
  5
AA2
  8
SITES
 10
427649.5015444422024302
 20
518635.7339779306785204
 30
0.0
  0
SEQEND
  5
AA3
  8
SITES
  0
POLYLINE
  5
369
  8
SITES
 66
     1
 10
0.0
 20
0.0
 30
0.0
 70
     1
  0
VERTEX
  5
AA4
  8
SITES
 10
426275.6009202346904203
 20
518661.7838740450097248
 30
0.0
  0
VERTEX
  5
AA5
  8
SITES
 10
426296.3471144817885943
 20
518647.3848909736261703
 30
0.0
  0
VERTEX
  5
AA6
  8
SITES
 10
426303.4581100100185722
 20
518628.0085053531802259
 30
0.0
  0
VERTEX
  5
AA7
  8
SITES
 10
426299.1206748654949479
 20
518615.8347505046986043
 30
0.0
  0
VERTEX
  5
AA8
  8
SITES
 10
426287.6147521610255353
 20
518603.6822861928958446
 30
0.0
  0
VERTEX
  5
AA9
  8
SITES
 10
426276.1301197269931436
 20
518598.6984095174120739
 30
0.0
  0
VERTEX
  5
AAA
  8
SITES
 10
426268.2489621315035038
 20
518600.1556360953836702
 30
0.0
  0
VERTEX
  5
AAB
  8
SITES
 10
426256.8026926075108349
 20
518608.0751557020121254
 30
0.0
  0
VERTEX
  5
AAC
  8
SITES
 10
426253.2461163838161156
 20
518617.4049032953917049
 30
0.0
  0
VERTEX
  5
AAD
  8
SITES
 10
426249.6874808539287187
 20
518626.0178621181985363
 30
0.0
  0
VERTEX
  5
AAE
  8
SITES
 10
426246.8456338942050934
 20
518634.6286617597797886
 30
0.0
  0
VERTEX
  5
AAF
  8
SITES
 10
426246.89684855210362
 20
518651.8331893531722017
 30
0.0
  0
VERTEX
  5
AB0
  8
SITES
 10
426249.062326904211659
 20
518656.8448330761166289
 30
0.0
  0
VERTEX
  5
AB1
  8
SITES
 10
426267.7219213864882477
 20
518663.9578881337074563
 30
0.0
  0
SEQEND
  5
AB2
  8
SITES
  0
POLYLINE
  5
36A
  8
SITES
 66
     1
 10
0.0
 20
0.0
 30
0.0
 70
     1
  0
VERTEX
  5
AB3
  8
SITES
 10
427217.7477260489831679
 20
518726.3649487348156981
 30
0.0
  0
VERTEX
  5
AB4
  8
SITES
 10
427219.1451068485039286
 20
518714.1741939709754661
 30
0.0
  0
VERTEX
  5
AB5
  8
SITES
 10
427223.4185841954895295
 20
518704.8423655476071872
 30
0.0
  0
VERTEX
  5
AB6
  8
SITES
 10
427224.8458884169813246
 20
518702.6875765410950407
 30
0.0
  0
VERTEX
  5
AB7
  8
SITES
 10
427229.816926202212926
 20
518686.9018750094110146
 30
0.0
  0
VERTEX
  5
AB8
  8
SITES
 10
427229.0722700012847781
 20
518677.5850580871920101
 30
0.0
  0
VERTEX
  5
AB9
  8
SITES
 10
427224.7476795177790336
 20
518669.7124168663867749
 30
0.0
  0
VERTEX
  5
ABA
  8
SITES
 10
427216.8559083790169097
 20
518667.5851938215782866
 30
0.0
  0
VERTEX
  5
ABB
  8
SITES
 10
427206.1117880996898748
 20
518670.4845394049189053
 30
0.0
  0
VERTEX
  5
ABC
  8
SITES
 10
427197.5201981454156339
 20
518674.0943982239114121
 30
0.0
  0
VERTEX
  5
ABD
  8
SITES
 10
427188.2287890290026553
 20
518683.4413385175867006
 30
0.0
  0
VERTEX
  5
ABE
  8
SITES
 10
427181.1007043789722957
 20
518697.0828438859898597
 30
0.0
  0
VERTEX
  5
ABF
  8
SITES
 10
427181.8795013338094577
 20
518717.8694052118225954
 30
0.0
  0
VERTEX
  5
AC0
  8
SITES
 10
427187.6462064377265051
 20
518728.6051897581201047
 30
0.0
  0
VERTEX
  5
AC1
  8
SITES
 10
427199.1267461701063439
 20
518732.1553010247880593
 30
0.0
  0
SEQEND
  5
AC2
  8
SITES
  0
POLYLINE
  5
36B
  8
SITES
 66
     1
 10
0.0
 20
0.0
 30
0.0
 70
     1
  0
VERTEX
  5
AC3
  8
SITES
 10
427255.1732432408025488
 20
518776.4336239143740386
 30
0.0
  0
VERTEX
  5
AC4
  8
SITES
 10
427265.9004956159042194
 20
518767.7994570892769843
 30
0.0
  0
VERTEX
  5
AC5
  8
SITES
 10
427269.4400141183868982
 20
518752.734962762799114
 30
0.0
  0
VERTEX
  5
AC6
  8
SITES
 10
427271.5393747860798612
 20
518735.5241142042796127
 30
0.0
  0
VERTEX
  5
AC7
  8
SITES
 10
427272.9346973496722057
 20
518722.6163674970739521
 30
0.0
  0
VERTEX
  5
AC8
  8
SITES
 10
427267.8825224398169667
 20
518711.1617310455185361
 30
0.0
  0
VERTEX
  5
AC9
  8
SITES
 10
427259.2547302243765444
 20
518702.5851513136876747
 30
0.0
  0
VERTEX
  5
ACA
  8
SITES
 10
427244.1774828425259329
 20
518694.7444924754090607
 30
0.0
  0
VERTEX
  5
ACB
  8
SITES
 10
427233.4288437668001279
 20
518696.210356159019284
 30
0.0
  0
VERTEX
  5
ACC
  8
SITES
 10
427228.486437649698928
 20
518702.5721309264190495
 30
0.0
  0
VERTEX
  5
ACD
  8
SITES
 10
427226.0771735528251156
 20
518705.9183812431874685
 30
0.0
  0
VERTEX
  5
ACE
  8
SITES
 10
427222.0572438127710484
 20
518714.6941395201720297
 30
0.0
  0
VERTEX
  5
ACF
  8
SITES
 10
427219.7447446064907126
 20
518725.6432822787901387
 30
0.0
  0
VERTEX
  5
AD0
  8
SITES
 10
427218.5116100102895871
 20
518742.1335791536839679
 30
0.0
  0
VERTEX
  5
AD1
  8
SITES
 10
427230.0686659149941988
 20
518771.4904463454149663
 30
0.0
  0
VERTEX
  5
AD2
  8
SITES
 10
427242.2743321412126534
 20
518777.9057620489038527
 30
0.0
  0
SEQEND
  5
AD3
  8
SITES
  0
POLYLINE
  5
36C
  8
SITES
 66
     1
 10
0.0
 20
0.0
 30
0.0
 70
     1
  0
VERTEX
  5
AD4
  8
SITES
 10
426509.8079072477994487
 20
518833.1336594269960187
 30
0.0
  0
VERTEX
  5
AD5
  8
SITES
 10
426519.0886109382263385
 20
518820.2024929653853178
 30
0.0
  0
VERTEX
  5
AD6
  8
SITES
 10
426523.3512902703951113
 20
518807.2863363464712165
 30
0.0
  0
VERTEX
  5
AD7
  8
SITES
 10
426522.5960451401188038
 20
518794.385090266529005
 30
0.0
  0
VERTEX
  5
AD8
  8
SITES
 10
426516.8249342946219258
 20
518782.2156442325795069
 30
0.0
  0
VERTEX
  5
AD9
  8
SITES
 10
426510.3690147356246598
 20
518780.801094320428092
 30
0.0
  0
VERTEX
  5
ADA
  8
SITES
 10
426494.6110063825035468
 20
518785.1492202421068214
 30
0.0
  0
VERTEX
  5
ADB
  8
SITES
 10
426486.742596001480706
 20
518790.9074784676195122
 30
0.0
  0
VERTEX
  5
ADC
  8
SITES
 10
426481.0355460306163877
 20
518800.2437059386284091
 30
0.0
  0
VERTEX
  5
ADD
  8
SITES
 10
426478.9318692524102516
 20
518816.0208415259839967
 30
0.0
  0
VERTEX
  5
ADE
  8
SITES
 10
426483.2586071526166052
 20
518824.6103586638928391
 30
0.0
  0
VERTEX
  5
ADF
  8
SITES
 10
426493.3223163289949298
 20
518833.8995963131892495
 30
0.0
  0
VERTEX
  5
AE0
  8
SITES
 10
426498.3446571839158423
 20
518835.3183644416276366
 30
0.0
  0
SEQEND
  5
AE1
  8
SITES
  0
POLYLINE
  5
36D
  8
SITES
 66
     1
 10
0.0
 20
0.0
 30
0.0
 70
     1
  0
VERTEX
  5
AE2
  8
SITES
 10
425093.8648237164015882
 20
518893.0259681685711257
 30
0.0
  0
VERTEX
  5
AE3
  8
SITES
 10
425104.5921205382910557
 20
518884.3916522862273268
 30
0.0
  0
VERTEX
  5
AE4
  8
SITES
 10
425111.0140808622236364
 20
518874.3364138327888213
 30
0.0
  0
VERTEX
  5
AE5
  8
SITES
 10
425114.5620193303911947
 20
518862.1390491360216402
 30
0.0
  0
VERTEX
  5
AE6
  8
SITES
 10
425115.9551804962102324
 20
518848.5143867217120714
 30
0.0
  0
VERTEX
  5
AE7
  8
SITES
 10
425112.3474034310784191
 20
518840.6396268781973049
 30
0.0
  0
VERTEX
  5
AE8
  8
SITES
 10
425103.0112093238276429
 20
518834.9324955706833862
 30
0.0
  0
VERTEX
  5
AE9
  8
SITES
 10
425096.5636474561179057
 20
518836.385395699122455
 30
0.0
  0
VERTEX
  5
AEA
  8
SITES
 10
425084.3962030982947908
 20
518842.8734700831118971
 30
0.0
  0
VERTEX
  5
AEB
  8
SITES
 10
425075.8281013414962217
 20
518854.3688572202227078
 30
0.0
  0
VERTEX
  5
AEC
  8
SITES
 10
425072.269371013098862
 20
518862.9818880453240126
 30
0.0
  0
VERTEX
  5
AED
  8
SITES
 10
425073.7585650120163336
 20
518881.6160205936757848
 30
0.0
  0
VERTEX
  5
AEE
  8
SITES
 10
425078.8043308932101354
 20
518890.9202361804782413
 30
0.0
  0
VERTEX
  5
AEF
  8
SITES
 10
425087.4195201167021878
 20
518895.1957540098228492
 30
0.0
  0
SEQEND
  5
AF0
  8
SITES
  0
POLYLINE
  5
36E
  8
SITES
 66
     1
 10
0.0
 20
0.0
 30
0.0
 70
     1
  0
VERTEX
  5
AF1
  8
SITES
 10
429018.9869631170877255
 20
518976.7560802542138845
 30
0.0
  0
VERTEX
  5
AF2
  8
SITES
 10
429029.7118092228192836
 20
518967.4050858793780208
 30
0.0
  0
VERTEX
  5
AF3
  8
SITES
 10
429034.6976887246128172
 20
518956.6374711443204433
 30
0.0
  0
VERTEX
  5
AF4
  8
SITES
 10
429033.9531351421028376
 20
518947.3206113264895976
 30
0.0
  0
VERTEX
  5
AF5
  8
SITES
 10
429031.7940200964221731
 20
518944.4597117371158674
 30
0.0
  0
VERTEX
  5
AF6
  8
SITES
 10
429012.4242811435833573
 20
518939.4994344703154638
 30
0.0
  0
VERTEX
  5
AF7
  8
SITES
 10
428990.9189714718959294
 20
518939.5634886071784422
 30
0.0
  0
VERTEX
  5
AF8
  8
SITES
 10
428979.5006764947902411
 20
518956.801870976225473
 30
0.0
  0
VERTEX
  5
AF9
  8
SITES
 10
428980.9557479885988869
 20
518963.9660903245094232
 30
0.0
  0
VERTEX
  5
AFA
  8
SITES
 10
429003.2206191319273785
 20
518978.2367523863795213
 30
0.0
  0
SEQEND
  5
AFB
  8
SITES
  0
POLYLINE
  5
36F
  8
SITES
 66
     1
 10
0.0
 20
0.0
 30
0.0
 70
     1
  0
VERTEX
  5
AFC
  8
SITES
 10
425320.7707688888767734
 20
519019.2357884948723949
 30
0.0
  0
VERTEX
  5
AFD
  8
SITES
 10
425326.4608414701069705
 20
519004.1645959733868949
 30
0.0
  0
VERTEX
  5
AFE
  8
SITES
 10
425321.3830007122014649
 20
518984.1074684142949991
 30
0.0
  0
VERTEX
  5
AFF
  8
SITES
 10
425309.8855512182926759
 20
518974.8224708539200947
 30
0.0
  0
VERTEX
  5
B00
  8
SITES
 10
425297.6775899464264512
 20
518967.6901928848237731
 30
0.0
  0
VERTEX
  5
B01
  8
SITES
 10
425286.1992659771931358
 20
518964.8568784876260906
 30
0.0
  0
VERTEX
  5
B02
  8
SITES
 10
425280.4685875503928401
 20
518966.3076189135899767
 30
0.0
  0
VERTEX
  5
B03
  8
SITES
 10
425276.2015992462984286
 20
518977.7902591701131314
 30
0.0
  0
VERTEX
  5
B04
  8
SITES
 10
425276.212290735100396
 20
518981.3745936385239474
 30
0.0
  0
VERTEX
  5
B05
  8
SITES
 10
425294.9168572672060691
 20
519003.541672601015307
 30
0.0
  0
VERTEX
  5
B06
  8
SITES
 10
425301.4049298861064017
 20
519015.7091262299800292
 30
0.0
  0
VERTEX
  5
B07
  8
SITES
 10
425310.0243390760151669
 20
519021.4184229631791823
 30
0.0
  0
SEQEND
  5
B08
  8
SITES
  0
POLYLINE
  5
370
  8
SITES
 66
     1
 10
0.0
 20
0.0
 30
0.0
 70
     1
  0
VERTEX
  5
B09
  8
SITES
 10
428819.872577901405748
 20
519033.9804882439784706
 30
0.0
  0
VERTEX
  5
B0A
  8
SITES
 10
428854.9809860259993002
 20
519028.1410847483784892
 30
0.0
  0
VERTEX
  5
B0B
  8
SITES
 10
428860.7007250860915519
 20
519023.1060643857927062
 30
0.0
  0
VERTEX
  5
B0C
  8
SITES
 10
428864.2572337688179687
 20
519013.7764584803953767
 30
0.0
  0
VERTEX
  5
B0D
  8
SITES
 10
428864.203875002800487
 20
518995.8553232490085065
 30
0.0
  0
VERTEX
  5
B0E
  8
SITES
 10
428854.1466837903135456
 20
518988.716706462088041
 30
0.0
  0
VERTEX
  5
B0F
  8
SITES
 10
428843.3896663347259164
 20
518987.3150952447904274
 30
0.0
  0
VERTEX
  5
B10
  8
SITES
 10
428816.1666862756828777
 20
518993.1309603397967294
 30
0.0
  0
VERTEX
  5
B11
  8
SITES
 10
428806.1713887081714347
 20
519006.7809502232121304
 30
0.0
  0
VERTEX
  5
B12
  8
SITES
 10
428804.773993844515644
 20
519018.9715530824032612
 30
0.0
  0
VERTEX
  5
B13
  8
SITES
 10
428812.7041446439106949
 20
519034.0018711906741373
 30
0.0
  0
SEQEND
  5
B14
  8
SITES
  0
POLYLINE
  5
371
  8
SITES
 66
     1
 10
0.0
 20
0.0
 30
0.0
 70
     1
  0
VERTEX
  5
B15
  8
SITES
 10
428878.7649647608050145
 20
519071.0813668521004729
 30
0.0
  0
VERTEX
  5
B16
  8
SITES
 10
428891.6361732155783102
 20
519060.2902168746804819
 30
0.0
  0
VERTEX
  5
B17
  8
SITES
 10
428894.4501903784112073
 20
519042.3605472448980436
 30
0.0
  0
VERTEX
  5
B18
  8
SITES
 10
428892.2825437368010171
 20
519036.6321743645239621
 30
0.0
  0
VERTEX
  5
B19
  8
SITES
 10
428882.9464624944957905
 20
519030.9251845611142926
 30
0.0
  0
VERTEX
  5
B1A
  8
SITES
 10
428867.17374871019274
 20
519030.2553737452835776
 30
0.0
  0
VERTEX
  5
B1B
  8
SITES
 10
428849.269680253288243
 20
519036.0434783658129163
 30
0.0
  0
VERTEX
  5
B1C
  8
SITES
 10
428840.7016922537004575
 20
519047.5386717118090019
 30
0.0
  0
VERTEX
  5
B1D
  8
SITES
 10
428840.0190310751786456
 20
519059.010323895723559
 30
0.0
  0
VERTEX
  5
B1E
  8
SITES
 10
428845.7943845192785375
 20
519072.6133320943918079
 30
0.0
  0
VERTEX
  5
B1F
  8
SITES
 10
428854.4008215171052143
 20
519074.0214201975031756
 30
0.0
  0
VERTEX
  5
B20
  8
SITES
 10
428863.009317041374743
 20
519076.1463017084752209
 30
0.0
  0
SEQEND
  5
B21
  8
SITES
  0
POLYLINE
  5
372
  8
SITES
 66
     1
 10
0.0
 20
0.0
 30
0.0
 70
     1
  0
VERTEX
  5
B22
  8
SITES
 10
424978.4122421540087089
 20
519121.3338985100272112
 30
0.0
  0
VERTEX
  5
B23
  8
SITES
 10
424988.4162803892977536
 20
519110.5510903060203418
 30
0.0
  0
VERTEX
  5
B24
  8
SITES
 10
424990.528394193504937
 20
519097.6411612805095501
 30
0.0
  0
VERTEX
  5
B25
  8
SITES
 10
424988.3628284670994617
 20
519092.629530877689831
 30
0.0
  0
VERTEX
  5
B26
  8
SITES
 10
424973.2745852991938591
 20
519081.2045693395193666
 30
0.0
  0
VERTEX
  5
B27
  8
SITES
 10
424958.2097817503963597
 20
519077.6651580621837638
 30
0.0
  0
VERTEX
  5
B28
  8
SITES
 10
424944.6001326193800196
 20
519081.2899939109920524
 30
0.0
  0
VERTEX
  5
B29
  8
SITES
 10
424938.1632629117229953
 20
519086.3272208474227227
 30
0.0
  0
VERTEX
  5
B2A
  8
SITES
 10
424931.0309877197723836
 20
519098.5352685002144426
 30
0.0
  0
VERTEX
  5
B2B
  8
SITES
 10
424933.9410942536196671
 20
519112.8639616153086536
 30
0.0
  0
VERTEX
  5
B2C
  8
SITES
 10
424954.7578513764892705
 20
519122.121200090914499
 30
0.0
  0
VERTEX
  5
B2D
  8
SITES
 10
424966.2362645459943451
 20
519124.9545168739859946
 30
0.0
  0
SEQEND
  5
B2E
  8
SITES
  0
POLYLINE
  5
373
  8
SITES
 66
     1
 10
0.0
 20
0.0
 30
0.0
 70
     1
  0
VERTEX
  5
B2F
  8
SITES
 10
425057.3524695556843653
 20
519149.7734738424187526
 30
0.0
  0
VERTEX
  5
B30
  8
SITES
 10
425073.0742385881021619
 20
519133.2387077491730452
 30
0.0
  0
VERTEX
  5
B31
  8
SITES
 10
425073.7762188604101539
 20
519128.2185441040783189
 30
0.0
  0
VERTEX
  5
B32
  8
SITES
 10
425070.1555995193193667
 20
519116.0425633668201044
 30
0.0
  0
VERTEX
  5
B33
  8
SITES
 10
425050.0642549442127347
 20
519109.6506104631116614
 30
0.0
  0
VERTEX
  5
B34
  8
SITES
 10
425038.6115359468967654
 20
519115.419631217897404
 30
0.0
  0
VERTEX
  5
B35
  8
SITES
 10
425025.7378925796947442
 20
519125.4940863642259501
 30
0.0
  0
VERTEX
  5
B36
  8
SITES
 10
425025.0423863520263694
 20
519132.6649087629048154
 30
0.0
  0
VERTEX
  5
B37
  8
SITES
 10
425032.249494950287044
 20
519145.5470847765100189
 30
0.0
  0
VERTEX
  5
B38
  8
SITES
 10
425040.8688965303008445
 20
519151.2562805740744807
 30
0.0
  0
SEQEND
  5
B39
  8
SITES
  0
POLYLINE
  5
374
  8
SITES
 66
     1
 10
0.0
 20
0.0
 30
0.0
 70
     1
  0
VERTEX
  5
B3A
  8
SITES
 10
429809.7149661128059961
 20
519108.4322928661713377
 30
0.0
  0
VERTEX
  5
B3B
  8
SITES
 10
429811.8570186746073887
 20
519105.5585378617979586
 30
0.0
  0
VERTEX
  5
B3C
  8
SITES
 10
429808.9212754764012061
 20
519082.6281264828867279
 30
0.0
  0
VERTEX
  5
B3D
  8
SITES
 10
429806.0346708563738503
 20
519076.1851032695849426
 30
0.0
  0
VERTEX
  5
B3E
  8
SITES
 10
429793.8184384732157923
 20
519066.1856619009049609
 30
0.0
  0
VERTEX
  5
B3F
  8
SITES
 10
429785.9268176869954914
 20
519064.0586175578064285
 30
0.0
  0
VERTEX
  5
B40
  8
SITES
 10
429775.9123691958957352
 20
519071.2569838424096815
 30
0.0
  0
VERTEX
  5
B41
  8
SITES
 10
429773.0941283595748246
 20
519087.7529032757738605
 30
0.0
  0
VERTEX
  5
B42
  8
SITES
 10
429788.2225618517841212
 20
519112.7975088511011563
 30
0.0
  0
VERTEX
  5
B43
  8
SITES
 10
429796.8310775206191465
 20
519114.9223960970994085
 30
0.0
  0
SEQEND
  5
B44
  8
SITES
  0
POLYLINE
  5
375
  8
SITES
 66
     1
 10
0.0
 20
0.0
 30
0.0
 70
     1
  0
VERTEX
  5
B45
  8
SITES
 10
424727.7922479580156505
 20
519216.7072506570257246
 30
0.0
  0
VERTEX
  5
B46
  8
SITES
 10
424731.3637303375871852
 20
519212.3953458998003043
 30
0.0
  0
VERTEX
  5
B47
  8
SITES
 10
424732.0378585311118513
 20
519198.0559697718126699
 30
0.0
  0
VERTEX
  5
B48
  8
SITES
 10
424729.1319724342902191
 20
519185.1610550166224129
 30
0.0
  0
VERTEX
  5
B49
  8
SITES
 10
424725.5348953910870478
 20
519180.870529307925608
 30
0.0
  0
VERTEX
  5
B4A
  8
SITES
 10
424715.492419267015066
 20
519178.7497827021288686
 30
0.0
  0
VERTEX
  5
B4B
  8
SITES
 10
424703.3291967296972871
 20
519186.6716118818148971
 30
0.0
  0
VERTEX
  5
B4C
  8
SITES
 10
424702.2580123561201617
 20
519191.0593423700192943
 30
0.0
  0
VERTEX
  5
B4D
  8
SITES
 10
424702.657226835610345
 20
519201.7278728557866998
 30
0.0
  0
VERTEX
  5
B4E
  8
SITES
 10
424714.9015490760793909
 20
519221.0469074525753967
 30
0.0
  0
SEQEND
  5
B4F
  8
SITES
  0
POLYLINE
  5
376
  8
SITES
 66
     1
 10
0.0
 20
0.0
 30
0.0
 70
     1
  0
VERTEX
  5
B50
  8
SITES
 10
428170.9068944391910918
 20
519224.972871093894355
 30
0.0
  0
VERTEX
  5
B51
  8
SITES
 10
428175.9534193287836388
 20
519224.957803163677454
 30
0.0
  0
VERTEX
  5
B52
  8
SITES
 10
428180.9748938577249646
 20
519216.5346916107810102
 30
0.0
  0
VERTEX
  5
B53
  8
SITES
 10
428179.2425843445817009
 20
519199.7234938410110772
 30
0.0
  0
VERTEX
  5
B54
  8
SITES
 10
428177.5404152842820622
 20
519193.0020485079730861
 30
0.0
  0
VERTEX
  5
B55
  8
SITES
 10
428169.1295738738263026
 20
519193.0270958284963854
 30
0.0
  0
VERTEX
  5
B56
  8
SITES
 10
428162.4059310319134966
 20
519194.7287623392767273
 30
0.0
  0
VERTEX
  5
B57
  8
SITES
 10
428155.7023489736020565
 20
519203.1568632827256806
 30
0.0
  0
VERTEX
  5
B58
  8
SITES
 10
428155.7373798078042455
 20
519214.9282234755228274
 30
0.0
  0
VERTEX
  5
B59
  8
SITES
 10
428160.8139449123991653
 20
519225.0029071526951157
 30
0.0
  0
SEQEND
  5
B5A
  8
SITES
  0
POLYLINE
  5
377
  8
SITES
 66
     1
 10
0.0
 20
0.0
 30
0.0
 70
     1
  0
VERTEX
  5
B5B
  8
SITES
 10
429581.4354695442016236
 20
519241.0127798928879201
 30
0.0
  0
VERTEX
  5
B5C
  8
SITES
 10
429590.011910995002836
 20
519232.384947863582056
 30
0.0
  0
VERTEX
  5
B5D
  8
SITES
 10
429590.6967361221904866
 20
519221.6302688518189825
 30
0.0
  0
VERTEX
  5
B5E
  8
SITES
 10
429583.4920032222871669
 20
519209.4652383591164835
 30
0.0
  0
VERTEX
  5
B5F
  8
SITES
 10
429570.5674184432136826
 20
519202.3353351338882931
 30
0.0
  0
VERTEX
  5
B60
  8
SITES
 10
429561.2441715499735437
 20
519200.9293998377979733
 30
0.0
  0
VERTEX
  5
B61
  8
SITES
 10
429556.9644836108200252
 20
519208.1105946640018374
 30
0.0
  0
VERTEX
  5
B62
  8
SITES
 10
429556.2796587726916187
 20
519218.8653727081837133
 30
0.0
  0
VERTEX
  5
B63
  8
SITES
 10
429561.3531284530763514
 20
519237.4883286390104331
 30
0.0
  0
VERTEX
  5
B64
  8
SITES
 10
429569.2533755218028091
 20
519242.4827541625127196
 30
0.0
  0
SEQEND
  5
B65
  8
SITES
  0
POLYLINE
  5
378
  8
SITES
 66
     1
 10
0.0
 20
0.0
 30
0.0
 70
     1
  0
VERTEX
  5
B66
  8
SITES
 10
425591.9560631946078502
 20
519330.2646823378745466
 30
0.0
  0
VERTEX
  5
B67
  8
SITES
 10
425601.2517658456927165
 20
519322.351470151101239
 30
0.0
  0
VERTEX
  5
B68
  8
SITES
 10
425601.2068540179170668
 20
519307.2974327449919656
 30
0.0
  0
VERTEX
  5
B69
  8
SITES
 10
425591.8514352971105836
 20
519295.138596105389297
 30
0.0
  0
VERTEX
  5
B6A
  8
SITES
 10
425578.9286413257941604
 20
519288.7253482174710371
 30
0.0
  0
VERTEX
  5
B6B
  8
SITES
 10
425571.7515358653035946
 20
519285.8792760279029608
 30
0.0
  0
VERTEX
  5
B6C
  8
SITES
 10
425559.567107405688148
 20
519286.6324453739216551
 30
0.0
  0
VERTEX
  5
B6D
  8
SITES
 10
425543.8217776783858426
 20
519295.2817645542090759
 30
0.0
  0
VERTEX
  5
B6E
  8
SITES
 10
425543.8453127212123945
 20
519303.1672258609905839
 30
0.0
  0
VERTEX
  5
B6F
  8
SITES
 10
425551.0544833271997049
 20
519316.7661092692869715
 30
0.0
  0
VERTEX
  5
B70
  8
SITES
 10
425563.2731345946085639
 20
519327.4827396632172167
 30
0.0
  0
VERTEX
  5
B71
  8
SITES
 10
425575.4747246053884737
 20
519332.4644712075823918
 30
0.0
  0
SEQEND
  5
B72
  8
SITES
  0
POLYLINE
  5
379
  8
SITES
 66
     1
 10
0.0
 20
0.0
 30
0.0
 70
     1
  0
VERTEX
  5
B73
  8
SITES
 10
424559.0760366215836257
 20
519372.770780332677532
 30
0.0
  0
VERTEX
  5
B74
  8
SITES
 10
424569.7927416627062485
 20
519360.5520612525870092
 30
0.0
  0
VERTEX
  5
B75
  8
SITES
 10
424570.4903089110739529
 20
519354.0981329879723489
 30
0.0
  0
VERTEX
  5
B76
  8
SITES
 10
424564.010789334308356
 20
519344.79813857388217
 30
0.0
  0
VERTEX
  5
B77
  8
SITES
 10
424554.6723578913952224
 20
519338.3741174195893109
 30
0.0
  0
VERTEX
  5
B78
  8
SITES
 10
424543.1897427625954151
 20
519334.1071261999895796
 30
0.0
  0
VERTEX
  5
B79
  8
SITES
 10
424521.6837764504016377
 20
519334.1711554926005192
 30
0.0
  0
VERTEX
  5
B7A
  8
SITES
 10
424513.0963536924100481
 20
519339.2148458121810108
 30
0.0
  0
VERTEX
  5
B7B
  8
SITES
 10
424507.38068820850458
 20
519345.6837764179799706
 30
0.0
  0
VERTEX
  5
B7C
  8
SITES
 10
424506.6937094395980239
 20
519355.7219311380758882
 30
0.0
  0
VERTEX
  5
B7D
  8
SITES
 10
424517.478756018623244
 20
519366.4428499984787777
 30
0.0
  0
VERTEX
  5
B7E
  8
SITES
 10
424549.0442535973270424
 20
519374.2343576300190762
 30
0.0
  0
SEQEND
  5
B7F
  8
SITES
  0
POLYLINE
  5
37A
  8
SITES
 66
     1
 10
0.0
 20
0.0
 30
0.0
 70
     1
  0
VERTEX
  5
B80
  8
SITES
 10
429585.9885656724218279
 20
519325.5873101045144722
 30
0.0
  0
VERTEX
  5
B81
  8
SITES
 10
429587.3988192527904175
 20
519317.6978525283047929
 30
0.0
  0
VERTEX
  5
B82
  8
SITES
 10
429588.8325087617849931
 20
519317.6935369693092071
 30
0.0
  0
VERTEX
  5
B83
  8
SITES
 10
429588.0835468975128606
 20
519306.9430736618232913
 30
0.0
  0
VERTEX
  5
B84
  8
SITES
 10
429588.7790634025004692
 20
519299.7724685929715633
 30
0.0
  0
VERTEX
  5
B85
  8
SITES
 10
429578.6578229871229269
 20
519271.1286896293750033
 30
0.0
  0
VERTEX
  5
B86
  8
SITES
 10
429568.609149903524667
 20
519266.8575317243230529
 30
0.0
  0
VERTEX
  5
B87
  8
SITES
 10
429563.6083502129768021
 20
519272.6071944761206396
 30
0.0
  0
VERTEX
  5
B88
  8
SITES
 10
429560.0497712481883354
 20
519281.2200200072838925
 30
0.0
  0
VERTEX
  5
B89
  8
SITES
 10
429557.9035029996884987
 20
519282.6600829546805471
 30
0.0
  0
VERTEX
  5
B8A
  8
SITES
 10
429555.7765552853816189
 20
519290.5517980161239393
 30
0.0
  0
VERTEX
  5
B8B
  8
SITES
 10
429554.3428658985067159
 20
519290.5561136726173572
 30
0.0
  0
VERTEX
  5
B8C
  8
SITES
 10
429549.3783491349895485
 20
519308.4920851300121285
 30
0.0
  0
VERTEX
  5
B8D
  8
SITES
 10
429550.8376321960240602
 20
519317.0899054399924353
 30
0.0
  0
VERTEX
  5
B8E
  8
SITES
 10
429556.6022985065937974
 20
519327.1086684910114855
 30
0.0
  0
VERTEX
  5
B8F
  8
SITES
 10
429565.2087502414942719
 20
519328.516664641094394
 30
0.0
  0
VERTEX
  5
B90
  8
SITES
 10
429565.2129658312769607
 20
519329.9503539460711181
 30
0.0
  0
VERTEX
  5
B91
  8
SITES
 10
429577.401433486607857
 20
519330.6308665046817623
 30
0.0
  0
SEQEND
  5
B92
  8
SITES
  0
POLYLINE
  5
37B
  8
SITES
 66
     1
 10
0.0
 20
0.0
 30
0.0
 70
     1
  0
VERTEX
  5
B93
  8
SITES
 10
429083.5410455579985864
 20
519470.4742774614132941
 30
0.0
  0
VERTEX
  5
B94
  8
SITES
 10
429139.3502475410932675
 20
519435.1821897543268278
 30
0.0
  0
VERTEX
  5
B95
  8
SITES
 10
429161.5083317469106987
 20
519413.6105862110271119
 30
0.0
  0
VERTEX
  5
B96
  8
SITES
 10
429188.6308322728145868
 20
519374.1029263649252243
 30
0.0
  0
VERTEX
  5
B97
  8
SITES
 10
429200.0618978230049834
 20
519361.16561085608555
 30
0.0
  0
VERTEX
  5
B98
  8
SITES
 10
429216.4723824025713839
 20
519335.3099974897922948
 30
0.0
  0
VERTEX
  5
B99
  8
SITES
 10
429220.7029399868915789
 20
519311.641346772084944
 30
0.0
  0
VERTEX
  5
B9A
  8
SITES
 10
429209.2185305071179755
 20
519306.6576133224880323
 30
0.0
  0
VERTEX
  5
B9B
  8
SITES
 10
429187.7431190378265455
 20
519316.7575636039837264
 30
0.0
  0
VERTEX
  5
B9C
  8
SITES
 10
429166.2954594902112149
 20
519336.1764343588147312
 30
0.0
  0
VERTEX
  5
B9D
  8
SITES
 10
429155.5513811510754749
 20
519339.0758764884085394
 30
0.0
  0
VERTEX
  5
B9E
  8
SITES
 10
429113.9507993874140084
 20
519331.3144931172137149
 30
0.0
  0
VERTEX
  5
B9F
  8
SITES
 10
429099.6246111129876226
 20
519334.9414176074787974
 30
0.0
  0
VERTEX
  5
BA0
  8
SITES
 10
429078.8831605279119685
 20
519350.7739563002833165
 30
0.0
  0
VERTEX
  5
BA1
  8
SITES
 10
429078.91306846489897
 20
519360.8098695537191816
 30
0.0
  0
VERTEX
  5
BA2
  8
SITES
 10
429081.7975054665002972
 20
519366.5359892580891028
 30
0.0
  0
VERTEX
  5
BA3
  8
SITES
 10
429102.635153207811527
 20
519382.9614746539737098
 30
0.0
  0
VERTEX
  5
BA4
  8
SITES
 10
429106.2663908950053155
 20
519398.7213512421003543
 30
0.0
  0
VERTEX
  5
BA5
  8
SITES
 10
429103.4609864857047796
 20
519419.5184035720885731
 30
0.0
  0
VERTEX
  5
BA6
  8
SITES
 10
429099.1791416936903261
 20
519425.9828937384882011
 30
0.0
  0
VERTEX
  5
BA7
  8
SITES
 10
429090.5983915756223723
 20
519433.1769231816288084
 30
0.0
  0
VERTEX
  5
BA8
  8
SITES
 10
429079.1417358748149127
 20
519437.5122072838130407
 30
0.0
  0
VERTEX
  5
BA9
  8
SITES
 10
429038.9920119972084649
 20
519435.4813497887807898
 30
0.0
  0
VERTEX
  5
BAA
  8
SITES
 10
429034.6781041314243339
 20
519431.1931327841011807
 30
0.0
  0
VERTEX
  5
BAB
  8
SITES
 10
429017.4716975588235073
 20
519430.527520991221536
 30
0.0
  0
VERTEX
  5
BAC
  8
SITES
 10
429011.0350573472096585
 20
519435.564694996108301
 30
0.0
  0
VERTEX
  5
BAD
  8
SITES
 10
429006.7574285736191086
 20
519443.4627708286861889
 30
0.0
  0
VERTEX
  5
BAE
  8
SITES
 10
429004.6218504151911475
 20
519448.4870992195792496
 30
0.0
  0
VERTEX
  5
BAF
  8
SITES
 10
429006.7938067800132558
 20
519455.6491634321864694
 30
0.0
  0
VERTEX
  5
BB0
  8
SITES
 10
429022.5964308931143023
 20
519466.3548033299739473
 30
0.0
  0
VERTEX
  5
BB1
  8
SITES
 10
429043.4126964499009773
 20
519475.6118540852912702
 30
0.0
  0
VERTEX
  5
BB2
  8
SITES
 10
429057.0370927390176803
 20
519477.0049492631806061
 30
0.0
  0
SEQEND
  5
BB3
  8
SITES
  0
POLYLINE
  5
37C
  8
SITES
 66
     1
 10
0.0
 20
0.0
 30
0.0
 70
     1
  0
VERTEX
  5
BB4
  8
SITES
 10
425429.7951786571065895
 20
519520.7174780201748945
 30
0.0
  0
VERTEX
  5
BB5
  8
SITES
 10
425441.9647020761040039
 20
519514.9464056934812106
 30
0.0
  0
VERTEX
  5
BB6
  8
SITES
 10
425432.5472295089857653
 20
519481.9986403331859037
 30
0.0
  0
VERTEX
  5
BB7
  8
SITES
 10
425431.8219125000177883
 20
519479.1334490160224959
 30
0.0
  0
VERTEX
  5
BB8
  8
SITES
 10
425424.6468686279840767
 20
519477.004161526390817
 30
0.0
  0
VERTEX
  5
BB9
  8
SITES
 10
425417.4867267789086327
 20
519479.8928841847227886
 30
0.0
  0
VERTEX
  5
BBA
  8
SITES
 10
425412.5157791557139717
 20
519495.6788034198107198
 30
0.0
  0
VERTEX
  5
BBB
  8
SITES
 10
425415.4408763641840778
 20
519515.0255271389032714
 30
0.0
  0
VERTEX
  5
BBC
  8
SITES
 10
425421.1929324571974576
 20
519520.7431660111178644
 30
0.0
  0
SEQEND
  5
BBD
  8
SITES
  0
POLYLINE
  5
37D
  8
SITES
 66
     1
 10
0.0
 20
0.0
 30
0.0
 70
     1
  0
VERTEX
  5
BBE
  8
SITES
 10
428726.0532515360973775
 20
519544.6589746486861259
 30
0.0
  0
VERTEX
  5
BBF
  8
SITES
 10
428732.4813589926925488
 20
519536.7544333477271721
 30
0.0
  0
VERTEX
  5
BC0
  8
SITES
 10
428738.8602459789835848
 20
519512.3624482068116777
 30
0.0
  0
VERTEX
  5
BC1
  8
SITES
 10
428734.5207529900944792
 20
519499.4720154696842656
 30
0.0
  0
VERTEX
  5
BC2
  8
SITES
 10
428721.6046312685939483
 20
519495.2093904446228407
 30
0.0
  0
VERTEX
  5
BC3
  8
SITES
 10
428707.2976724781910889
 20
519505.2880434524267912
 30
0.0
  0
VERTEX
  5
BC4
  8
SITES
 10
428701.5970462998957373
 20
519516.7746928915730678
 30
0.0
  0
VERTEX
  5
BC5
  8
SITES
 10
428704.500794650579337
 20
519528.9525465191109106
 30
0.0
  0
VERTEX
  5
BC6
  8
SITES
 10
428710.7652619350119494
 20
519540.666742090776097
 30
0.0
  0
VERTEX
  5
BC7
  8
SITES
 10
428720.32056362478761
 20
519545.3929266430786811
 30
0.0
  0
SEQEND
  5
BC8
  8
SITES
  0
POLYLINE
  5
37E
  8
SITES
 66
     1
 10
0.0
 20
0.0
 30
0.0
 70
     1
  0
VERTEX
  5
BC9
  8
SITES
 10
428551.1618732669157907
 20
519551.6322064063861035
 30
0.0
  0
VERTEX
  5
BCA
  8
SITES
 10
428564.7648788883234374
 20
519545.8567738214042038
 30
0.0
  0
VERTEX
  5
BCB
  8
SITES
 10
428565.458240739419125
 20
519537.9692948260926642
 30
0.0
  0
VERTEX
  5
BCC
  8
SITES
 10
428561.8654468503082171
 20
519535.1126101677073166
 30
0.0
  0
VERTEX
  5
BCD
  8
SITES
 10
428530.3391634224099107
 20
519540.2245844961726107
 30
0.0
  0
VERTEX
  5
BCE
  8
SITES
 10
428525.3340579345822334
 20
519544.5406429038848728
 30
0.0
  0
VERTEX
  5
BCF
  8
SITES
 10
428526.0722242799238302
 20
519551.7070135385147296
 30
0.0
  0
VERTEX
  5
BD0
  8
SITES
 10
428533.961859920702409
 20
519553.1171684520086274
 30
0.0
  0
SEQEND
  5
BD1
  8
SITES
  0
POLYLINE
  5
37F
  8
SITES
 66
     1
 10
0.0
 20
0.0
 30
0.0
 70
     1
  0
VERTEX
  5
BD2
  8
SITES
 10
428401.3942290311097167
 20
519570.0001060711219907
 30
0.0
  0
VERTEX
  5
BD3
  8
SITES
 10
428405.6611673816223629
 20
519558.5176808480755426
 30
0.0
  0
VERTEX
  5
BD4
  8
SITES
 10
428402.7637942307046615
 20
519548.4904138604761101
 30
0.0
  0
VERTEX
  5
BD5
  8
SITES
 10
428394.84641556837596
 20
519537.7611561830271967
 30
0.0
  0
VERTEX
  5
BD6
  8
SITES
 10
428386.954725279705599
 20
519535.6341096354881302
 30
0.0
  0
VERTEX
  5
BD7
  8
SITES
 10
428372.6219891554210335
 20
519537.1106419964926317
 30
0.0
  0
VERTEX
  5
BD8
  8
SITES
 10
428369.7610912231029943
 20
519539.2696492156246677
 30
0.0
  0
VERTEX
  5
BD9
  8
SITES
 10
428364.775203957920894
 20
519550.0373384900158271
 30
0.0
  0
VERTEX
  5
BDA
  8
SITES
 10
428373.4307475638925098
 20
519567.9328635804122314
 30
0.0
  0
VERTEX
  5
BDB
  8
SITES
 10
428377.7425892655737698
 20
519571.5042824886040762
 30
0.0
  0
VERTEX
  5
BDC
  8
SITES
 10
428393.5217545814230107
 20
519574.324691936315503
 30
0.0
  0
SEQEND
  5
BDD
  8
SITES
  0
POLYLINE
  5
380
  8
SITES
 66
     1
 10
0.0
 20
0.0
 30
0.0
 70
     1
  0
VERTEX
  5
BDE
  8
SITES
 10
429455.907939565309789
 20
519578.3251918436726555
 30
0.0
  0
VERTEX
  5
BDF
  8
SITES
 10
429462.3253727043047547
 20
519566.8364638533093967
 30
0.0
  0
VERTEX
  5
BE0
  8
SITES
 10
429459.4237769650062546
 20
519555.3755810747970827
 30
0.0
  0
VERTEX
  5
BE1
  8
SITES
 10
429453.6826488747028634
 20
519553.242156527529005
 30
0.0
  0
VERTEX
  5
BE2
  8
SITES
 10
429441.5027148480876349
 20
519555.4290151537861675
 30
0.0
  0
VERTEX
  5
BE3
  8
SITES
 10
429432.22437649872154
 20
519569.0768554981914349
 30
0.0
  0
VERTEX
  5
BE4
  8
SITES
 10
429432.969016315008048
 20
519578.3936261496273801
 30
0.0
  0
VERTEX
  5
BE5
  8
SITES
 10
429435.8427661558962427
 20
519580.5355802266276442
 30
0.0
  0
VERTEX
  5
BE6
  8
SITES
 10
429450.1818127979058772
 20
519581.209728405403439
 30
0.0
  0
SEQEND
  5
BE7
  8
SITES
  0
POLYLINE
  5
381
  8
SITES
 66
     1
 10
0.0
 20
0.0
 30
0.0
 70
     1
  0
VERTEX
  5
BE8
  8
SITES
 10
424566.2480365604278632
 20
519614.334514984395355
 30
0.0
  0
VERTEX
  5
BE9
  8
SITES
 10
424572.6506925756111741
 20
519597.8274312859284692
 30
0.0
  0
VERTEX
  5
BEA
  8
SITES
 10
424571.9059636676101945
 20
519588.5103751390124671
 30
0.0
  0
VERTEX
  5
BEB
  8
SITES
 10
424564.0055215714965016
 20
519583.5158048960729502
 30
0.0
  0
VERTEX
  5
BEC
  8
SITES
 10
424553.2504802226903848
 20
519582.8310771890101023
 30
0.0
  0
VERTEX
  5
BED
  8
SITES
 10
424542.5167112402850762
 20
519589.3149052028893493
 30
0.0
  0
VERTEX
  5
BEE
  8
SITES
 10
424535.3780559666920453
 20
519599.3723749709897675
 30
0.0
  0
VERTEX
  5
BEF
  8
SITES
 10
424532.5468854489154182
 20
519611.5675580807728693
 30
0.0
  0
VERTEX
  5
BF0
  8
SITES
 10
424534.7124420899781398
 20
519616.5791856084833853
 30
0.0
  0
VERTEX
  5
BF1
  8
SITES
 10
424541.1855833902955055
 20
519623.7286271320190281
 30
0.0
  0
VERTEX
  5
BF2
  8
SITES
 10
424554.1269885771907866
 20
519626.5139114017947577
 30
0.0
  0
SEQEND
  5
BF3
  8
SITES
  0
POLYLINE
  5
382
  8
SITES
 66
     1
 10
0.0
 20
0.0
 30
0.0
 70
     1
  0
VERTEX
  5
BF4
  8
SITES
 10
428242.3930306435213424
 20
519617.0697277269791812
 30
0.0
  0
VERTEX
  5
BF5
  8
SITES
 10
428255.2727625104016624
 20
519609.1459821658791043
 30
0.0
  0
VERTEX
  5
BF6
  8
SITES
 10
428258.8270227070897818
 20
519599.0994033727911301
 30
0.0
  0
VERTEX
  5
BF7
  8
SITES
 10
428257.3719654345768504
 20
519591.9351946745882742
 30
0.0
  0
VERTEX
  5
BF8
  8
SITES
 10
428252.3262746557011269
 20
519582.6310955411172472
 30
0.0
  0
VERTEX
  5
BF9
  8
SITES
 10
428203.3817675213213079
 20
519516.1096138703287579
 30
0.0
  0
VERTEX
  5
BFA
  8
SITES
 10
428194.0563966085901484
 20
519513.9867836349876598
 30
0.0
  0
VERTEX
  5
BFB
  8
SITES
 10
428188.3300886614015326
 20
519516.8713115518912673
 30
0.0
  0
VERTEX
  5
BFC
  8
SITES
 10
428194.1375771468156017
 20
519541.227087368897628
 30
0.0
  0
VERTEX
  5
BFD
  8
SITES
 10
428209.9936992826987989
 20
519569.8540148620959371
 30
0.0
  0
VERTEX
  5
BFE
  8
SITES
 10
428223.7250302722095512
 20
519607.0894237746833824
 30
0.0
  0
VERTEX
  5
BFF
  8
SITES
 10
428230.2065618588821962
 20
519617.1061003914801404
 30
0.0
  0
VERTEX
  5
C00
  8
SITES
 10
428235.233036617806647
 20
519619.9585689333034679
 30
0.0
  0
SEQEND
  5
C01
  8
SITES
  0
POLYLINE
  5
383
  8
SITES
 66
     1
 10
0.0
 20
0.0
 30
0.0
 70
     1
  0
VERTEX
  5
C02
  8
SITES
 10
429522.7454149816767313
 20
519635.4738306468934752
 30
0.0
  0
VERTEX
  5
C03
  8
SITES
 10
429525.582792294502724
 20
519625.429476919292938
 30
0.0
  0
VERTEX
  5
C04
  8
SITES
 10
429524.1149869895889424
 20
519613.9642775186221115
 30
0.0
  0
VERTEX
  5
C05
  8
SITES
 10
429519.7967612177017145
 20
519608.2423640501801856
 30
0.0
  0
VERTEX
  5
C06
  8
SITES
 10
429510.4799886075197719
 20
519608.9870031882892363
 30
0.0
  0
VERTEX
  5
C07
  8
SITES
 10
429499.7743294116226025
 20
519624.789642843476031
 30
0.0
  0
VERTEX
  5
C08
  8
SITES
 10
429497.658061336085666
 20
519636.2655278521124274
 30
0.0
  0
VERTEX
  5
C09
  8
SITES
 10
429499.1024365351186134
 20
519639.8454862990183756
 30
0.0
  0
VERTEX
  5
C0A
  8
SITES
 10
429506.9962058212258853
 20
519642.6893352920887992
 30
0.0
  0
SEQEND
  5
C0B
  8
SITES
  0
POLYLINE
  5
384
  8
SITES
 66
     1
 10
0.0
 20
0.0
 30
0.0
 70
     1
  0
VERTEX
  5
C0C
  8
SITES
 10
427917.5007427185191773
 20
519649.1303685830207542
 30
0.0
  0
VERTEX
  5
C0D
  8
SITES
 10
427917.4756015586899593
 20
519640.7222304187016562
 30
0.0
  0
VERTEX
  5
C0E
  8
SITES
 10
427914.0862457802868448
 20
519632.3240676136920229
 30
0.0
  0
VERTEX
  5
C0F
  8
SITES
 10
427905.6353032130864449
 20
519618.8961450022179633
 30
0.0
  0
VERTEX
  5
C10
  8
SITES
 10
427902.2257934334920719
 20
519603.7715522617800161
 30
0.0
  0
VERTEX
  5
C11
  8
SITES
 10
427902.195762742892839
 20
519593.6818070333101787
 30
0.0
  0
VERTEX
  5
C12
  8
SITES
 10
427897.1291873008012772
 20
519586.9704400728223845
 30
0.0
  0
VERTEX
  5
C13
  8
SITES
 10
427893.7547961006057449
 20
519583.617200568318367
 30
0.0
  0
VERTEX
  5
C14
  8
SITES
 10
427888.7082747687236406
 20
519583.6322638915735297
 30
0.0
  0
VERTEX
  5
C15
  8
SITES
 10
427883.686895995400846
 20
519592.0553647201159038
 30
0.0
  0
VERTEX
  5
C16
  8
SITES
 10
427883.7220149851054884
 20
519603.8268169878283516
 30
0.0
  0
VERTEX
  5
C17
  8
SITES
 10
427887.1365129922050983
 20
519620.6330164876999334
 30
0.0
  0
VERTEX
  5
C18
  8
SITES
 10
427890.5409337399178185
 20
519634.0760011891834438
 30
0.0
  0
VERTEX
  5
C19
  8
SITES
 10
427893.9453541922266595
 20
519647.5188861982896924
 30
0.0
  0
VERTEX
  5
C1A
  8
SITES
 10
427902.3762426815228537
 20
519654.2203787753824145
 30
0.0
  0
VERTEX
  5
C1B
  8
SITES
 10
427914.1564811583957635
 20
519655.8668740530265495
 30
0.0
  0
SEQEND
  5
C1C
  8
SITES
  0
POLYLINE
  5
385
  8
SITES
 66
     1
 10
0.0
 20
0.0
 30
0.0
 70
     1
  0
VERTEX
  5
C1D
  8
SITES
 10
425109.8927275274763815
 20
519700.8882525183726102
 30
0.0
  0
VERTEX
  5
C1E
  8
SITES
 10
425110.5818729767925106
 20
519691.5669696524273604
 30
0.0
  0
VERTEX
  5
C1F
  8
SITES
 10
425106.9504855155828409
 20
519675.8066493978840299
 30
0.0
  0
VERTEX
  5
C20
  8
SITES
 10
425102.6343665737076662
 20
519670.8014854441280477
 30
0.0
  0
VERTEX
  5
C21
  8
SITES
 10
425091.1602672616718337
 20
519669.4019250115961768
 30
0.0
  0
VERTEX
  5
C22
  8
SITES
 10
425081.8496700412943028
 20
519672.2972129050758667
 30
0.0
  0
VERTEX
  5
C23
  8
SITES
 10
425079.7268519073259085
 20
519681.6228092139936052
 30
0.0
  0
VERTEX
  5
C24
  8
SITES
 10
425084.0686545796925202
 20
519695.2303117829142138
 30
0.0
  0
VERTEX
  5
C25
  8
SITES
 10
425091.9841046408982947
 20
519705.2428968654712662
 30
0.0
  0
VERTEX
  5
C26
  8
SITES
 10
425102.0222738508018665
 20
519705.9297856793855317
 30
0.0
  0
SEQEND
  5
C27
  8
SITES
  0
POLYLINE
  5
386
  8
SITES
 66
     1
 10
0.0
 20
0.0
 30
0.0
 70
     1
  0
VERTEX
  5
C28
  8
SITES
 10
427757.9932249328121543
 20
519682.3145401693764143
 30
0.0
  0
VERTEX
  5
C29
  8
SITES
 10
427760.841376649972517
 20
519675.854388952779118
 30
0.0
  0
VERTEX
  5
C2A
  8
SITES
 10
427753.6579627175815403
 20
519670.8578201730852015
 30
0.0
  0
VERTEX
  5
C2B
  8
SITES
 10
427751.5117027999949642
 20
519672.2978743814746849
 30
0.0
  0
VERTEX
  5
C2C
  8
SITES
 10
427752.2605507696862333
 20
519683.0484882916207425
 30
0.0
  0
SEQEND
  5
C2D
  8
SITES
  0
POLYLINE
  5
387
  8
SITES
 66
     1
 10
0.0
 20
0.0
 30
0.0
 70
     1
  0
VERTEX
  5
C2E
  8
SITES
 10
424910.6522548730717972
 20
519717.2535929947043769
 30
0.0
  0
VERTEX
  5
C2F
  8
SITES
 10
424916.3657751941937022
 20
519710.0678747498895973
 30
0.0
  0
VERTEX
  5
C30
  8
SITES
 10
424922.0150853855884634
 20
519681.3762681768857874
 30
0.0
  0
VERTEX
  5
C31
  8
SITES
 10
424914.8400517057161778
 20
519679.2470796295092441
 30
0.0
  0
VERTEX
  5
C32
  8
SITES
 10
424899.0818967067170888
 20
519683.5952515719109215
 30
0.0
  0
VERTEX
  5
C33
  8
SITES
 10
424890.5159312122850679
 20
519695.8076013934914954
 30
0.0
  0
VERTEX
  5
C34
  8
SITES
 10
424884.8344662155723199
 20
519713.7462123946170323
 30
0.0
  0
VERTEX
  5
C35
  8
SITES
 10
424889.1527391342096962
 20
519719.4682602960965596
 30
0.0
  0
VERTEX
  5
C36
  8
SITES
 10
424891.3054546298808418
 20
519720.178775587817654
 30
0.0
  0
VERTEX
  5
C37
  8
SITES
 10
424892.7455979870283045
 20
519722.3250203867792152
 30
0.0
  0
VERTEX
  5
C38
  8
SITES
 10
424894.1815273336833343
 20
519723.0375928059220314
 30
0.0
  0
SEQEND
  5
C39
  8
SITES
  0
POLYLINE
  5
388
  8
SITES
 66
     1
 10
0.0
 20
0.0
 30
0.0
 70
     1
  0
VERTEX
  5
C3A
  8
SITES
 10
424974.6325160044943914
 20
519777.279678272199817
 30
0.0
  0
VERTEX
  5
C3B
  8
SITES
 10
424988.9291629560175352
 20
519763.616599831788335
 30
0.0
  0
VERTEX
  5
C3C
  8
SITES
 10
424992.4599726119195111
 20
519745.6843554641818628
 30
0.0
  0
VERTEX
  5
C3D
  8
SITES
 10
424988.8585853247204795
 20
519739.9601489144843072
 30
0.0
  0
VERTEX
  5
C3E
  8
SITES
 10
424973.8044715104042552
 20
519740.0050441757193767
 30
0.0
  0
VERTEX
  5
C3F
  8
SITES
 10
424963.096471278113313
 20
519755.091211203020066
 30
0.0
  0
VERTEX
  5
C40
  8
SITES
 10
424957.4107887310092337
 20
519771.5961520418059081
 30
0.0
  0
VERTEX
  5
C41
  8
SITES
 10
424960.3017594731063582
 20
519779.473074343521148
 30
0.0
  0
SEQEND
  5
C42
  8
SITES
  0
POLYLINE
  5
389
  8
SITES
 66
     1
 10
0.0
 20
0.0
 30
0.0
 70
     1
  0
VERTEX
  5
C43
  8
SITES
 10
425342.5042297613108531
 20
519817.0438723628758453
 30
0.0
  0
VERTEX
  5
C44
  8
SITES
 10
425351.7764115970931016
 20
519801.2451190769206733
 30
0.0
  0
VERTEX
  5
C45
  8
SITES
 10
425351.5005270970286801
 20
519799.4050805324804969
 30
0.0
  0
VERTEX
  5
C46
  8
SITES
 10
425349.5723296575015411
 20
519783.3300133019802161
 30
0.0
  0
VERTEX
  5
C47
  8
SITES
 10
425339.4977877089986578
 20
519770.4564426697907038
 30
0.0
  0
VERTEX
  5
C48
  8
SITES
 10
425333.7607346755103208
 20
519769.7567105641937815
 30
0.0
  0
VERTEX
  5
C49
  8
SITES
 10
425322.3102543613058515
 20
519776.2427035215077922
 30
0.0
  0
VERTEX
  5
C4A
  8
SITES
 10
425313.7464338355930522
 20
519789.171851533872541
 30
0.0
  0
VERTEX
  5
C4B
  8
SITES
 10
425308.7733183659147471
 20
519804.2408758350065909
 30
0.0
  0
VERTEX
  5
C4C
  8
SITES
 10
425308.7968432197812945
 20
519812.1263325511245057
 30
0.0
  0
VERTEX
  5
C4D
  8
SITES
 10
425312.3982324078097008
 20
519817.8505443743197247
 30
0.0
  0
VERTEX
  5
C4E
  8
SITES
 10
425327.4672566814115271
 20
519822.8236609257874079
 30
0.0
  0
SEQEND
  5
C4F
  8
SITES
  0
POLYLINE
  5
38A
  8
SITES
 66
     1
 10
0.0
 20
0.0
 30
0.0
 70
     1
  0
VERTEX
  5
C50
  8
SITES
 10
424609.9825145293143578
 20
519856.5061539359157905
 30
0.0
  0
VERTEX
  5
C51
  8
SITES
 10
424611.0271061517996714
 20
519854.974048922478687
 30
0.0
  0
VERTEX
  5
C52
  8
SITES
 10
424611.8179868598235771
 20
519852.889560300973244
 30
0.0
  0
VERTEX
  5
C53
  8
SITES
 10
424612.3694019729737192
 20
519850.2732578060240485
 30
0.0
  0
VERTEX
  5
C54
  8
SITES
 10
424612.8200633779051714
 20
519846.4615272352821194
 30
0.0
  0
VERTEX
  5
C55
  8
SITES
 10
424612.9193362627993338
 20
519843.9464508551754989
 30
0.0
  0
VERTEX
  5
C56
  8
SITES
 10
424612.7258582960930653
 20
519841.139582913427148
 30
0.0
  0
VERTEX
  5
C57
  8
SITES
 10
424611.3477708474965766
 20
519833.5622978108003736
 30
0.0
  0
VERTEX
  5
C58
  8
SITES
 10
424609.5653320078854449
 20
519826.459710716502741
 30
0.0
  0
VERTEX
  5
C59
  8
SITES
 10
424607.4100384403136559
 20
519820.2833295710152015
 30
0.0
  0
VERTEX
  5
C5A
  8
SITES
 10
424604.8743869313038886
 20
519815.0119134716223925
 30
0.0
  0
VERTEX
  5
C5B
  8
SITES
 10
424603.4644470048951916
 20
519812.7171784134116024
 30
0.0
  0
VERTEX
  5
C5C
  8
SITES
 10
424601.9601405241992325
 20
519810.6503934207721613
 30
0.0
  0
VERTEX
  5
C5D
  8
SITES
 10
424600.3046776789124124
 20
519808.7556787977810018
 30
0.0
  0
VERTEX
  5
C5E
  8
SITES
 10
424598.3895433656289242
 20
519806.9129922458087094
 30
0.0
  0
VERTEX
  5
C5F
  8
SITES
 10
424593.7285798456869088
 20
519803.3362627453170717
 30
0.0
  0
VERTEX
  5
C60
  8
SITES
 10
424587.9535955347819254
 20
519799.8611602004966699
 30
0.0
  0
VERTEX
  5
C61
  8
SITES
 10
424579.6924921632162295
 20
519795.6625549987074919
 30
0.0
  0
VERTEX
  5
C62
  8
SITES
 10
424572.1711606803000905
 20
519791.9318604118889198
 30
0.0
  0
VERTEX
  5
C63
  8
SITES
 10
424569.7191402100143023
 20
519791.0931511578965001
 30
0.0
  0
VERTEX
  5
C64
  8
SITES
 10
424567.4908386184833944
 20
519790.6809212781954557
 30
0.0
  0
VERTEX
  5
C65
  8
SITES
 10
424563.3699976406060159
 20
519790.519299267383758
 30
0.0
  0
VERTEX
  5
C66
  8
SITES
 10
424559.8222183777834289
 20
519790.8464025147841312
 30
0.0
  0
VERTEX
  5
C67
  8
SITES
 10
424557.1216867024195381
 20
519791.6357512432732619
 30
0.0
  0
VERTEX
  5
C68
  8
SITES
 10
424556.1026615694863722
 20
519792.1975739565095864
 30
0.0
  0
VERTEX
  5
C69
  8
SITES
 10
424555.3105537089868449
 20
519792.8678439449868165
 30
0.0
  0
VERTEX
  5
C6A
  8
SITES
 10
424554.3855447432142682
 20
519794.3273026364040561
 30
0.0
  0
VERTEX
  5
C6B
  8
SITES
 10
424553.7639424208900891
 20
519796.4200539555167779
 30
0.0
  0
VERTEX
  5
C6C
  8
SITES
 10
424553.4292643485823646
 20
519799.0117874689749442
 30
0.0
  0
VERTEX
  5
C6D
  8
SITES
 10
424553.1920489817857742
 20
519803.6271984165068716
 30
0.0
  0
VERTEX
  5
C6E
  8
SITES
 10
424553.1381902475841343
 20
519806.9749569097766653
 30
0.0
  0
VERTEX
  5
C6F
  8
SITES
 10
424553.370893569313921
 20
519810.4156905930140056
 30
0.0
  0
VERTEX
  5
C70
  8
SITES
 10
424553.8847907537710853
 20
519813.8689255759818479
 30
0.0
  0
VERTEX
  5
C71
  8
SITES
 10
424554.6663990595261566
 20
519817.2433113096049055
 30
0.0
  0
VERTEX
  5
C72
  8
SITES
 10
424555.669289346493315
 20
519820.2841653309878893
 30
0.0
  0
VERTEX
  5
C73
  8
SITES
 10
424557.0550364765804261
 20
519823.4985012811957859
 30
0.0
  0
VERTEX
  5
C74
  8
SITES
 10
424558.8432090007117949
 20
519826.9381170275737531
 30
0.0
  0
VERTEX
  5
C75
  8
SITES
 10
424561.1588477941113524
 20
519830.8445271283271722
 30
0.0
  0
VERTEX
  5
C76
  8
SITES
 10
424564.5093203738215379
 20
519835.6420229714713059
 30
0.0
  0
VERTEX
  5
C77
  8
SITES
 10
424568.5964511946076527
 20
519840.4291315785958432
 30
0.0
  0
VERTEX
  5
C78
  8
SITES
 10
424573.4442863900912926
 20
519845.2355530952918343
 30
0.0
  0
VERTEX
  5
C79
  8
SITES
 10
424579.1381202740012668
 20
519850.1463210438960232
 30
0.0
  0
VERTEX
  5
C7A
  8
SITES
 10
424585.0382668995880522
 20
519854.8353547488804907
 30
0.0
  0
VERTEX
  5
C7B
  8
SITES
 10
424587.1778712152736261
 20
519856.2305433679139242
 30
0.0
  0
VERTEX
  5
C7C
  8
SITES
 10
424589.195586389512755
 20
519857.2850837460136972
 30
0.0
  0
VERTEX
  5
C7D
  8
SITES
 10
424592.6325172822107561
 20
519858.7067636764841154
 30
0.0
  0
VERTEX
  5
C7E
  8
SITES
 10
424595.6071928404853679
 20
519859.627990389126353
 30
0.0
  0
VERTEX
  5
C7F
  8
SITES
 10
424598.2816421128227375
 20
519860.0985517306253314
 30
0.0
  0
VERTEX
  5
C80
  8
SITES
 10
424600.6739839357906021
 20
519860.1183194089098834
 30
0.0
  0
VERTEX
  5
C81
  8
SITES
 10
424603.5519578492967412
 20
519859.6568875763914548
 30
0.0
  0
VERTEX
  5
C82
  8
SITES
 10
424606.2268030393752269
 20
519858.8467490741750225
 30
0.0
  0
VERTEX
  5
C83
  8
SITES
 10
424608.3993836204172112
 20
519857.7805004161782563
 30
0.0
  0
SEQEND
  5
C84
  8
SITES
  0
POLYLINE
  5
38B
  8
SITES
 66
     1
 10
0.0
 20
0.0
 30
0.0
 70
     1
  0
VERTEX
  5
C85
  8
SITES
 10
428493.5393550617154688
 20
519940.3385815895744599
 30
0.0
  0
VERTEX
  5
C86
  8
SITES
 10
428498.5337812576908618
 20
519932.4382647033198737
 30
0.0
  0
VERTEX
  5
C87
  8
SITES
 10
428501.3455787457060069
 20
519913.7917259684181772
 30
0.0
  0
VERTEX
  5
C88
  8
SITES
 10
428497.7292644041008316
 20
519903.0497179116937332
 30
0.0
  0
VERTEX
  5
C89
  8
SITES
 10
428493.4195810019155033
 20
519900.1951870467164554
 30
0.0
  0
VERTEX
  5
C8A
  8
SITES
 10
428484.8153113385778852
 20
519899.503974923514761
 30
0.0
  0
VERTEX
  5
C8B
  8
SITES
 10
428473.3564112519961782
 20
519903.1224458928918466
 30
0.0
  0
VERTEX
  5
C8C
  8
SITES
 10
428461.2149258760036901
 20
519918.2125566506874748
 30
0.0
  0
VERTEX
  5
C8D
  8
SITES
 10
428456.2419670431991108
 20
519933.2813000190071762
 30
0.0
  0
VERTEX
  5
C8E
  8
SITES
 10
428457.6970188943087123
 20
519940.4455136064789258
 30
0.0
  0
VERTEX
  5
C8F
  8
SITES
 10
428463.4532267656759359
 20
519947.596887590480037
 30
0.0
  0
VERTEX
  5
C90
  8
SITES
 10
428466.3312806545873173
 20
519951.1726245597237721
 30
0.0
  0
VERTEX
  5
C91
  8
SITES
 10
428473.5018644675146788
 20
519951.868051070778165
 30
0.0
  0
SEQEND
  5
C92
  8
SITES
  0
POLYLINE
  5
38C
  8
SITES
 66
     1
 10
0.0
 20
0.0
 30
0.0
 70
     1
  0
VERTEX
  5
C93
  8
SITES
 10
428363.3127302869106643
 20
520021.014852415304631
 30
0.0
  0
VERTEX
  5
C94
  8
SITES
 10
428361.1087399465031922
 20
520003.1001088796183467
 30
0.0
  0
VERTEX
  5
C95
  8
SITES
 10
428353.9188496436108835
 20
519995.9529490548884496
 30
0.0
  0
VERTEX
  5
C96
  8
SITES
 10
428342.4535827218205668
 20
519997.4209385727881454
 30
0.0
  0
VERTEX
  5
C97
  8
SITES
 10
428337.4656267766840756
 20
520007.4717290680273436
 30
0.0
  0
VERTEX
  5
C98
  8
SITES
 10
428344.6661991860019043
 20
520018.203051300777588
 30
0.0
  0
VERTEX
  5
C99
  8
SITES
 10
428359.7392500847927295
 20
520024.6097975344746374
 30
0.0
  0
SEQEND
  5
C9A
  8
SITES
  0
ENDSEC
  0
EOF
