  0
SECTION
  2
HEADER
  9
$ACADVER
  1
AC1009
  9
$INSBASE
 10
0.0
 20
0.0
 30
0.0
  9
$EXTMIN
 10
732711.88571428566
 20
4554937.54
 30
0.0
  9
$EXTMAX
 10
733665.5874641228
 20
4555273.9919999996
 30
0.0
  9
$LIMMIN
 10
0.0
 20
0.0
  9
$LIMMAX
 10
12.0
 20
9.0
  9
$ORTHOMODE
 70
     0
  9
$REGENMODE
 70
     1
  9
$FILLMODE
 70
     1
  9
$QTEXTMODE
 70
     0
  9
$MIRRTEXT
 70
     1
  9
$DRAGMODE
 70
     2
  9
$LTSCALE
 40
1.0
  9
$OSMODE
 70
   623
  9
$ATTMODE
 70
     1
  9
$TEXTSIZE
 40
5.0
  9
$TRACEWID
 40
0.05
  9
$TEXTSTYLE
  7
STANDARD
  9
$CLAYER
  8
HH_OUTLINES
  9
$CELTYPE
  6
BYLAYER
  9
$CECOLOR
 62
   256
  9
$DIMSCALE
 40
1.0
  9
$DIMASZ
 40
0.18
  9
$DIMEXO
 40
0.0625
  9
$DIMDLI
 40
0.38
  9
$DIMRND
 40
0.0
  9
$DIMDLE
 40
0.0
  9
$DIMEXE
 40
0.18
  9
$DIMTP
 40
0.0
  9
$DIMTM
 40
0.0
  9
$DIMTXT
 40
0.18
  9
$DIMCEN
 40
0.09
  9
$DIMTSZ
 40
0.0
  9
$DIMTOL
 70
     0
  9
$DIMLIM
 70
     0
  9
$DIMTIH
 70
     1
  9
$DIMTOH
 70
     1
  9
$DIMSE1
 70
     0
  9
$DIMSE2
 70
     0
  9
$DIMTAD
 70
     0
  9
$DIMZIN
 70
     0
  9
$DIMBLK
  1

  9
$DIMASO
 70
     1
  9
$DIMSHO
 70
     1
  9
$DIMPOST
  1

  9
$DIMAPOST
  1

  9
$DIMALT
 70
     0
  9
$DIMALTD
 70
     2
  9
$DIMALTF
 40
25.399999999999999
  9
$DIMLFAC
 40
1.0
  9
$DIMTOFL
 70
     0
  9
$DIMTVP
 40
0.0
  9
$DIMTIX
 70
     0
  9
$DIMSOXD
 70
     0
  9
$DIMSAH
 70
     0
  9
$DIMBLK1
  1

  9
$DIMBLK2
  1

  9
$DIMSTYLE
  2
STANDARD
  9
$DIMCLRD
 70
     0
  9
$DIMCLRE
 70
     0
  9
$DIMCLRT
 70
     0
  9
$DIMTFAC
 40
1.0
  9
$DIMGAP
 40
0.09
  9
$LUNITS
 70
     2
  9
$LUPREC
 70
     4
  9
$SKETCHINC
 40
0.1
  9
$FILLETRAD
 40
0.5
  9
$AUNITS
 70
     0
  9
$AUPREC
 70
     0
  9
$MENU
  1
.
  9
$ELEVATION
 40
0.0
  9
$PELEVATION
 40
0.0
  9
$THICKNESS
 40
0.0
  9
$LIMCHECK
 70
     0
  9
$BLIPMODE
 70
     0
  9
$CHAMFERA
 40
0.5
  9
$CHAMFERB
 40
0.5
  9
$SKPOLY
 70
     0
  9
$TDCREATE
 40
2454974.1445596418
  9
$TDUPDATE
 40
2457576.7756411461
  9
$TDINDWG
 40
6.3623204167000003
  9
$TDUSRTIMER
 40
6.3623202082999999
  9
$USRTIMER
 70
     1
  9
$ANGBASE
 50
0.0
  9
$ANGDIR
 70
     1
  9
$PDMODE
 70
     2
  9
$PDSIZE
 40
1.0
  9
$PLINEWID
 40
0.0
  9
$COORDS
 70
     1
  9
$SPLFRAME
 70
     0
  9
$SPLINETYPE
 70
     6
  9
$SPLINESEGS
 70
     8
  9
$ATTDIA
 70
     1
  9
$ATTREQ
 70
     1
  9
$HANDLING
 70
     1
  9
$HANDSEED
  5
333
  9
$SURFTAB1
 70
     6
  9
$SURFTAB2
 70
     6
  9
$SURFTYPE
 70
     6
  9
$SURFU
 70
     6
  9
$SURFV
 70
     6
  9
$UCSNAME
  2

  9
$UCSORG
 10
0.0
 20
0.0
 30
0.0
  9
$UCSXDIR
 10
1.0
 20
0.0
 30
0.0
  9
$UCSYDIR
 10
0.0
 20
1.0
 30
0.0
  9
$PUCSNAME
  2

  9
$PUCSORG
 10
0.0
 20
0.0
 30
0.0
  9
$PUCSXDIR
 10
1.0
 20
0.0
 30
0.0
  9
$PUCSYDIR
 10
0.0
 20
1.0
 30
0.0
  9
$USERI1
 70
     0
  9
$USERI2
 70
     0
  9
$USERI3
 70
     0
  9
$USERI4
 70
     0
  9
$USERI5
 70
     0
  9
$USERR1
 40
0.0
  9
$USERR2
 40
0.0
  9
$USERR3
 40
0.0
  9
$USERR4
 40
0.0
  9
$USERR5
 40
0.0
  9
$WORLDVIEW
 70
     1
  9
$SHADEDGE
 70
     3
  9
$SHADEDIF
 70
    70
  9
$TILEMODE
 70
     1
  9
$MAXACTVP
 70
    64
  9
$PLIMCHECK
 70
     0
  9
$PEXTMIN
 10
0.0
 20
0.0
 30
0.0
  9
$PEXTMAX
 10
0.0
 20
0.0
 30
0.0
  9
$PLIMMIN
 10
0.0
 20
0.0
  9
$PLIMMAX
 10
12.0
 20
9.0
  9
$UNITMODE
 70
     0
  9
$VISRETAIN
 70
     1
  9
$PLINEGEN
 70
     0
  9
$PSLTSCALE
 70
     1
  0
ENDSEC
  0
SECTION
  2
TABLES
  0
TABLE
  2
VPORT
 70
     1
  0
VPORT
  2
*ACTIVE
 70
     0
 10
0.0
 20
0.0
 11
1.0
 21
1.0
 12
733188.73658920429
 22
4555105.7659999989
 13
0.0
 23
0.0
 14
1000.0
 24
1000.0
 15
0.5
 25
0.5
 16
0.0
 26
0.0
 36
1.0
 17
0.0
 27
0.0
 37
0.0
 40
736.4530483713105
 41
1.301997649823736
 42
50.0
 43
0.0
 44
0.0
 50
0.0
 51
0.0
 71
     0
 72
   100
 73
     1
 74
     2
 75
     0
 76
     0
 77
     0
 78
     0
  0
ENDTAB
  0
TABLE
  2
LTYPE
 70
     2
  0
LTYPE
  2
CONTINUOUS
 70
     0
  3
Solid line
 72
    65
 73
     0
 40
0.0
  0
ENDTAB
  0
TABLE
  2
LAYER
 70
     3
  0
LAYER
  2
0
 70
     0
 62
    -7
  6
CONTINUOUS
  0
LAYER
  2
HH_OUTLINES
 70
     0
 62
     1
  6
CONTINUOUS
  0
LAYER
  2
HH_NUMBERS
 70
     0
 62
     7
  6
CONTINUOUS
  0
ENDTAB
  0
TABLE
  2
STYLE
 70
     3
  0
STYLE
  2
STANDARD
 70
     0
 40
0.0
 41
1.0
 50
0.0
 71
     0
 42
5.0
  3
txt
  4

  0
STYLE
  2
ANNOTATIVE
 70
     0
 40
0.0
 41
1.0
 50
0.0
 71
     0
 42
0.2
  3
txt
  4

  0
STYLE
  2
LEGEND
 70
     0
 40
0.0
 41
1.0
 50
0.0
 71
     0
 42
5.0
  3
txt
  4

  0
ENDTAB
  0
TABLE
  2
VIEW
 70
     0
  0
ENDTAB
  0
TABLE
  2
UCS
 70
     0
  0
ENDTAB
  0
TABLE
  2
APPID
 70
    13
  0
APPID
  2
ACAD
 70
     0
  0
APPID
  2
ACADANNOTATIVE
 70
     0
  0
APPID
  2
ADE
 70
     0
  0
APPID
  2
ACAD_NAV_VCDISPLAY
 70
     0
  0
APPID
  2
ACAECLAYERSTANDARD
 70
     0
  0
APPID
  2
ACCMTRANSPARENCY
 70
     0
  0
APPID
  2
ADE_PROJECTION
 70
     0
  0
APPID
  2
ACMAPDMDISPLAYSTYLEREGAPP
 70
     0
  0
APPID
  2
ACAD_EXEMPT_FROM_CAD_STANDARDS
 70
     0
  0
APPID
  2
DCO15
 70
     0
  0
APPID
  2
MAPGWS
 70
     0
  0
APPID
  2
ACAD_MLEADERVER
 70
     0
  0
APPID
  2
MapManagementAppName
 70
     0
  0
ENDTAB
  0
TABLE
  2
DIMSTYLE
 70
     3
  0
DIMSTYLE
  2
STANDARD
 70
     0
  3

  4

  5

  6

  7

 40
1.0
 41
0.18
 42
0.0625
 43
0.38
 44
0.18
 45
0.0
 46
0.0
 47
0.0
 48
0.0
140
0.18
141
0.09
142
0.0
143
25.399999999999999
144
1.0
145
0.0
146
1.0
147
0.09
 71
     0
 72
     0
 73
     1
 74
     1
 75
     0
 76
     0
 77
     0
 78
     0
170
     0
171
     2
172
     0
173
     0
174
     0
175
     0
176
     0
177
     0
178
     0
  0
DIMSTYLE
  2
ANNOTATIVE
 70
     0
  3

  4

  5

  6

  7

 40
1.0
 41
0.18
 42
0.0625
 43
0.38
 44
0.18
 45
0.0
 46
0.0
 47
0.0
 48
0.0
140
0.18
141
0.09
142
0.0
143
25.399999999999999
144
1.0
145
0.0
146
1.0
147
0.09
 71
     0
 72
     0
 73
     1
 74
     1
 75
     0
 76
     0
 77
     0
 78
     0
170
     0
171
     2
172
     0
173
     0
174
     0
175
     0
176
     0
177
     0
178
     0
  0
ENDTAB
  0
ENDSEC
  0
SECTION
  2
BLOCKS
  0
BLOCK
  8
0
  2
$MODEL_SPACE
 70
     0
 10
0.0
 20
0.0
 30
0.0
  3
$MODEL_SPACE
  1

  0
ENDBLK
  5
1A6
  8
0
  0
BLOCK
 67
     1
  8
0
  2
$PAPER_SPACE
 70
     0
 10
0.0
 20
0.0
 30
0.0
  3
$PAPER_SPACE
  1

  0
ENDBLK
  5
1A2
 67
     1
  8
0
  0
ENDSEC
  0
SECTION
  2
ENTITIES
  0
POLYLINE
  5
74
  8
HH_OUTLINES
 66
     1
 10
0.0
 20
0.0
 30
0.0
 70
     1
  0
VERTEX
  5
245
  8
HH_OUTLINES
 10
732711.88571428566
 20
4555210.481428571
 30
0.0
  0
VERTEX
  5
246
  8
HH_OUTLINES
 10
732721.83571428573
 20
4555244.0414285697
 30
0.0
  0
VERTEX
  5
247
  8
HH_OUTLINES
 10
732731.42428571405
 20
4555241.1985714287
 30
0.0
  0
VERTEX
  5
248
  8
HH_OUTLINES
 10
732721.47428571433
 20
4555207.6385714272
 30
0.0
  0
VERTEX
  5
249
  8
HH_OUTLINES
 10
732711.88571428566
 20
4555210.481428571
 30
0.0
  0
SEQEND
  5
24A
  8
HH_OUTLINES
  0
POLYLINE
  5
95
  8
HH_OUTLINES
 66
     1
 10
0.0
 20
0.0
 30
0.0
 70
     1
  0
VERTEX
  5
24B
  8
HH_OUTLINES
 10
732756.1939999999
 20
4555213.0920000002
 30
0.0
  0
VERTEX
  5
24C
  8
HH_OUTLINES
 10
732746.55000000005
 20
4555215.7400000002
 30
0.0
  0
VERTEX
  5
24D
  8
HH_OUTLINES
 10
732751.84600000025
 20
4555235.0279999999
 30
0.0
  0
VERTEX
  5
24E
  8
HH_OUTLINES
 10
732761.48999999999
 20
4555232.379999999
 30
0.0
  0
SEQEND
  5
24F
  8
HH_OUTLINES
  0
LINE
  5
AA
  8
HH_OUTLINES
 10
733605.89000000025
 20
4554937.54
 30
0.0
 11
733600.73565573769
 21
4554951.6272131139
 31
0.0
  0
LINE
  5
AB
  8
HH_OUTLINES
 10
733600.73565573769
 20
4554951.6272131139
 30
0.0
 11
733610.12713114754
 21
4554955.0634426242
 31
0.0
  0
LINE
  5
AC
  8
HH_OUTLINES
 10
733610.12713114754
 20
4554955.0634426242
 30
0.0
 11
733611.84524590184
 21
4554950.3677049167
 31
0.0
  0
LINE
  5
AD
  8
HH_OUTLINES
 10
733611.84524590184
 20
4554950.3677049167
 30
0.0
 11
733621.23672131135
 21
4554953.803934426
 31
0.0
  0
LINE
  5
AE
  8
HH_OUTLINES
 10
733621.23672131135
 20
4554953.803934426
 30
0.0
 11
733622.95483606542
 21
4554949.1081967214
 31
0.0
  0
LINE
  5
AF
  8
HH_OUTLINES
 10
733622.95483606542
 20
4554949.1081967214
 30
0.0
 11
733618.25909836043
 21
4554947.3900819672
 31
0.0
  0
LINE
  5
B0
  8
HH_OUTLINES
 10
733618.25909836043
 20
4554947.3900819672
 30
0.0
 11
733619.97721311485
 21
4554942.6943442607
 31
0.0
  0
LINE
  5
B1
  8
HH_OUTLINES
 10
733619.97721311485
 20
4554942.6943442607
 30
0.0
 11
733605.89000000025
 21
4554937.54
 31
0.0
  0
TEXT
  5
E9
  8
HH_NUMBERS
 10
732717.59785395663
 20
4555222.1898291046
 30
0.0
 40
4.0
  1
001
  0
TEXT
  5
EB
  8
HH_NUMBERS
 10
732749.80457903817
 20
4555222.5921834223
 30
0.0
 40
4.0
  1
002
  0
TEXT
  5
EC
  8
HH_NUMBERS
 10
733081.14514091914
 20
4555160.96396593
 30
0.0
 40
4.0
  1
003
  0
TEXT
  5
ED
  8
HH_NUMBERS
 10
733095.04773177556
 20
4555173.3861424159
 30
0.0
 40
4.0
  1
004
  0
TEXT
  5
EE
  8
HH_NUMBERS
 10
733111.28645900532
 20
4555173.4236772284
 30
0.0
 40
4.0
  1
005
  0
TEXT
  5
EF
  8
HH_NUMBERS
 10
733154.99926122441
 20
4555231.1484146612
 30
0.0
 40
4.0
  1
006
  0
TEXT
  5
F0
  8
HH_NUMBERS
 10
733196.40894807794
 20
4555234.1783615937
 30
0.0
 40
4.0
  1
008
  0
TEXT
  5
F1
  8
HH_NUMBERS
 10
733182.24181467143
 20
4555259.7152141239
 30
0.0
 40
4.0
  1
007
  0
TEXT
  5
F2
  8
HH_NUMBERS
 10
733254.08942511783
 20
4555155.7979226364
 30
0.0
 40
4.0
  1
009
  0
TEXT
  5
F3
  8
HH_NUMBERS
 10
733402.87746671285
 20
4555169.825628479
 30
0.0
 40
4.0
  1
010
  0
TEXT
  5
F4
  8
HH_NUMBERS
 10
733420.30339726934
 20
4555153.3331624018
 30
0.0
 40
4.0
  1
011
  0
TEXT
  5
F5
  8
HH_NUMBERS
 10
733447.52523377247
 20
4555105.3226347724
 30
0.0
 40
4.0
  1
013
  0
TEXT
  5
F6
  8
HH_NUMBERS
 10
733442.2141900541
 20
4555117.8293366833
 30
0.0
 40
4.0
  1
012
  0
TEXT
  5
F7
  8
HH_NUMBERS
 10
733595.3425631969
 20
4554976.1581293913
 30
0.0
 40
4.0
  1
016
  0
TEXT
  5
F8
  8
HH_NUMBERS
 10
733628.34567934729
 20
4554983.3715440799
 30
0.0
 40
4.0
  1
017
  0
TEXT
  5
F9
  8
HH_NUMBERS
 10
733624.94680927205
 20
4555005.9965550927
 30
0.0
 40
4.0
  1
015
  0
TEXT
  5
FA
  8
HH_NUMBERS
 10
733656.92079745606
 20
4554981.0746773193
 30
0.0
 40
4.0
  1
021
  0
TEXT
  5
FB
  8
HH_NUMBERS
 10
733633.82671178936
 20
4554969.3389794249
 30
0.0
 40
3.9999999999999991
  1
020
  0
TEXT
  5
FC
  8
HH_NUMBERS
 10
733635.57936835184
 20
4554954.0856224112
 30
0.0
 40
4.0
  1
022
  0
TEXT
  5
FD
  8
HH_NUMBERS
 10
733623.1013303306
 20
4554969.332167075
 30
0.0
 40
4.0
  1
019
  0
TEXT
  5
FE
  8
HH_NUMBERS
 10
733608.87595859542
 20
4554964.3473157287
 30
0.0
 40
4.0
  1
018
  0
TEXT
  5
FF
  8
HH_NUMBERS
 10
733605.68094681425
 20
4554943.7799575292
 30
0.0
 40
4.0
  1
023
  0
TEXT
  5
100
  8
HH_NUMBERS
 10
733466.23465001828
 20
4555112.7359342435
 30
0.0
 40
4.0
  1
014
  0
POLYLINE
  5
1D2
  8
HH_OUTLINES
 66
     1
 10
0.0
 20
0.0
 30
0.0
 70
     1
  0
VERTEX
  5
295
  8
HH_OUTLINES
 10
733086.26249999995
 20
4555169.8625000007
 30
0.0
  0
VERTEX
  5
296
  8
HH_OUTLINES
 10
733092.86750000005
 20
4555162.3550000004
 30
0.0
  0
VERTEX
  5
297
  8
HH_OUTLINES
 10
733089.11375000002
 20
4555159.0525000002
 30
0.0
  0
VERTEX
  5
298
  8
HH_OUTLINES
 10
733085.3600000001
 20
4555155.7499999991
 30
0.0
  0
VERTEX
  5
299
  8
HH_OUTLINES
 10
733078.75500000012
 20
4555163.2575000012
 30
0.0
  0
SEQEND
  5
29A
  8
HH_OUTLINES
  0
POLYLINE
  5
1D6
  8
HH_OUTLINES
 66
     1
 10
0.0
 20
0.0
 30
0.0
 70
     1
  0
VERTEX
  5
29B
  8
HH_OUTLINES
 10
733115.39000000013
 20
4555182.1699999999
 30
0.0
  0
VERTEX
  5
29C
  8
HH_OUTLINES
 10
733107.8825000003
 20
4555175.5650000004
 30
0.0
  0
VERTEX
  5
29D
  8
HH_OUTLINES
 10
733111.18499999994
 20
4555171.8112500003
 30
0.0
  0
VERTEX
  5
29E
  8
HH_OUTLINES
 10
733114.48749999981
 20
4555168.0575000001
 30
0.0
  0
VERTEX
  5
29F
  8
HH_OUTLINES
 10
733099.47250000003
 20
4555154.8475000001
 30
0.0
  0
VERTEX
  5
2A0
  8
HH_OUTLINES
 10
733096.17000000004
 20
4555158.6012500003
 30
0.0
  0
VERTEX
  5
2A1
  8
HH_OUTLINES
 10
733092.41625000001
 20
4555155.2987500001
 30
0.0
  0
VERTEX
  5
2A2
  8
HH_OUTLINES
 10
733089.11375000002
 20
4555159.0525000002
 30
0.0
  0
VERTEX
  5
2A3
  8
HH_OUTLINES
 10
733092.86750000005
 20
4555162.3550000004
 30
0.0
  0
VERTEX
  5
2A4
  8
HH_OUTLINES
 10
733086.26249999995
 20
4555169.8625000007
 30
0.0
  0
VERTEX
  5
2A5
  8
HH_OUTLINES
 10
733105.03125
 20
4555186.3749999991
 30
0.0
  0
VERTEX
  5
2A6
  8
HH_OUTLINES
 10
733108.33374999999
 20
4555182.6212499999
 30
0.0
  0
VERTEX
  5
2A7
  8
HH_OUTLINES
 10
733112.08750000002
 20
4555185.9237500001
 30
0.0
  0
SEQEND
  5
2A8
  8
HH_OUTLINES
  0
POLYLINE
  5
1E0
  8
HH_OUTLINES
 66
     1
 10
0.0
 20
0.0
 30
0.0
 70
     1
  0
VERTEX
  5
2A9
  8
HH_OUTLINES
 10
733115.39000000013
 20
4555182.1699999999
 30
0.0
  0
VERTEX
  5
2AA
  8
HH_OUTLINES
 10
733121.99500000023
 20
4555174.6624999987
 30
0.0
  0
VERTEX
  5
2AB
  8
HH_OUTLINES
 10
733118.24124999985
 20
4555171.3600000013
 30
0.0
  0
VERTEX
  5
2AC
  8
HH_OUTLINES
 10
733114.93874999986
 20
4555175.1137499986
 30
0.0
  0
VERTEX
  5
2AD
  8
HH_OUTLINES
 10
733111.18499999994
 20
4555171.8112500003
 30
0.0
  0
VERTEX
  5
2AE
  8
HH_OUTLINES
 10
733107.8825000003
 20
4555175.5650000004
 30
0.0
  0
SEQEND
  5
2AF
  8
HH_OUTLINES
  0
POLYLINE
  5
1E4
  8
HH_OUTLINES
 66
     1
 10
0.0
 20
0.0
 30
0.0
 70
     1
  0
VERTEX
  5
2B0
  8
HH_OUTLINES
 10
733156.29000000004
 20
4555243.0449999999
 30
0.0
  0
VERTEX
  5
2B1
  8
HH_OUTLINES
 10
733166.63000000012
 20
4555225.9249999998
 30
0.0
  0
VERTEX
  5
2B2
  8
HH_OUTLINES
 10
733162.34999999998
 20
4555223.3399999999
 30
0.0
  0
VERTEX
  5
2B3
  8
HH_OUTLINES
 10
733152.01000000001
 20
4555240.46
 30
0.0
  0
SEQEND
  5
2B4
  8
HH_OUTLINES
  0
POLYLINE
  5
1E7
  8
HH_OUTLINES
 66
     1
 10
0.0
 20
0.0
 30
0.0
 70
     1
  0
VERTEX
  5
2B5
  8
HH_OUTLINES
 10
733199.20999999985
 20
4555228.0999999987
 30
0.0
  0
VERTEX
  5
2B6
  8
HH_OUTLINES
 10
733207.89199999999
 20
4555233.0639999993
 30
0.0
  0
VERTEX
  5
2B7
  8
HH_OUTLINES
 10
733202.92799999996
 20
4555241.7460000003
 30
0.0
  0
VERTEX
  5
2B8
  8
HH_OUTLINES
 10
733198.58700000006
 20
4555239.2639999986
 30
0.0
  0
VERTEX
  5
2B9
  8
HH_OUTLINES
 10
733193.62300000025
 20
4555247.9459999986
 30
0.0
  0
VERTEX
  5
2BA
  8
HH_OUTLINES
 10
733189.28200000001
 20
4555245.4639999988
 30
0.0
  0
SEQEND
  5
2BB
  8
HH_OUTLINES
  0
POLYLINE
  5
1EC
  8
HH_OUTLINES
 66
     1
 10
0.0
 20
0.0
 30
0.0
 70
     1
  0
VERTEX
  5
2BC
  8
HH_OUTLINES
 10
733188.65899999999
 20
4555256.6279999986
 30
0.0
  0
VERTEX
  5
2BD
  8
HH_OUTLINES
 10
733193.00000000012
 20
4555259.1100000003
 30
0.0
  0
VERTEX
  5
2BE
  8
HH_OUTLINES
 10
733188.03599999985
 20
4555267.7920000013
 30
0.0
  0
VERTEX
  5
2BF
  8
HH_OUTLINES
 10
733183.6950000003
 20
4555265.3099999996
 30
0.0
  0
VERTEX
  5
2C0
  8
HH_OUTLINES
 10
733178.73100000003
 20
4555273.9919999996
 30
0.0
  0
VERTEX
  5
2C1
  8
HH_OUTLINES
 10
733174.39000000025
 20
4555271.5099999988
 30
0.0
  0
VERTEX
  5
2C2
  8
HH_OUTLINES
 10
733189.28200000001
 20
4555245.4639999988
 30
0.0
  0
VERTEX
  5
2C3
  8
HH_OUTLINES
 10
733193.62300000025
 20
4555247.9459999986
 30
0.0
  0
SEQEND
  5
2C4
  8
HH_OUTLINES
  0
POLYLINE
  5
1F2
  8
HH_OUTLINES
 66
     1
 10
0.0
 20
0.0
 30
0.0
 70
     1
  0
VERTEX
  5
2C5
  8
HH_OUTLINES
 10
733248.17000000004
 20
4555161.2800000003
 30
0.0
  0
VERTEX
  5
2C6
  8
HH_OUTLINES
 10
733263.96999999986
 20
4555141.9100000001
 30
0.0
  0
VERTEX
  5
2C7
  8
HH_OUTLINES
 10
733271.71799999999
 20
4555148.2300000032
 30
0.0
  0
VERTEX
  5
2C8
  8
HH_OUTLINES
 10
733255.91799999995
 20
4555167.5999999987
 30
0.0
  0
SEQEND
  5
2C9
  8
HH_OUTLINES
  0
POLYLINE
  5
1F5
  8
HH_OUTLINES
 66
     1
 10
0.0
 20
0.0
 30
0.0
 70
     1
  0
VERTEX
  5
2CA
  8
HH_OUTLINES
 10
733406.92000000004
 20
4555176.4124999987
 30
0.0
  0
VERTEX
  5
2CB
  8
HH_OUTLINES
 10
733414.87499999965
 20
4555182.4724999992
 30
0.0
  0
VERTEX
  5
2CC
  8
HH_OUTLINES
 10
733420.93499999994
 20
4555174.5174999991
 30
0.0
  0
VERTEX
  5
2CD
  8
HH_OUTLINES
 10
733401.04750000034
 20
4555159.3674999988
 30
0.0
  0
VERTEX
  5
2CE
  8
HH_OUTLINES
 10
733394.98750000028
 20
4555167.3224999998
 30
0.0
  0
VERTEX
  5
2CF
  8
HH_OUTLINES
 10
733398.96499999985
 20
4555170.3524999991
 30
0.0
  0
VERTEX
  5
2D0
  8
HH_OUTLINES
 10
733395.93500000017
 20
4555174.3299999982
 30
0.0
  0
VERTEX
  5
2D1
  8
HH_OUTLINES
 10
733403.89000000001
 20
4555180.3899999997
 30
0.0
  0
SEQEND
  5
2D2
  8
HH_OUTLINES
  0
POLYLINE
  5
1FC
  8
HH_OUTLINES
 66
     1
 10
0.0
 20
0.0
 30
0.0
 70
     1
  0
VERTEX
  5
2D3
  8
HH_OUTLINES
 10
733423.01749999996
 20
4555163.5324999988
 30
0.0
  0
VERTEX
  5
2D4
  8
HH_OUTLINES
 10
733432.10750000004
 20
4555151.5999999996
 30
0.0
  0
VERTEX
  5
2D5
  8
HH_OUTLINES
 10
733424.15250000032
 20
4555145.54
 30
0.0
  0
VERTEX
  5
2D6
  8
HH_OUTLINES
 10
733415.06250000012
 20
4555157.4725000001
 30
0.0
  0
SEQEND
  5
2D7
  8
HH_OUTLINES
  0
POLYLINE
  5
1FF
  8
HH_OUTLINES
 66
     1
 10
0.0
 20
0.0
 30
0.0
 70
     1
  0
VERTEX
  5
2D8
  8
HH_OUTLINES
 10
733462.80333333311
 20
4555117.0016666651
 30
0.0
  0
VERTEX
  5
2D9
  8
HH_OUTLINES
 10
733472.03333333344
 20
4555120.8550000023
 30
0.0
  0
VERTEX
  5
2DA
  8
HH_OUTLINES
 10
733475.88666666683
 20
4555111.625
 30
0.0
  0
VERTEX
  5
2DB
  8
HH_OUTLINES
 10
733466.65666666685
 20
4555107.7716666674
 30
0.0
  0
SEQEND
  5
2DC
  8
HH_OUTLINES
  0
POLYLINE
  5
202
  8
HH_OUTLINES
 66
     1
 10
0.0
 20
0.0
 30
0.0
 70
     1
  0
VERTEX
  5
2DD
  8
HH_OUTLINES
 10
733453.57333333313
 20
4555113.1483333316
 30
0.0
  0
VERTEX
  5
2DE
  8
HH_OUTLINES
 10
733448.95833333314
 20
4555111.2216666657
 30
0.0
  0
VERTEX
  5
2DF
  8
HH_OUTLINES
 10
733447.03166666662
 20
4555115.836666666
 30
0.0
  0
VERTEX
  5
2E0
  8
HH_OUTLINES
 10
733442.41666666663
 20
4555113.9099999992
 30
0.0
  0
VERTEX
  5
2E1
  8
HH_OUTLINES
 10
733448.19666666677
 20
4555100.0649999985
 30
0.0
  0
VERTEX
  5
2E2
  8
HH_OUTLINES
 10
733457.42666666675
 20
4555103.9183333321
 30
0.0
  0
SEQEND
  5
2E3
  8
HH_OUTLINES
  0
POLYLINE
  5
207
  8
HH_OUTLINES
 66
     1
 10
0.0
 20
0.0
 30
0.0
 70
     1
  0
VERTEX
  5
2E4
  8
HH_OUTLINES
 10
733440.48999999987
 20
4555118.5250000004
 30
0.0
  0
VERTEX
  5
2E5
  8
HH_OUTLINES
 10
733435.87499999965
 20
4555116.5983333327
 30
0.0
  0
VERTEX
  5
2E6
  8
HH_OUTLINES
 10
733433.94833333301
 20
4555121.213333332
 30
0.0
  0
VERTEX
  5
2E7
  8
HH_OUTLINES
 10
733443.17833333323
 20
4555125.0666666664
 30
0.0
  0
VERTEX
  5
2E8
  8
HH_OUTLINES
 10
733445.10499999975
 20
4555120.4516666653
 30
0.0
  0
VERTEX
  5
2E9
  8
HH_OUTLINES
 10
733454.33499999973
 20
4555124.3049999988
 30
0.0
  0
VERTEX
  5
2EA
  8
HH_OUTLINES
 10
733456.2616666666
 20
4555119.6899999985
 30
0.0
  0
VERTEX
  5
2EB
  8
HH_OUTLINES
 10
733451.64666666661
 20
4555117.7633333318
 30
0.0
  0
VERTEX
  5
2EC
  8
HH_OUTLINES
 10
733453.57333333313
 20
4555113.1483333316
 30
0.0
  0
VERTEX
  5
2ED
  8
HH_OUTLINES
 10
733448.95833333314
 20
4555111.2216666657
 30
0.0
  0
VERTEX
  5
2EE
  8
HH_OUTLINES
 10
733447.03166666662
 20
4555115.836666666
 30
0.0
  0
VERTEX
  5
2EF
  8
HH_OUTLINES
 10
733442.41666666663
 20
4555113.9099999992
 30
0.0
  0
SEQEND
  5
2F0
  8
HH_OUTLINES
  0
POLYLINE
  5
212
  8
HH_OUTLINES
 66
     1
 10
0.0
 20
0.0
 30
0.0
 70
     1
  0
VERTEX
  5
2F1
  8
HH_OUTLINES
 10
733622.83852459025
 20
4555007.6337704919
 30
0.0
  0
VERTEX
  5
2F2
  8
HH_OUTLINES
 10
733632.22999999998
 20
4555011.0700000003
 30
0.0
  0
VERTEX
  5
2F3
  8
HH_OUTLINES
 10
733633.94811475405
 20
4555006.3742622966
 30
0.0
  0
VERTEX
  5
2F4
  8
HH_OUTLINES
 10
733624.55663934443
 20
4555002.9380327873
 30
0.0
  0
SEQEND
  5
2F5
  8
HH_OUTLINES
  0
POLYLINE
  5
213
  8
HH_OUTLINES
 66
     1
 10
0.0
 20
0.0
 30
0.0
 70
     1
  0
VERTEX
  5
2F6
  8
HH_OUTLINES
 10
733613.9056557375
 20
4554988.3922131145
 30
0.0
  0
VERTEX
  5
2F7
  8
HH_OUTLINES
 10
733599.81844262267
 20
4554983.237868852
 30
0.0
  0
VERTEX
  5
2F8
  8
HH_OUTLINES
 10
733596.38221311453
 20
4554992.6293442622
 30
0.0
  0
VERTEX
  5
2F9
  8
HH_OUTLINES
 10
733591.68647540943
 20
4554990.9112295071
 30
0.0
  0
VERTEX
  5
2FA
  8
HH_OUTLINES
 10
733593.40459016385
 20
4554986.2154918034
 30
0.0
  0
VERTEX
  5
2FB
  8
HH_OUTLINES
 10
733588.70885245886
 20
4554984.4973770492
 30
0.0
  0
VERTEX
  5
2FC
  8
HH_OUTLINES
 10
733590.42696721305
 20
4554979.8016393427
 30
0.0
  0
VERTEX
  5
2FD
  8
HH_OUTLINES
 10
733585.73122950818
 20
4554978.0835245904
 30
0.0
  0
VERTEX
  5
2FE
  8
HH_OUTLINES
 10
733589.1674590162
 20
4554968.6920491802
 30
0.0
  0
VERTEX
  5
2FF
  8
HH_OUTLINES
 10
733598.55893442605
 20
4554972.1282786876
 30
0.0
  0
VERTEX
  5
300
  8
HH_OUTLINES
 10
733600.27704918012
 20
4554967.432540983
 30
0.0
  0
VERTEX
  5
301
  8
HH_OUTLINES
 10
733595.58131147525
 20
4554965.7144262297
 30
0.0
  0
VERTEX
  5
302
  8
HH_OUTLINES
 10
733597.29942622932
 20
4554961.0186885241
 30
0.0
  0
VERTEX
  5
303
  8
HH_OUTLINES
 10
733601.99516393419
 20
4554962.7368032793
 30
0.0
  0
VERTEX
  5
304
  8
HH_OUTLINES
 10
733603.71327868826
 20
4554958.0410655737
 30
0.0
  0
VERTEX
  5
305
  8
HH_OUTLINES
 10
733608.40901639324
 20
4554959.7591803269
 30
0.0
  0
VERTEX
  5
306
  8
HH_OUTLINES
 10
733604.9727868851
 20
4554969.1506557371
 30
0.0
  0
VERTEX
  5
307
  8
HH_OUTLINES
 10
733609.66852459032
 20
4554970.8687704923
 30
0.0
  0
VERTEX
  5
308
  8
HH_OUTLINES
 10
733608.79287992604
 20
4554973.2619736558
 30
0.0
  0
VERTEX
  5
309
  8
HH_OUTLINES
 10
733618.13814822445
 20
4554976.8349496676
 30
0.0
  0
SEQEND
  5
30A
  8
HH_OUTLINES
  0
POLYLINE
  5
214
  8
HH_OUTLINES
 66
     1
 10
0.0
 20
0.0
 30
0.0
 70
     1
  0
VERTEX
  5
30B
  8
HH_OUTLINES
 10
733619.05999999994
 20
4554974.3049999997
 30
0.0
  0
VERTEX
  5
30C
  8
HH_OUTLINES
 10
733642.53868852474
 20
4554982.8955737697
 30
0.0
  0
VERTEX
  5
30D
  8
HH_OUTLINES
 10
733637.38434426242
 20
4554996.9827868855
 30
0.0
  0
VERTEX
  5
30E
  8
HH_OUTLINES
 10
733613.9056557375
 20
4554988.3922131145
 30
0.0
  0
SEQEND
  5
30F
  8
HH_OUTLINES
  0
POLYLINE
  5
217
  8
HH_OUTLINES
 66
     1
 10
0.0
 20
0.0
 30
0.0
 70
     1
  0
VERTEX
  5
310
  8
HH_OUTLINES
 10
733618.13814822445
 20
4554976.8349496676
 30
0.0
  0
VERTEX
  5
311
  8
HH_OUTLINES
 10
733608.79287992604
 20
4554973.2619736558
 30
0.0
  0
VERTEX
  5
312
  8
HH_OUTLINES
 10
733609.66852459032
 20
4554970.8687704923
 30
0.0
  0
VERTEX
  5
313
  8
HH_OUTLINES
 10
733604.9727868851
 20
4554969.1506557371
 30
0.0
  0
VERTEX
  5
314
  8
HH_OUTLINES
 10
733608.40901639313
 20
4554959.7591803269
 30
0.0
  0
VERTEX
  5
315
  8
HH_OUTLINES
 10
733622.49622950843
 20
4554964.9135245923
 30
0.0
  0
SEQEND
  5
316
  8
HH_OUTLINES
  0
POLYLINE
  5
21D
  8
HH_OUTLINES
 66
     1
 10
0.0
 20
0.0
 30
0.0
 70
     1
  0
VERTEX
  5
317
  8
HH_OUTLINES
 10
733632.73700055142
 20
4554966.0427036146
 30
0.0
  0
VERTEX
  5
318
  8
HH_OUTLINES
 10
733630.16959016374
 20
4554973.0454918034
 30
0.0
  0
VERTEX
  5
319
  8
HH_OUTLINES
 10
733634.86532786884
 20
4554974.7636065576
 30
0.0
  0
VERTEX
  5
31A
  8
HH_OUTLINES
 10
733633.14721311512
 20
4554979.4593442623
 30
0.0
  0
VERTEX
  5
31B
  8
HH_OUTLINES
 10
733619.06285545835
 20
4554974.3060447779
 30
0.0
  0
VERTEX
  5
31C
  8
HH_OUTLINES
 10
733623.34594105731
 20
4554962.5911985934
 30
0.0
  0
SEQEND
  5
31D
  8
HH_OUTLINES
  0
POLYLINE
  5
222
  8
HH_OUTLINES
 66
     1
 10
0.0
 20
0.0
 30
0.0
 70
     1
  0
VERTEX
  5
31E
  8
HH_OUTLINES
 10
733646.81218977855
 20
4554971.2157712877
 30
0.0
  0
VERTEX
  5
31F
  8
HH_OUTLINES
 10
733632.73700055142
 20
4554966.0427036146
 30
0.0
  0
VERTEX
  5
320
  8
HH_OUTLINES
 10
733630.16959016374
 20
4554973.0454918034
 30
0.0
  0
VERTEX
  5
321
  8
HH_OUTLINES
 10
733634.86532786884
 20
4554974.7636065576
 30
0.0
  0
VERTEX
  5
322
  8
HH_OUTLINES
 10
733633.14721311512
 20
4554979.4593442623
 30
0.0
  0
VERTEX
  5
323
  8
HH_OUTLINES
 10
733642.53868852474
 20
4554982.8955737697
 30
0.0
  0
SEQEND
  5
324
  8
HH_OUTLINES
  0
POLYLINE
  5
226
  8
HH_OUTLINES
 66
     1
 10
0.0
 20
0.0
 30
0.0
 70
     1
  0
VERTEX
  5
325
  8
HH_OUTLINES
 10
733661.32163934445
 20
4554989.7680327874
 30
0.0
  0
VERTEX
  5
326
  8
HH_OUTLINES
 10
733664.75786885235
 20
4554980.3765573772
 30
0.0
  0
VERTEX
  5
327
  8
HH_OUTLINES
 10
733655.36639344273
 20
4554976.9403278669
 30
0.0
  0
VERTEX
  5
328
  8
HH_OUTLINES
 10
733651.93016393424
 20
4554986.331803279
 30
0.0
  0
SEQEND
  5
329
  8
HH_OUTLINES
  0
POLYLINE
  5
227
  8
HH_OUTLINES
 66
     1
 10
0.0
 20
0.0
 30
0.0
 70
     1
  0
VERTEX
  5
32A
  8
HH_OUTLINES
 10
733646.81218977855
 20
4554971.2157712877
 30
0.0
  0
VERTEX
  5
32B
  8
HH_OUTLINES
 10
733623.34594105731
 20
4554962.5911985934
 30
0.0
  0
VERTEX
  5
32C
  8
HH_OUTLINES
 10
733629.36868852447
 20
4554946.130573771
 30
0.0
  0
VERTEX
  5
32D
  8
HH_OUTLINES
 10
733662.23885245936
 20
4554958.1573770503
 30
0.0
  0
VERTEX
  5
32E
  8
HH_OUTLINES
 10
733660.52073770505
 20
4554962.853114753
 30
0.0
  0
VERTEX
  5
32F
  8
HH_OUTLINES
 10
733655.8250000003
 20
4554961.1349999998
 30
0.0
  0
VERTEX
  5
330
  8
HH_OUTLINES
 10
733654.10688524612
 20
4554965.8307377063
 30
0.0
  0
VERTEX
  5
331
  8
HH_OUTLINES
 10
733649.4111475409
 20
4554964.1126229502
 30
0.0
  0
SEQEND
  5
332
  8
HH_OUTLINES
  0
ENDSEC
  0
EOF
