  0
SECTION
  2
HEADER
  9
$ACADVER
  1
AC1009
  9
$INSBASE
 10
0.0
 20
0.0
 30
0.0
  9
$EXTMIN
 10
734113.02159999998
 20
4555851.0600000015
 30
0.0
  9
$EXTMAX
 10
734334.01162162202
 20
4556149.5999999978
 30
0.0
  9
$LIMMIN
 10
0.0
 20
0.0
  9
$LIMMAX
 10
12.0
 20
9.0
  9
$ORTHOMODE
 70
     0
  9
$REGENMODE
 70
     1
  9
$FILLMODE
 70
     1
  9
$QTEXTMODE
 70
     0
  9
$MIRRTEXT
 70
     1
  9
$DRAGMODE
 70
     2
  9
$LTSCALE
 40
1.0
  9
$OSMODE
 70
   623
  9
$ATTMODE
 70
     1
  9
$TEXTSIZE
 40
5.0
  9
$TRACEWID
 40
0.05
  9
$TEXTSTYLE
  7
STANDARD
  9
$CLAYER
  8
HH_OUTLINES
  9
$CELTYPE
  6
BYLAYER
  9
$CECOLOR
 62
   256
  9
$DIMSCALE
 40
1.0
  9
$DIMASZ
 40
0.18
  9
$DIMEXO
 40
0.0625
  9
$DIMDLI
 40
0.38
  9
$DIMRND
 40
0.0
  9
$DIMDLE
 40
0.0
  9
$DIMEXE
 40
0.18
  9
$DIMTP
 40
0.0
  9
$DIMTM
 40
0.0
  9
$DIMTXT
 40
0.18
  9
$DIMCEN
 40
0.09
  9
$DIMTSZ
 40
0.0
  9
$DIMTOL
 70
     0
  9
$DIMLIM
 70
     0
  9
$DIMTIH
 70
     1
  9
$DIMTOH
 70
     1
  9
$DIMSE1
 70
     0
  9
$DIMSE2
 70
     0
  9
$DIMTAD
 70
     0
  9
$DIMZIN
 70
     0
  9
$DIMBLK
  1

  9
$DIMASO
 70
     1
  9
$DIMSHO
 70
     1
  9
$DIMPOST
  1

  9
$DIMAPOST
  1

  9
$DIMALT
 70
     0
  9
$DIMALTD
 70
     2
  9
$DIMALTF
 40
25.399999999999999
  9
$DIMLFAC
 40
1.0
  9
$DIMTOFL
 70
     0
  9
$DIMTVP
 40
0.0
  9
$DIMTIX
 70
     0
  9
$DIMSOXD
 70
     0
  9
$DIMSAH
 70
     0
  9
$DIMBLK1
  1

  9
$DIMBLK2
  1

  9
$DIMSTYLE
  2
STANDARD
  9
$DIMCLRD
 70
     0
  9
$DIMCLRE
 70
     0
  9
$DIMCLRT
 70
     0
  9
$DIMTFAC
 40
1.0
  9
$DIMGAP
 40
0.09
  9
$LUNITS
 70
     2
  9
$LUPREC
 70
     4
  9
$SKETCHINC
 40
0.1
  9
$FILLETRAD
 40
0.5
  9
$AUNITS
 70
     0
  9
$AUPREC
 70
     0
  9
$MENU
  1
.
  9
$ELEVATION
 40
0.0
  9
$PELEVATION
 40
0.0
  9
$THICKNESS
 40
0.0
  9
$LIMCHECK
 70
     0
  9
$BLIPMODE
 70
     0
  9
$CHAMFERA
 40
0.5
  9
$CHAMFERB
 40
0.5
  9
$SKPOLY
 70
     0
  9
$TDCREATE
 40
2454974.1445596418
  9
$TDUPDATE
 40
2457576.7184088659
  9
$TDINDWG
 40
6.4739701619999996
  9
$TDUSRTIMER
 40
6.4739699653000002
  9
$USRTIMER
 70
     1
  9
$ANGBASE
 50
0.0
  9
$ANGDIR
 70
     1
  9
$PDMODE
 70
     2
  9
$PDSIZE
 40
1.0
  9
$PLINEWID
 40
0.0
  9
$COORDS
 70
     1
  9
$SPLFRAME
 70
     0
  9
$SPLINETYPE
 70
     6
  9
$SPLINESEGS
 70
     8
  9
$ATTDIA
 70
     1
  9
$ATTREQ
 70
     1
  9
$HANDLING
 70
     1
  9
$HANDSEED
  5
3AB
  9
$SURFTAB1
 70
     6
  9
$SURFTAB2
 70
     6
  9
$SURFTYPE
 70
     6
  9
$SURFU
 70
     6
  9
$SURFV
 70
     6
  9
$UCSNAME
  2

  9
$UCSORG
 10
0.0
 20
0.0
 30
0.0
  9
$UCSXDIR
 10
1.0
 20
0.0
 30
0.0
  9
$UCSYDIR
 10
0.0
 20
1.0
 30
0.0
  9
$PUCSNAME
  2

  9
$PUCSORG
 10
0.0
 20
0.0
 30
0.0
  9
$PUCSXDIR
 10
1.0
 20
0.0
 30
0.0
  9
$PUCSYDIR
 10
0.0
 20
1.0
 30
0.0
  9
$USERI1
 70
     0
  9
$USERI2
 70
     0
  9
$USERI3
 70
     0
  9
$USERI4
 70
     0
  9
$USERI5
 70
     0
  9
$USERR1
 40
0.0
  9
$USERR2
 40
0.0
  9
$USERR3
 40
0.0
  9
$USERR4
 40
0.0
  9
$USERR5
 40
0.0
  9
$WORLDVIEW
 70
     1
  9
$SHADEDGE
 70
     3
  9
$SHADEDIF
 70
    70
  9
$TILEMODE
 70
     1
  9
$MAXACTVP
 70
    64
  9
$PLIMCHECK
 70
     0
  9
$PEXTMIN
 10
0.0
 20
0.0
 30
0.0
  9
$PEXTMAX
 10
0.0
 20
0.0
 30
0.0
  9
$PLIMMIN
 10
0.0
 20
0.0
  9
$PLIMMAX
 10
12.0
 20
9.0
  9
$UNITMODE
 70
     0
  9
$VISRETAIN
 70
     1
  9
$PLINEGEN
 70
     0
  9
$PSLTSCALE
 70
     1
  0
ENDSEC
  0
SECTION
  2
TABLES
  0
TABLE
  2
VPORT
 70
     1
  0
VPORT
  2
*ACTIVE
 70
     0
 10
0.0
 20
0.0
 11
1.0
 21
1.0
 12
734223.516610811
 22
4556000.3300000001
 13
0.0
 23
0.0
 14
1.0
 24
1.0
 15
0.5
 25
0.5
 16
0.0
 26
0.0
 36
1.0
 17
0.0
 27
0.0
 37
0.0
 40
300.64239436294889
 41
1.301997649823736
 42
50.0
 43
0.0
 44
0.0
 50
0.0
 51
0.0
 71
     0
 72
   100
 73
     1
 74
     2
 75
     0
 76
     0
 77
     0
 78
     2
  0
ENDTAB
  0
TABLE
  2
LTYPE
 70
     2
  0
LTYPE
  2
CONTINUOUS
 70
     0
  3
Solid line
 72
    65
 73
     0
 40
0.0
  0
ENDTAB
  0
TABLE
  2
LAYER
 70
     4
  0
LAYER
  2
0
 70
     0
 62
    -7
  6
CONTINUOUS
  0
LAYER
  2
HH_OUTLINES
 70
     0
 62
     1
  6
CONTINUOUS
  0
LAYER
  2
HH_NUMBERS
 70
     0
 62
     7
  6
CONTINUOUS
  0
ENDTAB
  0
TABLE
  2
STYLE
 70
     3
  0
STYLE
  2
STANDARD
 70
     0
 40
0.0
 41
1.0
 50
0.0
 71
     0
 42
5.0
  3
txt
  4

  0
STYLE
  2
ANNOTATIVE
 70
     0
 40
0.0
 41
1.0
 50
0.0
 71
     0
 42
0.2
  3
txt
  4

  0
STYLE
  2
LEGEND
 70
     0
 40
0.0
 41
1.0
 50
0.0
 71
     0
 42
5.0
  3
txt
  4

  0
ENDTAB
  0
TABLE
  2
VIEW
 70
     0
  0
ENDTAB
  0
TABLE
  2
UCS
 70
     0
  0
ENDTAB
  0
TABLE
  2
APPID
 70
    13
  0
APPID
  2
ACAD
 70
     0
  0
APPID
  2
ACADANNOTATIVE
 70
     0
  0
APPID
  2
ADE
 70
     0
  0
APPID
  2
ACAD_NAV_VCDISPLAY
 70
     0
  0
APPID
  2
ADE_PROJECTION
 70
     0
  0
APPID
  2
ACMAPDMDISPLAYSTYLEREGAPP
 70
     0
  0
APPID
  2
ACAD_EXEMPT_FROM_CAD_STANDARDS
 70
     0
  0
APPID
  2
ACAECLAYERSTANDARD
 70
     0
  0
APPID
  2
ACCMTRANSPARENCY
 70
     0
  0
APPID
  2
DCO15
 70
     0
  0
APPID
  2
MAPGWS
 70
     0
  0
APPID
  2
ACAD_MLEADERVER
 70
     0
  0
APPID
  2
MapManagementAppName
 70
     0
  0
ENDTAB
  0
TABLE
  2
DIMSTYLE
 70
     3
  0
DIMSTYLE
  2
STANDARD
 70
     0
  3

  4

  5

  6

  7

 40
1.0
 41
0.18
 42
0.0625
 43
0.38
 44
0.18
 45
0.0
 46
0.0
 47
0.0
 48
0.0
140
0.18
141
0.09
142
0.0
143
25.399999999999999
144
1.0
145
0.0
146
1.0
147
0.09
 71
     0
 72
     0
 73
     1
 74
     1
 75
     0
 76
     0
 77
     0
 78
     0
170
     0
171
     2
172
     0
173
     0
174
     0
175
     0
176
     0
177
     0
178
     0
  0
DIMSTYLE
  2
ANNOTATIVE
 70
     0
  3

  4

  5

  6

  7

 40
1.0
 41
0.18
 42
0.0625
 43
0.38
 44
0.18
 45
0.0
 46
0.0
 47
0.0
 48
0.0
140
0.18
141
0.09
142
0.0
143
25.399999999999999
144
1.0
145
0.0
146
1.0
147
0.09
 71
     0
 72
     0
 73
     1
 74
     1
 75
     0
 76
     0
 77
     0
 78
     0
170
     0
171
     2
172
     0
173
     0
174
     0
175
     0
176
     0
177
     0
178
     0
  0
ENDTAB
  0
ENDSEC
  0
SECTION
  2
BLOCKS
  0
BLOCK
  8
0
  2
$MODEL_SPACE
 70
     0
 10
0.0
 20
0.0
 30
0.0
  3
$MODEL_SPACE
  1

  0
ENDBLK
  5
1DE
  8
0
  0
BLOCK
 67
     1
  8
0
  2
$PAPER_SPACE
 70
     0
 10
0.0
 20
0.0
 30
0.0
  3
$PAPER_SPACE
  1

  0
ENDBLK
  5
1DA
 67
     1
  8
0
  0
BLOCK
  8
0
  2
MAP_CLEAN_OMARK
 70
     0
 10
0.0
 20
0.0
 30
0.0
  3
MAP_CLEAN_OMARK
  1
MAP_CLEAN_OMARK
  0
POLYLINE
  5
246
  8
HH_OUTLINES
 62
     0
 66
     1
 10
0.0
 20
0.0
 30
0.0
 70
     1
  0
VERTEX
  5
247
  8
HH_OUTLINES
 10
1.0
 20
0.0
 30
0.0
  0
VERTEX
  5
248
  8
HH_OUTLINES
 10
0.7071067811865001
 20
0.7071067811865001
 30
0.0
  0
VERTEX
  5
249
  8
HH_OUTLINES
 10
0.0
 20
1.0
 30
0.0
  0
VERTEX
  5
24A
  8
HH_OUTLINES
 10
-0.7071067811865001
 20
0.7071067811865001
 30
0.0
  0
VERTEX
  5
24B
  8
HH_OUTLINES
 10
-1.0
 20
0.0
 30
0.0
  0
VERTEX
  5
24C
  8
HH_OUTLINES
 10
-0.7071067811865001
 20
-0.7071067811865001
 30
0.0
  0
VERTEX
  5
24D
  8
HH_OUTLINES
 10
0.0
 20
-1.0
 30
0.0
  0
VERTEX
  5
24E
  8
HH_OUTLINES
 10
0.7071067811865001
 20
-0.7071067811865001
 30
0.0
  0
SEQEND
  5
24F
  8
HH_OUTLINES
  0
ENDBLK
  5
250
  8
0
  0
BLOCK
  8
0
  2
MAP_CLEAN_TMARK
 70
     0
 10
0.0
 20
0.0
 30
0.0
  3
MAP_CLEAN_TMARK
  1
MAP_CLEAN_TMARK
  0
POLYLINE
  5
25D
  8
HH_OUTLINES
 62
     0
 66
     1
 10
0.0
 20
0.0
 30
0.0
 70
     1
  0
VERTEX
  5
25E
  8
HH_OUTLINES
 10
-0.5
 20
-0.3333333333333333
 30
0.0
  0
VERTEX
  5
25F
  8
HH_OUTLINES
 10
0.5
 20
-0.3333333333333333
 30
0.0
  0
VERTEX
  5
260
  8
HH_OUTLINES
 10
0.0
 20
0.6666666666666666
 30
0.0
  0
SEQEND
  5
261
  8
HH_OUTLINES
  0
ENDBLK
  5
262
  8
0
  0
ENDSEC
  0
SECTION
  2
ENTITIES
  0
POLYLINE
  5
72
  8
HH_OUTLINES
 66
     1
 10
0.0
 20
0.0
 30
0.0
 70
     1
  0
VERTEX
  5
2A4
  8
HH_OUTLINES
 10
734135.83999999985
 20
4555851.0600000015
 30
0.0
  0
VERTEX
  5
2A5
  8
HH_OUTLINES
 10
734127.54240000015
 20
4555869.2568000006
 30
0.0
  0
VERTEX
  5
2A6
  8
HH_OUTLINES
 10
734122.99319999991
 20
4555867.1824000003
 30
0.0
  0
VERTEX
  5
2A7
  8
HH_OUTLINES
 10
734116.76999999979
 20
4555880.8300000001
 30
0.0
  0
VERTEX
  5
2A8
  8
HH_OUTLINES
 10
734121.31920000014
 20
4555882.9044000003
 30
0.0
  0
VERTEX
  5
2A9
  8
HH_OUTLINES
 10
734113.02159999998
 20
4555901.1012000004
 30
0.0
  0
VERTEX
  5
2AA
  8
HH_OUTLINES
 10
734122.11999999988
 20
4555905.2500000009
 30
0.0
  0
VERTEX
  5
2AB
  8
HH_OUTLINES
 10
734130.41760000004
 20
4555887.0532
 30
0.0
  0
VERTEX
  5
2AC
  8
HH_OUTLINES
 10
734134.96680000005
 20
4555889.1276000002
 30
0.0
  0
VERTEX
  5
2AD
  8
HH_OUTLINES
 10
734139.11560000025
 20
4555880.0291999988
 30
0.0
  0
VERTEX
  5
2AE
  8
HH_OUTLINES
 10
734134.56640000024
 20
4555877.9548000004
 30
0.0
  0
VERTEX
  5
2AF
  8
HH_OUTLINES
 10
734144.93840000022
 20
4555855.2088000001
 30
0.0
  0
VERTEX
  5
2B0
  8
HH_OUTLINES
 10
734135.83999999985
 20
4555851.0600000015
 30
0.0
  0
SEQEND
  5
2B1
  8
HH_OUTLINES
  0
POLYLINE
  5
79
  8
HH_OUTLINES
 66
     1
 10
0.0
 20
0.0
 30
0.0
 70
     1
  0
VERTEX
  5
2B2
  8
HH_OUTLINES
 10
734206.02999999991
 20
4555886.6200000001
 30
0.0
  0
VERTEX
  5
2B3
  8
HH_OUTLINES
 10
734209.48499999964
 20
4555890.2350000003
 30
0.0
  0
VERTEX
  5
2B4
  8
HH_OUTLINES
 10
734198.64000000001
 20
4555900.5999999996
 30
0.0
  0
VERTEX
  5
2B5
  8
HH_OUTLINES
 10
734191.73000000033
 20
4555893.3700000001
 30
0.0
  0
VERTEX
  5
2B6
  8
HH_OUTLINES
 10
734198.95999999985
 20
4555886.46
 30
0.0
  0
VERTEX
  5
2B7
  8
HH_OUTLINES
 10
734202.41499999992
 20
4555890.0750000002
 30
0.0
  0
SEQEND
  5
2B8
  8
HH_OUTLINES
  0
POLYLINE
  5
7A
  8
HH_OUTLINES
 66
     1
 10
0.0
 20
0.0
 30
0.0
 70
     1
  0
VERTEX
  5
2B9
  8
HH_OUTLINES
 10
734201.55000000005
 20
4555857.4000000004
 30
0.0
  0
VERTEX
  5
2BA
  8
HH_OUTLINES
 10
734210.28999999992
 20
4555862.2599999998
 30
0.0
  0
VERTEX
  5
2BB
  8
HH_OUTLINES
 10
734203.0
 20
4555875.3700000001
 30
0.0
  0
VERTEX
  5
2BC
  8
HH_OUTLINES
 10
734198.63000000024
 20
4555872.9400000004
 30
0.0
  0
VERTEX
  5
2BD
  8
HH_OUTLINES
 10
734201.06000000029
 20
4555868.5700000003
 30
0.0
  0
VERTEX
  5
2BE
  8
HH_OUTLINES
 10
734196.69000000018
 20
4555866.1399999997
 30
0.0
  0
SEQEND
  5
2BF
  8
HH_OUTLINES
  0
POLYLINE
  5
7E
  8
HH_OUTLINES
 66
     1
 10
0.0
 20
0.0
 30
0.0
 70
     1
  0
VERTEX
  5
2C0
  8
HH_OUTLINES
 10
734302.73705882346
 20
4556010.5382352937
 30
0.0
  0
VERTEX
  5
2C1
  8
HH_OUTLINES
 10
734306.53411764675
 20
4556007.2864705883
 30
0.0
  0
VERTEX
  5
2C2
  8
HH_OUTLINES
 10
734313.03764705826
 20
4556014.8805882325
 30
0.0
  0
VERTEX
  5
2C3
  8
HH_OUTLINES
 10
734316.83470588224
 20
4556011.628823529
 30
0.0
  0
VERTEX
  5
2C4
  8
HH_OUTLINES
 10
734326.58999999985
 20
4556023.0199999986
 30
0.0
  0
VERTEX
  5
2C5
  8
HH_OUTLINES
 10
734324.69147058856
 20
4556024.6458823523
 30
0.0
  0
VERTEX
  5
2C6
  8
HH_OUTLINES
 10
734327.94323529419
 20
4556028.4429411748
 30
0.0
  0
VERTEX
  5
2C7
  8
HH_OUTLINES
 10
734324.14617647091
 20
4556031.6947058802
 30
0.0
  0
VERTEX
  5
2C8
  8
HH_OUTLINES
 10
734320.89441176504
 20
4556027.8976470577
 30
0.0
  0
VERTEX
  5
2C9
  8
HH_OUTLINES
 10
734322.79294117657
 20
4556026.271764705
 30
0.0
  0
VERTEX
  5
2CA
  8
HH_OUTLINES
 10
734319.5411764707
 20
4556022.4747058824
 30
0.0
  0
VERTEX
  5
2CB
  8
HH_OUTLINES
 10
734315.74411764694
 20
4556025.7264705878
 30
0.0
  0
SEQEND
  5
2CC
  8
HH_OUTLINES
  0
TEXT
  5
84
  8
HH_NUMBERS
 10
734123.00985782
 20
4555875.3890723884
 30
0.0
 40
4.0
  1
101
  0
TEXT
  5
86
  8
HH_NUMBERS
 10
734201.23549946724
 20
4555863.1220655423
 30
0.0
 40
4.0
  1
102
  0
TEXT
  5
87
  8
HH_NUMBERS
 10
734196.09447369503
 20
4555891.3205588544
 30
0.0
 40
4.0
  1
103
  0
TEXT
  5
88
  8
HH_NUMBERS
 10
734252.50680777384
 20
4555868.4886730546
 30
0.0
 40
4.0
  1
104
  0
TEXT
  5
89
  8
HH_NUMBERS
 10
734251.56020732946
 20
4555882.0442848448
 30
0.0
 40
4.0
  1
105
  0
TEXT
  5
8A
  8
HH_NUMBERS
 10
734214.57437903341
 20
4555914.7961504608
 30
0.0
 40
4.0
  1
106
  0
TEXT
  5
8B
  8
HH_NUMBERS
 10
734223.46696603985
 20
4555935.0768406997
 30
0.0
 40
4.0
  1
107
  0
TEXT
  5
8C
  8
HH_NUMBERS
 10
734151.69700492593
 20
4555976.6015563998
 30
0.0
 40
4.0
  1
108
  0
TEXT
  5
8D
  8
HH_NUMBERS
 10
734173.71856378426
 20
4555973.925508935
 30
0.0
 40
4.0
  1
109
  0
TEXT
  5
8E
  8
HH_NUMBERS
 10
734311.40413197258
 20
4556016.019063442
 30
0.0
 40
4.0
  1
110
  0
TEXT
  5
8F
  8
HH_NUMBERS
 10
734310.91602321237
 20
4556025.7778686481
 30
0.0
 40
4.0
  1
111
  0
TEXT
  5
90
  8
HH_NUMBERS
 10
734320.55039065378
 20
4556066.3594141128
 30
0.0
 40
4.0
  1
112
  0
TEXT
  5
91
  8
HH_NUMBERS
 10
734322.87469932111
 20
4556077.7435029214
 30
0.0
 40
4.0
  1
113
  0
TEXT
  5
92
  8
HH_NUMBERS
 10
734302.23419332493
 20
4556093.1563099716
 30
0.0
 40
4.0
  1
114
  0
TEXT
  5
93
  8
HH_NUMBERS
 10
734276.99243320862
 20
4556107.5078571429
 30
0.0
 40
4.0
  1
115
  0
TEXT
  5
94
  8
HH_NUMBERS
 10
734304.69124349602
 20
4556119.7298974292
 30
0.0
 40
4.0
  1
116
  0
TEXT
  5
95
  8
HH_NUMBERS
 10
734281.46094393835
 20
4556134.2448833138
 30
0.0
 40
4.0
  1
117
  0
POLYLINE
  5
208
  8
HH_OUTLINES
 66
     1
 10
0.0
 20
0.0
 30
0.0
 70
     1
  0
VERTEX
  5
312
  8
HH_OUTLINES
 10
734165.93423077022
 20
4555969.2988461554
 30
0.0
  0
VERTEX
  5
313
  8
HH_OUTLINES
 10
734179.28538461565
 20
4555962.4530769233
 30
0.0
  0
VERTEX
  5
314
  8
HH_OUTLINES
 10
734181.56730769214
 20
4555966.9034615373
 30
0.0
  0
VERTEX
  5
315
  8
HH_OUTLINES
 10
734190.46807692293
 20
4555962.3396153832
 30
0.0
  0
VERTEX
  5
316
  8
HH_OUTLINES
 10
734197.31384615356
 20
4555975.69076923
 30
0.0
  0
VERTEX
  5
317
  8
HH_OUTLINES
 10
734188.41307692265
 20
4555980.2546153842
 30
0.0
  0
VERTEX
  5
318
  8
HH_OUTLINES
 10
734190.69499999995
 20
4555984.7050000001
 30
0.0
  0
VERTEX
  5
319
  8
HH_OUTLINES
 10
734163.99269230745
 20
4555998.3965384597
 30
0.0
  0
VERTEX
  5
31A
  8
HH_OUTLINES
 10
734161.7107692305
 20
4555993.9461538447
 30
0.0
  0
VERTEX
  5
31B
  8
HH_OUTLINES
 10
734166.16115384595
 20
4555991.6642307676
 30
0.0
  0
VERTEX
  5
31C
  8
HH_OUTLINES
 10
734163.87923076912
 20
4555987.2138461536
 30
0.0
  0
VERTEX
  5
31D
  8
HH_OUTLINES
 10
734168.32961538434
 20
4555984.9319230756
 30
0.0
  0
VERTEX
  5
31E
  8
HH_OUTLINES
 10
734163.76576923067
 20
4555976.0311538447
 30
0.0
  0
VERTEX
  5
31F
  8
HH_OUTLINES
 10
734168.15550728492
 20
4555973.7803271348
 30
0.0
  0
SEQEND
  5
320
  8
HH_OUTLINES
  0
POLYLINE
  5
20D
  8
HH_OUTLINES
 66
     1
 10
0.0
 20
0.0
 30
0.0
 70
     1
  0
VERTEX
  5
321
  8
HH_OUTLINES
 10
734295.78499999992
 20
4556123.7292857124
 30
0.0
  0
VERTEX
  5
322
  8
HH_OUTLINES
 10
734298.92499999981
 20
4556127.6199999982
 30
0.0
  0
VERTEX
  5
323
  8
HH_OUTLINES
 10
734302.06499999983
 20
4556131.5107142841
 30
0.0
  0
VERTEX
  5
324
  8
HH_OUTLINES
 10
734325.40928571427
 20
4556112.6707142834
 30
0.0
  0
VERTEX
  5
325
  8
HH_OUTLINES
 10
734322.26928571425
 20
4556108.7799999984
 30
0.0
  0
VERTEX
  5
326
  8
HH_OUTLINES
 10
734326.16000000015
 20
4556105.6399999997
 30
0.0
  0
VERTEX
  5
327
  8
HH_OUTLINES
 10
734323.02000000025
 20
4556101.7492857128
 30
0.0
  0
VERTEX
  5
328
  8
HH_OUTLINES
 10
734326.91071428545
 20
4556098.6092857122
 30
0.0
  0
VERTEX
  5
329
  8
HH_OUTLINES
 10
734323.77071428578
 20
4556094.7185714282
 30
0.0
  0
VERTEX
  5
32A
  8
HH_OUTLINES
 10
734315.98928571434
 20
4556100.9985714275
 30
0.0
  0
VERTEX
  5
32B
  8
HH_OUTLINES
 10
734319.12928571424
 20
4556104.8892857134
 30
0.0
  0
SEQEND
  5
32C
  8
HH_OUTLINES
  0
POLYLINE
  5
210
  8
HH_OUTLINES
 66
     1
 10
0.0
 20
0.0
 30
0.0
 70
     1
  0
VERTEX
  5
32D
  8
HH_OUTLINES
 10
734295.78499999968
 20
4556123.7292857124
 30
0.0
  0
VERTEX
  5
32E
  8
HH_OUTLINES
 10
734284.11285714293
 20
4556133.1492857123
 30
0.0
  0
VERTEX
  5
32F
  8
HH_OUTLINES
 10
734280.9728571428
 20
4556129.2585714273
 30
0.0
  0
VERTEX
  5
330
  8
HH_OUTLINES
 10
734277.08214285737
 20
4556132.398571427
 30
0.0
  0
VERTEX
  5
331
  8
HH_OUTLINES
 10
734280.22214285703
 20
4556136.2892857129
 30
0.0
  0
VERTEX
  5
332
  8
HH_OUTLINES
 10
734268.55000000005
 20
4556145.7092857128
 30
0.0
  0
VERTEX
  5
333
  8
HH_OUTLINES
 10
734271.68999999994
 20
4556149.5999999978
 30
0.0
  0
VERTEX
  5
334
  8
HH_OUTLINES
 10
734283.36214285705
 20
4556140.1799999978
 30
0.0
  0
VERTEX
  5
335
  8
HH_OUTLINES
 10
734286.50214285706
 20
4556144.0707142828
 30
0.0
  0
VERTEX
  5
336
  8
HH_OUTLINES
 10
734290.39285714272
 20
4556140.9307142841
 30
0.0
  0
VERTEX
  5
337
  8
HH_OUTLINES
 10
734287.25285714294
 20
4556137.0399999982
 30
0.0
  0
VERTEX
  5
338
  8
HH_OUTLINES
 10
734298.92500000016
 20
4556127.6199999982
 30
0.0
  0
SEQEND
  5
339
  8
HH_OUTLINES
  0
POLYLINE
  5
213
  8
HH_OUTLINES
 66
     1
 10
0.0
 20
0.0
 30
0.0
 70
     1
  0
VERTEX
  5
33A
  8
HH_OUTLINES
 10
734299.23142857151
 20
4556100.3385714283
 30
0.0
  0
VERTEX
  5
33B
  8
HH_OUTLINES
 10
734295.27428571403
 20
4556103.3942857152
 30
0.0
  0
VERTEX
  5
33C
  8
HH_OUTLINES
 10
734298.32999999996
 20
4556107.3514285721
 30
0.0
  0
VERTEX
  5
33D
  8
HH_OUTLINES
 10
734294.36014783778
 20
4556110.4169570114
 30
0.0
  0
VERTEX
  5
33E
  8
HH_OUTLINES
 10
734291.31714285736
 20
4556106.4500000002
 30
0.0
  0
VERTEX
  5
33F
  8
HH_OUTLINES
 10
734283.40285714273
 20
4556112.5614285711
 30
0.0
  0
VERTEX
  5
340
  8
HH_OUTLINES
 10
734286.45857142878
 20
4556116.518571429
 30
0.0
  0
VERTEX
  5
341
  8
HH_OUTLINES
 10
734282.50142857153
 20
4556119.574285714
 30
0.0
  0
VERTEX
  5
342
  8
HH_OUTLINES
 10
734273.33428571431
 20
4556107.7028571442
 30
0.0
  0
VERTEX
  5
343
  8
HH_OUTLINES
 10
734277.29142857145
 20
4556104.6471428573
 30
0.0
  0
VERTEX
  5
344
  8
HH_OUTLINES
 10
734280.34714285703
 20
4556108.6042857151
 30
0.0
  0
VERTEX
  5
345
  8
HH_OUTLINES
 10
734296.20807627589
 20
4556096.3564385734
 30
0.0
  0
SEQEND
  5
346
  8
HH_OUTLINES
  0
POLYLINE
  5
214
  8
HH_OUTLINES
 66
     1
 10
0.0
 20
0.0
 30
0.0
 70
     1
  0
VERTEX
  5
347
  8
HH_OUTLINES
 10
734299.23142857151
 20
4556100.3385714283
 30
0.0
  0
VERTEX
  5
348
  8
HH_OUTLINES
 10
734303.18857142853
 20
4556097.2828571443
 30
0.0
  0
VERTEX
  5
349
  8
HH_OUTLINES
 10
734306.24428571435
 20
4556101.2400000002
 30
0.0
  0
VERTEX
  5
34A
  8
HH_OUTLINES
 10
734310.2014285716
 20
4556098.1842857143
 30
0.0
  0
VERTEX
  5
34B
  8
HH_OUTLINES
 10
734301.03428571415
 20
4556086.3128571426
 30
0.0
  0
VERTEX
  5
34C
  8
HH_OUTLINES
 10
734297.07714285713
 20
4556089.3685714286
 30
0.0
  0
VERTEX
  5
34D
  8
HH_OUTLINES
 10
734300.13285714271
 20
4556093.3257142864
 30
0.0
  0
VERTEX
  5
34E
  8
HH_OUTLINES
 10
734296.20807627589
 20
4556096.3564385734
 30
0.0
  0
SEQEND
  5
34F
  8
HH_OUTLINES
  0
POLYLINE
  5
21F
  8
HH_OUTLINES
 66
     1
 10
0.0
 20
0.0
 30
0.0
 70
     1
  0
VERTEX
  5
350
  8
HH_OUTLINES
 10
734219.86108108098
 20
4555932.7164864875
 30
0.0
  0
VERTEX
  5
351
  8
HH_OUTLINES
 10
734224.79081081063
 20
4555941.4148648651
 30
0.0
  0
VERTEX
  5
352
  8
HH_OUTLINES
 10
734229.14000000001
 20
4555938.9500000002
 30
0.0
  0
VERTEX
  5
353
  8
HH_OUTLINES
 10
734224.21027027024
 20
4555930.2516216217
 30
0.0
  0
SEQEND
  5
354
  8
HH_OUTLINES
  0
POLYLINE
  5
279
  8
HH_OUTLINES
 66
     1
 10
0.0
 20
0.0
 30
0.0
 70
     1
  0
VERTEX
  5
355
  8
HH_OUTLINES
 10
734251.29393306514
 20
4555873.5692029288
 30
0.0
  0
VERTEX
  5
356
  8
HH_OUTLINES
 10
734252.52719101089
 20
4555872.7955056159
 30
0.0
  0
VERTEX
  5
357
  8
HH_OUTLINES
 10
734247.21168539324
 20
4555864.322696629
 30
0.0
  0
VERTEX
  5
358
  8
HH_OUTLINES
 10
734251.44808988762
 20
4555861.6649438208
 30
0.0
  0
VERTEX
  5
359
  8
HH_OUTLINES
 10
734254.10584269674
 20
4555865.9013483152
 30
0.0
  0
VERTEX
  5
35A
  8
HH_OUTLINES
 10
734258.342247191
 20
4555863.2435955061
 30
0.0
  0
VERTEX
  5
35B
  8
HH_OUTLINES
 10
734263.65775280911
 20
4555871.7164044948
 30
0.0
  0
VERTEX
  5
35C
  8
HH_OUTLINES
 10
734254.09879739198
 20
4555877.7133154701
 30
0.0
  0
SEQEND
  5
35D
  8
HH_OUTLINES
  0
POLYLINE
  5
27A
  8
HH_OUTLINES
 66
     1
 10
0.0
 20
0.0
 30
0.0
 70
     1
  0
VERTEX
  5
35E
  8
HH_OUTLINES
 10
734254.09879739198
 20
4555877.7133154701
 30
0.0
  0
VERTEX
  5
35F
  8
HH_OUTLINES
 10
734253.06674157293
 20
4555878.3607865162
 30
0.0
  0
VERTEX
  5
360
  8
HH_OUTLINES
 10
734261.04000000015
 20
4555891.0700000003
 30
0.0
  0
VERTEX
  5
361
  8
HH_OUTLINES
 10
734256.80359550565
 20
4555893.7277528094
 30
0.0
  0
VERTEX
  5
362
  8
HH_OUTLINES
 10
734246.17258426989
 20
4555876.7821348319
 30
0.0
  0
VERTEX
  5
363
  8
HH_OUTLINES
 10
734251.29393306514
 20
4555873.5692029288
 30
0.0
  0
SEQEND
  5
364
  8
HH_OUTLINES
  0
POLYLINE
  5
27D
  8
HH_OUTLINES
 66
     1
 10
0.0
 20
0.0
 30
0.0
 70
     1
  0
VERTEX
  5
365
  8
HH_OUTLINES
 10
734219.86108108098
 20
4555932.7164864875
 30
0.0
  0
VERTEX
  5
366
  8
HH_OUTLINES
 10
734217.39621621626
 20
4555928.3672972964
 30
0.0
  0
VERTEX
  5
367
  8
HH_OUTLINES
 10
734221.72987170937
 20
4555925.9112360189
 30
0.0
  0
VERTEX
  5
368
  8
HH_OUTLINES
 10
734221.73265481938
 20
4555925.8799343603
 30
0.0
  0
VERTEX
  5
369
  8
HH_OUTLINES
 10
734216.81567567564
 20
4555917.2040540529
 30
0.0
  0
VERTEX
  5
36A
  8
HH_OUTLINES
 10
734212.46648648661
 20
4555919.668918917
 30
0.0
  0
VERTEX
  5
36B
  8
HH_OUTLINES
 10
734210.00162162143
 20
4555915.3197297277
 30
0.0
  0
VERTEX
  5
36C
  8
HH_OUTLINES
 10
734218.69999999995
 20
4555910.3899999997
 30
0.0
  0
VERTEX
  5
36D
  8
HH_OUTLINES
 10
734226.09459459456
 20
4555923.4375675684
 30
0.0
  0
VERTEX
  5
36E
  8
HH_OUTLINES
 10
734221.76180598512
 20
4555925.8931375472
 30
0.0
  0
VERTEX
  5
36F
  8
HH_OUTLINES
 10
734221.75825339335
 20
4555925.9251023689
 30
0.0
  0
VERTEX
  5
370
  8
HH_OUTLINES
 10
734224.21027027024
 20
4555930.2516216217
 30
0.0
  0
SEQEND
  5
371
  8
HH_OUTLINES
  0
POLYLINE
  5
27E
  8
HH_OUTLINES
 66
     1
 10
0.0
 20
0.0
 30
0.0
 70
     1
  0
VERTEX
  5
372
  8
HH_OUTLINES
 10
734165.93423076952
 20
4555969.2988461526
 30
0.0
  0
VERTEX
  5
373
  8
HH_OUTLINES
 10
734161.48384615395
 20
4555971.5807692306
 30
0.0
  0
VERTEX
  5
374
  8
HH_OUTLINES
 10
734154.63807692321
 20
4555958.2296153829
 30
0.0
  0
VERTEX
  5
375
  8
HH_OUTLINES
 10
734150.18769230787
 20
4555960.5115384609
 30
0.0
  0
VERTEX
  5
376
  8
HH_OUTLINES
 10
734152.4696153847
 20
4555964.9619230768
 30
0.0
  0
VERTEX
  5
377
  8
HH_OUTLINES
 10
734143.56884615403
 20
4555969.52576923
 30
0.0
  0
VERTEX
  5
378
  8
HH_OUTLINES
 10
734148.13269230747
 20
4555978.4265384609
 30
0.0
  0
VERTEX
  5
379
  8
HH_OUTLINES
 10
734143.68230769224
 20
4555980.708461538
 30
0.0
  0
VERTEX
  5
37A
  8
HH_OUTLINES
 10
734152.80999999971
 20
4555998.5099999998
 30
0.0
  0
VERTEX
  5
37B
  8
HH_OUTLINES
 10
734161.7107692305
 20
4555993.9461538447
 30
0.0
  0
VERTEX
  5
37C
  8
HH_OUTLINES
 10
734166.16115384595
 20
4555991.6642307676
 30
0.0
  0
VERTEX
  5
37D
  8
HH_OUTLINES
 10
734163.87923076912
 20
4555987.2138461536
 30
0.0
  0
VERTEX
  5
37E
  8
HH_OUTLINES
 10
734168.32961538434
 20
4555984.9319230756
 30
0.0
  0
VERTEX
  5
37F
  8
HH_OUTLINES
 10
734163.76576923067
 20
4555976.0311538447
 30
0.0
  0
VERTEX
  5
380
  8
HH_OUTLINES
 10
734168.15550728492
 20
4555973.7803271348
 30
0.0
  0
VERTEX
  5
381
  8
HH_OUTLINES
 10
734165.93423077022
 20
4555969.2988461554
 30
0.0
  0
SEQEND
  5
382
  8
HH_OUTLINES
  0
POLYLINE
  5
27F
  8
HH_OUTLINES
 66
     1
 10
0.0
 20
0.0
 30
0.0
 70
     1
  0
VERTEX
  5
383
  8
HH_OUTLINES
 10
734324.14617647091
 20
4556031.6947058802
 30
0.0
  0
VERTEX
  5
384
  8
HH_OUTLINES
 10
734320.89441176504
 20
4556027.8976470577
 30
0.0
  0
VERTEX
  5
385
  8
HH_OUTLINES
 10
734322.79294117657
 20
4556026.271764705
 30
0.0
  0
VERTEX
  5
386
  8
HH_OUTLINES
 10
734319.5411764707
 20
4556022.4747058824
 30
0.0
  0
VERTEX
  5
387
  8
HH_OUTLINES
 10
734315.74411764694
 20
4556025.7264705878
 30
0.0
  0
VERTEX
  5
388
  8
HH_OUTLINES
 10
734302.73705882346
 20
4556010.5382352937
 30
0.0
  0
VERTEX
  5
389
  8
HH_OUTLINES
 10
734298.93999999994
 20
4556013.79
 30
0.0
  0
VERTEX
  5
38A
  8
HH_OUTLINES
 10
734315.19882352964
 20
4556032.7752941158
 30
0.0
  0
VERTEX
  5
38B
  8
HH_OUTLINES
 10
734317.09735294105
 20
4556031.149411764
 30
0.0
  0
VERTEX
  5
38C
  8
HH_OUTLINES
 10
734320.34911764716
 20
4556034.9464705857
 30
0.0
  0
SEQEND
  5
38D
  8
HH_OUTLINES
  0
POLYLINE
  5
280
  8
HH_OUTLINES
 66
     1
 10
0.0
 20
0.0
 30
0.0
 70
     1
  0
VERTEX
  5
38E
  8
HH_OUTLINES
 10
734330.17135135154
 20
4556068.4518918926
 30
0.0
  0
VERTEX
  5
38F
  8
HH_OUTLINES
 10
734318.67115963518
 20
4556078.0395666948
 30
0.0
  0
VERTEX
  5
390
  8
HH_OUTLINES
 10
734318.67274762795
 20
4556078.0836199299
 30
0.0
  0
VERTEX
  5
391
  8
HH_OUTLINES
 10
734325.02185150306
 20
4556085.763919143
 30
0.0
  0
VERTEX
  5
392
  8
HH_OUTLINES
 10
734317.3732432432
 20
4556092.1405405402
 30
0.0
  0
VERTEX
  5
393
  8
HH_OUTLINES
 10
734310.9700000002
 20
4556084.4600000009
 30
0.0
  0
VERTEX
  5
394
  8
HH_OUTLINES
 10
734318.62154577218
 20
4556078.0809296072
 30
0.0
  0
VERTEX
  5
395
  8
HH_OUTLINES
 10
734318.62172073172
 20
4556078.0221880693
 30
0.0
  0
VERTEX
  5
396
  8
HH_OUTLINES
 10
734315.4489189192
 20
4556074.2164864875
 30
0.0
  0
VERTEX
  5
397
  8
HH_OUTLINES
 10
734319.28918918944
 20
4556071.0148648648
 30
0.0
  0
VERTEX
  5
398
  8
HH_OUTLINES
 10
734316.08756756771
 20
4556067.1745945951
 30
0.0
  0
VERTEX
  5
399
  8
HH_OUTLINES
 10
734323.76810810855
 20
4556060.7713513533
 30
0.0
  0
VERTEX
  5
39A
  8
HH_OUTLINES
 10
734326.96972972993
 20
4556064.611621622
 30
0.0
  0
VERTEX
  5
39B
  8
HH_OUTLINES
 10
734330.81000000006
 20
4556061.4100000011
 30
0.0
  0
VERTEX
  5
39C
  8
HH_OUTLINES
 10
734334.01162162202
 20
4556065.2502702717
 30
0.0
  0
VERTEX
  5
39D
  8
HH_OUTLINES
 10
734330.17135135096
 20
4556068.4518918926
 30
0.0
  0
SEQEND
  5
39E
  8
HH_OUTLINES
  0
POLYLINE
  5
286
  8
HH_OUTLINES
 66
     1
 10
0.0
 20
0.0
 30
0.0
 70
     1
  0
VERTEX
  5
39F
  8
HH_OUTLINES
 10
734318.67115963518
 20
4556078.0395666948
 30
0.0
  0
VERTEX
  5
3A0
  8
HH_OUTLINES
 10
734330.17135135096
 20
4556068.4518918926
 30
0.0
  0
VERTEX
  5
3A1
  8
HH_OUTLINES
 10
734333.37297297316
 20
4556072.2921621632
 30
0.0
  0
VERTEX
  5
3A2
  8
HH_OUTLINES
 10
734329.5327027028
 20
4556075.4937837841
 30
0.0
  0
VERTEX
  5
3A3
  8
HH_OUTLINES
 10
734332.73432432453
 20
4556079.3340540547
 30
0.0
  0
VERTEX
  5
3A4
  8
HH_OUTLINES
 10
734328.89405405393
 20
4556082.5356756765
 30
0.0
  0
VERTEX
  5
3A5
  8
HH_OUTLINES
 10
734332.09567567555
 20
4556086.3759459453
 30
0.0
  0
VERTEX
  5
3A6
  8
HH_OUTLINES
 10
734328.25540540554
 20
4556089.577567568
 30
0.0
  0
VERTEX
  5
3A7
  8
HH_OUTLINES
 10
734325.05378378381
 20
4556085.7372972975
 30
0.0
  0
VERTEX
  5
3A8
  8
HH_OUTLINES
 10
734325.02185150306
 20
4556085.763919143
 30
0.0
  0
VERTEX
  5
3A9
  8
HH_OUTLINES
 10
734318.67274762795
 20
4556078.0836199299
 30
0.0
  0
SEQEND
  5
3AA
  8
HH_OUTLINES
  0
ENDSEC
  0
EOF
