  0
SECTION
  2
HEADER
  9
$ACADVER
  1
AC1009
  9
$INSBASE
 10
0.0
 20
0.0
 30
0.0
  9
$EXTMIN
 10
626.991540891
 20
4662.7433384300002
 30
1.0
  9
$EXTMAX
 10
667.965443252
 20
4698.7081778399988
 30
20.0
  9
$LIMMIN
 10
0.0
 20
0.0
  9
$LIMMAX
 10
12.0
 20
9.0
  9
$ORTHOMODE
 70
     0
  9
$REGENMODE
 70
     1
  9
$FILLMODE
 70
     1
  9
$QTEXTMODE
 70
     0
  9
$MIRRTEXT
 70
     1
  9
$DRAGMODE
 70
     2
  9
$LTSCALE
 40
1.0
  9
$OSMODE
 70
   613
  9
$ATTMODE
 70
     1
  9
$TEXTSIZE
 40
0.5
  9
$TRACEWID
 40
0.05
  9
$TEXTSTYLE
  7
STANDARD
  9
$CLAYER
  8
DISTRICTS
  9
$CELTYPE
  6
BYLAYER
  9
$CECOLOR
 62
   256
  9
$DIMSCALE
 40
1.0
  9
$DIMASZ
 40
0.18
  9
$DIMEXO
 40
0.0625
  9
$DIMDLI
 40
0.38
  9
$DIMRND
 40
0.0
  9
$DIMDLE
 40
0.0
  9
$DIMEXE
 40
0.18
  9
$DIMTP
 40
0.0
  9
$DIMTM
 40
0.0
  9
$DIMTXT
 40
0.18
  9
$DIMCEN
 40
0.09
  9
$DIMTSZ
 40
0.0
  9
$DIMTOL
 70
     0
  9
$DIMLIM
 70
     0
  9
$DIMTIH
 70
     1
  9
$DIMTOH
 70
     1
  9
$DIMSE1
 70
     0
  9
$DIMSE2
 70
     0
  9
$DIMTAD
 70
     0
  9
$DIMZIN
 70
     0
  9
$DIMBLK
  1

  9
$DIMASO
 70
     1
  9
$DIMSHO
 70
     1
  9
$DIMPOST
  1

  9
$DIMAPOST
  1

  9
$DIMALT
 70
     0
  9
$DIMALTD
 70
     2
  9
$DIMALTF
 40
25.399999999999999
  9
$DIMLFAC
 40
1.0
  9
$DIMTOFL
 70
     0
  9
$DIMTVP
 40
0.0
  9
$DIMTIX
 70
     0
  9
$DIMSOXD
 70
     0
  9
$DIMSAH
 70
     0
  9
$DIMBLK1
  1

  9
$DIMBLK2
  1

  9
$DIMSTYLE
  2
STANDARD
  9
$DIMCLRD
 70
     0
  9
$DIMCLRE
 70
     0
  9
$DIMCLRT
 70
     0
  9
$DIMTFAC
 40
1.0
  9
$DIMGAP
 40
0.09
  9
$LUNITS
 70
     2
  9
$LUPREC
 70
     4
  9
$SKETCHINC
 40
0.1
  9
$FILLETRAD
 40
0.5
  9
$AUNITS
 70
     0
  9
$AUPREC
 70
     0
  9
$MENU
  1
.
  9
$ELEVATION
 40
0.0
  9
$PELEVATION
 40
0.0
  9
$THICKNESS
 40
0.0
  9
$LIMCHECK
 70
     0
  9
$BLIPMODE
 70
     0
  9
$CHAMFERA
 40
0.5
  9
$CHAMFERB
 40
0.5
  9
$SKPOLY
 70
     0
  9
$TDCREATE
 40
2454381.8473497801
  9
$TDUPDATE
 40
2455808.6495625349
  9
$TDINDWG
 40
0.1318425116
  9
$TDUSRTIMER
 40
0.1318425116
  9
$USRTIMER
 70
     1
  9
$ANGBASE
 50
0.0
  9
$ANGDIR
 70
     1
  9
$PDMODE
 70
    66
  9
$PDSIZE
 40
0.0
  9
$PLINEWID
 40
0.0
  9
$COORDS
 70
     1
  9
$SPLFRAME
 70
     0
  9
$SPLINETYPE
 70
     6
  9
$SPLINESEGS
 70
     8
  9
$ATTDIA
 70
     0
  9
$ATTREQ
 70
     1
  9
$HANDLING
 70
     1
  9
$HANDSEED
  5
132E
  9
$SURFTAB1
 70
     6
  9
$SURFTAB2
 70
     6
  9
$SURFTYPE
 70
     6
  9
$SURFU
 70
     6
  9
$SURFV
 70
     6
  9
$UCSNAME
  2

  9
$UCSORG
 10
0.0
 20
0.0
 30
0.0
  9
$UCSXDIR
 10
1.0
 20
0.0
 30
0.0
  9
$UCSYDIR
 10
0.0
 20
1.0
 30
0.0
  9
$PUCSNAME
  2

  9
$PUCSORG
 10
0.0
 20
0.0
 30
0.0
  9
$PUCSXDIR
 10
1.0
 20
0.0
 30
0.0
  9
$PUCSYDIR
 10
0.0
 20
1.0
 30
0.0
  9
$USERI1
 70
     0
  9
$USERI2
 70
     0
  9
$USERI3
 70
     0
  9
$USERI4
 70
     0
  9
$USERI5
 70
     0
  9
$USERR1
 40
0.0
  9
$USERR2
 40
0.0
  9
$USERR3
 40
0.0
  9
$USERR4
 40
0.0
  9
$USERR5
 40
0.0
  9
$WORLDVIEW
 70
     1
  9
$SHADEDGE
 70
     3
  9
$SHADEDIF
 70
    70
  9
$TILEMODE
 70
     1
  9
$MAXACTVP
 70
    64
  9
$PLIMCHECK
 70
     0
  9
$PEXTMIN
 10
0.0
 20
0.0
 30
0.0
  9
$PEXTMAX
 10
0.0
 20
0.0
 30
0.0
  9
$PLIMMIN
 10
0.0
 20
0.0
  9
$PLIMMAX
 10
12.0
 20
9.0
  9
$UNITMODE
 70
     0
  9
$VISRETAIN
 70
     1
  9
$PLINEGEN
 70
     0
  9
$PSLTSCALE
 70
     1
  0
ENDSEC
  0
SECTION
  2
TABLES
  0
TABLE
  2
VPORT
 70
     1
  0
VPORT
  2
*ACTIVE
 70
     0
 10
0.0
 20
0.0
 11
1.0
 21
1.0
 12
653.33354480401897
 22
4679.788457400763
 13
0.0
 23
0.0
 14
0.5
 24
0.5
 15
0.5
 25
0.5
 16
0.0
 26
0.0
 36
1.0
 17
0.0
 27
0.0
 37
0.0
 40
44.826324021130851
 41
1.336206896551724
 42
50.0
 43
0.0
 44
0.0
 50
0.0
 51
0.0
 71
     0
 72
   100
 73
     1
 74
     2
 75
     0
 76
     0
 77
     0
 78
     0
  0
ENDTAB
  0
TABLE
  2
LTYPE
 70
     1
  0
LTYPE
  2
CONTINUOUS
 70
     0
  3
Solid line
 72
    65
 73
     0
 40
0.0
  0
ENDTAB
  0
TABLE
  2
LAYER
 70
     2
  0
LAYER
  2
0
 70
     0
 62
    -7
  6
CONTINUOUS
  0
LAYER
  2
DISTRICTS
 70
     0
 62
     3
  6
CONTINUOUS
  0
ENDTAB
  0
TABLE
  2
STYLE
 70
     3
  0
STYLE
  2
STANDARD
 70
     0
 40
0.0
 41
1.0
 50
0.0
 71
     0
 42
0.5
  3
txt
  4

  0
STYLE
  2
ANNOTATIVE
 70
     0
 40
0.0
 41
1.0
 50
0.0
 71
     0
 42
0.2
  3
txt
  4

  0
STYLE
  2
LEGEND
 70
     0
 40
0.0
 41
1.0
 50
0.0
 71
     0
 42
0.5
  3
txt
  4

  0
ENDTAB
  0
TABLE
  2
VIEW
 70
     0
  0
ENDTAB
  0
TABLE
  2
UCS
 70
     0
  0
ENDTAB
  0
TABLE
  2
APPID
 70
     7
  0
APPID
  2
ACAD
 70
     0
  0
APPID
  2
ACADANNOTATIVE
 70
     0
  0
APPID
  2
ADE
 70
     0
  0
APPID
  2
ACMAPDMDISPLAYSTYLEREGAPP
 70
     0
  0
APPID
  2
MAPGWS
 70
     0
  0
APPID
  2
DCO15
 70
     0
  0
APPID
  2
ACAD_MLEADERVER
 70
     0
  0
ENDTAB
  0
TABLE
  2
DIMSTYLE
 70
     2
  0
DIMSTYLE
  2
STANDARD
 70
     0
  3

  4

  5

  6

  7

 40
1.0
 41
0.18
 42
0.0625
 43
0.38
 44
0.18
 45
0.0
 46
0.0
 47
0.0
 48
0.0
140
0.18
141
0.09
142
0.0
143
25.399999999999999
144
1.0
145
0.0
146
1.0
147
0.09
 71
     0
 72
     0
 73
     1
 74
     1
 75
     0
 76
     0
 77
     0
 78
     0
170
     0
171
     2
172
     0
173
     0
174
     0
175
     0
176
     0
177
     0
178
     0
  0
DIMSTYLE
  2
ANNOTATIVE
 70
     0
  3

  4

  5

  6

  7

 40
1.0
 41
0.18
 42
0.0625
 43
0.38
 44
0.18
 45
0.0
 46
0.0
 47
0.0
 48
0.0
140
0.18
141
0.09
142
0.0
143
25.399999999999999
144
1.0
145
0.0
146
1.0
147
0.09
 71
     0
 72
     0
 73
     1
 74
     1
 75
     0
 76
     0
 77
     0
 78
     0
170
     0
171
     2
172
     0
173
     0
174
     0
175
     0
176
     0
177
     0
178
     0
  0
ENDTAB
  0
ENDSEC
  0
SECTION
  2
BLOCKS
  0
BLOCK
  8
0
  2
$MODEL_SPACE
 70
     0
 10
0.0
 20
0.0
 30
0.0
  3
$MODEL_SPACE
  1

  0
ENDBLK
  5
9BE
  8
0
  0
BLOCK
 67
     1
  8
0
  2
$PAPER_SPACE
 70
     0
 10
0.0
 20
0.0
 30
0.0
  3
$PAPER_SPACE
  1

  0
ENDBLK
  5
9BA
 67
     1
  8
0
  0
ENDSEC
  0
SECTION
  2
ENTITIES
  0
POLYLINE
  5
28
  8
DISTRICTS
 66
     1
 10
0.0
 20
0.0
 30
13.0
 70
     1
  0
VERTEX
  5
9F6
  8
DISTRICTS
 10
665.39531325999985
 20
4689.5704057299999
 30
13.0
  0
VERTEX
  5
9F7
  8
DISTRICTS
 10
665.28758169900004
 20
4689.5916511499981
 30
13.0
  0
VERTEX
  5
9F8
  8
DISTRICTS
 10
665.18736383400005
 20
4689.6175499999999
 30
13.0
  0
VERTEX
  5
9F9
  8
DISTRICTS
 10
665.08714596900006
 20
4689.65014324
 30
13.0
  0
VERTEX
  5
9FA
  8
DISTRICTS
 10
665.03377740400003
 20
4689.6706443900002
 30
13.0
  0
VERTEX
  5
9FB
  8
DISTRICTS
 10
664.98692810499995
 20
4689.6888460299997
 30
13.0
  0
VERTEX
  5
9FC
  8
DISTRICTS
 10
664.88671023999996
 20
4689.7349163999988
 30
13.0
  0
VERTEX
  5
9FD
  8
DISTRICTS
 10
664.82152198199992
 20
4689.7708830499978
 30
13.0
  0
VERTEX
  5
9FE
  8
DISTRICTS
 10
664.78649237499985
 20
4689.7912139999999
 30
13.0
  0
VERTEX
  5
9FF
  8
DISTRICTS
 10
664.68627450999986
 20
4689.8596666599997
 30
13.0
  0
VERTEX
  5
A00
  8
DISTRICTS
 10
664.671439448
 20
4689.871121719998
 30
13.0
  0
VERTEX
  5
A01
  8
DISTRICTS
 10
664.58605664499976
 20
4689.9432233199987
 30
13.0
  0
VERTEX
  5
A02
  8
DISTRICTS
 10
664.55682032599975
 20
4689.9713603800001
 30
13.0
  0
VERTEX
  5
A03
  8
DISTRICTS
 10
664.48583877999999
 20
4690.0478533400001
 30
13.0
  0
VERTEX
  5
A04
  8
DISTRICTS
 10
664.46569788699992
 20
4690.0715990500003
 30
13.0
  0
VERTEX
  5
A05
  8
DISTRICTS
 10
664.39089259199989
 20
4690.1718377099987
 30
13.0
  0
VERTEX
  5
A06
  8
DISTRICTS
 10
664.32659314199998
 20
4690.2720763699999
 30
13.0
  0
VERTEX
  5
A07
  8
DISTRICTS
 10
664.28540305000001
 20
4690.3504417800004
 30
13.0
  0
VERTEX
  5
A08
  8
DISTRICTS
 10
664.27386707799997
 20
4690.3723150400001
 30
13.0
  0
VERTEX
  5
A09
  8
DISTRICTS
 10
664.22785785500002
 20
4690.4725537000004
 30
13.0
  0
VERTEX
  5
A0A
  8
DISTRICTS
 10
664.19163796199985
 20
4690.5727923599998
 30
13.0
  0
VERTEX
  5
A0B
  8
DISTRICTS
 10
664.18518518500002
 20
4690.5948210400002
 30
13.0
  0
VERTEX
  5
A0C
  8
DISTRICTS
 10
664.16058632199974
 20
4690.6730310299999
 30
13.0
  0
VERTEX
  5
A0D
  8
DISTRICTS
 10
664.13672914000006
 20
4690.7732696900011
 30
13.0
  0
VERTEX
  5
A0E
  8
DISTRICTS
 10
664.12028213799999
 20
4690.8735083499996
 30
13.0
  0
VERTEX
  5
A0F
  8
DISTRICTS
 10
664.11075550199985
 20
4690.9737470199998
 30
13.0
  0
VERTEX
  5
A10
  8
DISTRICTS
 10
664.10792201399988
 20
4691.0739856800001
 30
13.0
  0
VERTEX
  5
A11
  8
DISTRICTS
 10
664.11185797799976
 20
4691.1742243400004
 30
13.0
  0
VERTEX
  5
A12
  8
DISTRICTS
 10
664.12300428399999
 20
4691.2744630099996
 30
13.0
  0
VERTEX
  5
A13
  8
DISTRICTS
 10
664.14223781500004
 20
4691.3747016699999
 30
13.0
  0
VERTEX
  5
A14
  8
DISTRICTS
 10
664.17090188500003
 20
4691.4749403300002
 30
13.0
  0
VERTEX
  5
A15
  8
DISTRICTS
 10
664.18518518500002
 20
4691.51250411
 30
13.0
  0
VERTEX
  5
A16
  8
DISTRICTS
 10
664.20709501999988
 20
4691.5751789999986
 30
13.0
  0
VERTEX
  5
A17
  8
DISTRICTS
 10
664.25343228600002
 20
4691.6754176599989
 30
13.0
  0
VERTEX
  5
A18
  8
DISTRICTS
 10
664.28540305000001
 20
4691.7305138600004
 30
13.0
  0
VERTEX
  5
A19
  8
DISTRICTS
 10
664.31108233600003
 20
4691.7756563199991
 30
13.0
  0
VERTEX
  5
A1A
  8
DISTRICTS
 10
664.38146982199987
 20
4691.8758949900002
 30
13.0
  0
VERTEX
  5
A1B
  8
DISTRICTS
 10
664.46387227800005
 20
4691.9761336499978
 30
13.0
  0
VERTEX
  5
A1C
  8
DISTRICTS
 10
664.48583877999999
 20
4691.99954256
 30
13.0
  0
VERTEX
  5
A1D
  8
DISTRICTS
 10
664.56256540100003
 20
4692.076372319998
 30
13.0
  0
VERTEX
  5
A1E
  8
DISTRICTS
 10
664.58605664499976
 20
4692.0978058700002
 30
13.0
  0
VERTEX
  5
A1F
  8
DISTRICTS
 10
664.68033477999995
 20
4692.1766109800001
 30
13.0
  0
VERTEX
  5
A20
  8
DISTRICTS
 10
664.78649237499985
 20
4692.2543512499988
 30
13.0
  0
VERTEX
  5
A21
  8
DISTRICTS
 10
664.82135752900001
 20
4692.2768496400004
 30
13.0
  0
VERTEX
  5
A22
  8
DISTRICTS
 10
664.88671023999996
 20
4692.3179889900011
 30
13.0
  0
VERTEX
  5
A23
  8
DISTRICTS
 10
664.98692810499995
 20
4692.3725970300002
 30
13.0
  0
VERTEX
  5
A24
  8
DISTRICTS
 10
664.99610231600002
 20
4692.3770883099978
 30
13.0
  0
VERTEX
  5
A25
  8
DISTRICTS
 10
665.08714596900006
 20
4692.4220610299999
 30
13.0
  0
VERTEX
  5
A26
  8
DISTRICTS
 10
665.18736383400005
 20
4692.46384218
 30
13.0
  0
VERTEX
  5
A27
  8
DISTRICTS
 10
665.22465622499999
 20
4692.4773269699981
 30
13.0
  0
VERTEX
  5
A28
  8
DISTRICTS
 10
665.28758169900004
 20
4692.5010257900003
 30
13.0
  0
VERTEX
  5
A29
  8
DISTRICTS
 10
665.38779956400003
 20
4692.5334852799997
 30
13.0
  0
VERTEX
  5
A2A
  8
DISTRICTS
 10
665.48801742900002
 20
4692.56082694
 30
13.0
  0
VERTEX
  5
A2B
  8
DISTRICTS
 10
665.55941329099994
 20
4692.5775656300002
 30
13.0
  0
VERTEX
  5
A2C
  8
DISTRICTS
 10
665.5882352939999
 20
4692.5849713400003
 30
13.0
  0
VERTEX
  5
A2D
  8
DISTRICTS
 10
665.68845315900001
 20
4692.6084526699997
 30
13.0
  0
VERTEX
  5
A2E
  8
DISTRICTS
 10
665.78867102399977
 20
4692.6318785800013
 30
13.0
  0
VERTEX
  5
A2F
  8
DISTRICTS
 10
665.88888888899987
 20
4692.6607287500001
 30
13.0
  0
VERTEX
  5
A30
  8
DISTRICTS
 10
665.92876926600002
 20
4692.6778043000004
 30
13.0
  0
VERTEX
  5
A31
  8
DISTRICTS
 10
665.98910675399998
 20
4692.736342709999
 30
13.0
  0
VERTEX
  5
A32
  8
DISTRICTS
 10
665.99969670999985
 20
4692.7780429599989
 30
13.0
  0
VERTEX
  5
A33
  8
DISTRICTS
 10
666.00872065199997
 20
4692.8782816199991
 30
13.0
  0
VERTEX
  5
A34
  8
DISTRICTS
 10
666.05441348800002
 20
4692.9785202900002
 30
13.0
  0
VERTEX
  5
A35
  8
DISTRICTS
 10
666.08932461899985
 20
4693.0060881400004
 30
13.0
  0
VERTEX
  5
A36
  8
DISTRICTS
 10
666.18954248399996
 20
4693.0388625499991
 30
13.0
  0
VERTEX
  5
A37
  8
DISTRICTS
 10
666.28976034900006
 20
4692.9899499599996
 30
13.0
  0
VERTEX
  5
A38
  8
DISTRICTS
 10
666.30276296300008
 20
4692.9785202900002
 30
13.0
  0
VERTEX
  5
A39
  8
DISTRICTS
 10
666.35456570999997
 20
4692.8782816199991
 30
13.0
  0
VERTEX
  5
A3A
  8
DISTRICTS
 10
666.34157599299999
 20
4692.7780429599989
 30
13.0
  0
VERTEX
  5
A3B
  8
DISTRICTS
 10
666.31300071400005
 20
4692.6778043000004
 30
13.0
  0
VERTEX
  5
A3C
  8
DISTRICTS
 10
666.37705842000003
 20
4692.5775656300002
 30
13.0
  0
VERTEX
  5
A3D
  8
DISTRICTS
 10
666.38997821400005
 20
4692.5690325899977
 30
13.0
  0
VERTEX
  5
A3E
  8
DISTRICTS
 10
666.49019607800005
 20
4692.4991673900004
 30
13.0
  0
VERTEX
  5
A3F
  8
DISTRICTS
 10
666.52173595999977
 20
4692.4773269699981
 30
13.0
  0
VERTEX
  5
A40
  8
DISTRICTS
 10
666.59041394300004
 20
4692.4364525600004
 30
13.0
  0
VERTEX
  5
A41
  8
DISTRICTS
 10
666.68132654700003
 20
4692.3770883099978
 30
13.0
  0
VERTEX
  5
A42
  8
DISTRICTS
 10
666.69063180800003
 20
4692.371419109998
 30
13.0
  0
VERTEX
  5
A43
  8
DISTRICTS
 10
666.79084967299991
 20
4692.3043156499998
 30
13.0
  0
VERTEX
  5
A44
  8
DISTRICTS
 10
666.82809254300003
 20
4692.2768496400004
 30
13.0
  0
VERTEX
  5
A45
  8
DISTRICTS
 10
666.89106753800002
 20
4692.2308419499977
 30
13.0
  0
VERTEX
  5
A46
  8
DISTRICTS
 10
666.95855422900001
 20
4692.1766109800001
 30
13.0
  0
VERTEX
  5
A47
  8
DISTRICTS
 10
666.99128540300001
 20
4692.1499505299998
 30
13.0
  0
VERTEX
  5
A48
  8
DISTRICTS
 10
667.07489782799996
 20
4692.076372319998
 30
13.0
  0
VERTEX
  5
A49
  8
DISTRICTS
 10
667.09150326799988
 20
4692.06134982
 30
13.0
  0
VERTEX
  5
A4A
  8
DISTRICTS
 10
667.18038044900004
 20
4691.9761336499978
 30
13.0
  0
VERTEX
  5
A4B
  8
DISTRICTS
 10
667.19172113299999
 20
4691.9649075300003
 30
13.0
  0
VERTEX
  5
A4C
  8
DISTRICTS
 10
667.27772370299999
 20
4691.8758949900002
 30
13.0
  0
VERTEX
  5
A4D
  8
DISTRICTS
 10
667.29193899799975
 20
4691.8607517600003
 30
13.0
  0
VERTEX
  5
A4E
  8
DISTRICTS
 10
667.368668125
 20
4691.7756563199991
 30
13.0
  0
VERTEX
  5
A4F
  8
DISTRICTS
 10
667.39215686299997
 20
4691.7488632900004
 30
13.0
  0
VERTEX
  5
A50
  8
DISTRICTS
 10
667.45406239099975
 20
4691.6754176599989
 30
13.0
  0
VERTEX
  5
A51
  8
DISTRICTS
 10
667.49237472800007
 20
4691.6285026200003
 30
13.0
  0
VERTEX
  5
A52
  8
DISTRICTS
 10
667.53438332400003
 20
4691.5751789999986
 30
13.0
  0
VERTEX
  5
A53
  8
DISTRICTS
 10
667.59259259299995
 20
4691.4990080799998
 30
13.0
  0
VERTEX
  5
A54
  8
DISTRICTS
 10
667.61028321699985
 20
4691.4749403300002
 30
13.0
  0
VERTEX
  5
A55
  8
DISTRICTS
 10
667.68265367200001
 20
4691.3747016699999
 30
13.0
  0
VERTEX
  5
A56
  8
DISTRICTS
 10
667.69281045800005
 20
4691.3607456899999
 30
13.0
  0
VERTEX
  5
A57
  8
DISTRICTS
 10
667.75173309699994
 20
4691.2744630099996
 30
13.0
  0
VERTEX
  5
A58
  8
DISTRICTS
 10
667.79302832199994
 20
4691.2114500600001
 30
13.0
  0
VERTEX
  5
A59
  8
DISTRICTS
 10
667.81550024900002
 20
4691.1742243400004
 30
13.0
  0
VERTEX
  5
A5A
  8
DISTRICTS
 10
667.87214902599999
 20
4691.0739856800001
 30
13.0
  0
VERTEX
  5
A5B
  8
DISTRICTS
 10
667.89324618699993
 20
4691.0298686999977
 30
13.0
  0
VERTEX
  5
A5C
  8
DISTRICTS
 10
667.918298187
 20
4690.9737470199998
 30
13.0
  0
VERTEX
  5
A5D
  8
DISTRICTS
 10
667.95086923500003
 20
4690.8735083499996
 30
13.0
  0
VERTEX
  5
A5E
  8
DISTRICTS
 10
667.965443252
 20
4690.7732696900011
 30
13.0
  0
VERTEX
  5
A5F
  8
DISTRICTS
 10
667.96221373299988
 20
4690.6730310299999
 30
13.0
  0
VERTEX
  5
A60
  8
DISTRICTS
 10
667.93867189699995
 20
4690.5727923599998
 30
13.0
  0
VERTEX
  5
A61
  8
DISTRICTS
 10
667.89324618699993
 20
4690.48098983
 30
13.0
  0
VERTEX
  5
A62
  8
DISTRICTS
 10
667.81463364299998
 20
4690.3723150400001
 30
13.0
  0
VERTEX
  5
A63
  8
DISTRICTS
 10
667.79302832199994
 20
4690.3485194300001
 30
13.0
  0
VERTEX
  5
A64
  8
DISTRICTS
 10
667.69983425199996
 20
4690.2720763699999
 30
13.0
  0
VERTEX
  5
A65
  8
DISTRICTS
 10
667.59259259299995
 20
4690.19990022
 30
13.0
  0
VERTEX
  5
A66
  8
DISTRICTS
 10
667.53588184599994
 20
4690.1718377099987
 30
13.0
  0
VERTEX
  5
A67
  8
DISTRICTS
 10
667.49237472800007
 20
4690.1457540199999
 30
13.0
  0
VERTEX
  5
A68
  8
DISTRICTS
 10
667.39215686299997
 20
4690.0939070000004
 30
13.0
  0
VERTEX
  5
A69
  8
DISTRICTS
 10
667.34586412699969
 20
4690.0715990500003
 30
13.0
  0
VERTEX
  5
A6A
  8
DISTRICTS
 10
667.29193899799975
 20
4690.0418984999978
 30
13.0
  0
VERTEX
  5
A6B
  8
DISTRICTS
 10
667.19172113299999
 20
4689.9893091100002
 30
13.0
  0
VERTEX
  5
A6C
  8
DISTRICTS
 10
667.156713448
 20
4689.9713603800001
 30
13.0
  0
VERTEX
  5
A6D
  8
DISTRICTS
 10
667.09150326799988
 20
4689.9355267299989
 30
13.0
  0
VERTEX
  5
A6E
  8
DISTRICTS
 10
666.99128540300001
 20
4689.8830684499999
 30
13.0
  0
VERTEX
  5
A6F
  8
DISTRICTS
 10
666.96759634
 20
4689.871121719998
 30
13.0
  0
VERTEX
  5
A70
  8
DISTRICTS
 10
666.89106753800002
 20
4689.8310549899988
 30
13.0
  0
VERTEX
  5
A71
  8
DISTRICTS
 10
666.79084967299991
 20
4689.7828097800002
 30
13.0
  0
VERTEX
  5
A72
  8
DISTRICTS
 10
666.76412458499976
 20
4689.7708830499978
 30
13.0
  0
VERTEX
  5
A73
  8
DISTRICTS
 10
666.69063180800003
 20
4689.7369326000007
 30
13.0
  0
VERTEX
  5
A74
  8
DISTRICTS
 10
666.59041394300004
 20
4689.6957909499997
 30
13.0
  0
VERTEX
  5
A75
  8
DISTRICTS
 10
666.51989852899987
 20
4689.6706443900002
 30
13.0
  0
VERTEX
  5
A76
  8
DISTRICTS
 10
666.49019607800005
 20
4689.6594930600004
 30
13.0
  0
VERTEX
  5
A77
  8
DISTRICTS
 10
666.38997821400005
 20
4689.6265902100004
 30
13.0
  0
VERTEX
  5
A78
  8
DISTRICTS
 10
666.28976034900006
 20
4689.5994920000012
 30
13.0
  0
VERTEX
  5
A79
  8
DISTRICTS
 10
666.18954248399996
 20
4689.5778908299999
 30
13.0
  0
VERTEX
  5
A7A
  8
DISTRICTS
 10
666.144501988
 20
4689.5704057299999
 30
13.0
  0
VERTEX
  5
A7B
  8
DISTRICTS
 10
666.08932461899985
 20
4689.5602535099979
 30
13.0
  0
VERTEX
  5
A7C
  8
DISTRICTS
 10
665.98910675399998
 20
4689.5469837299988
 30
13.0
  0
VERTEX
  5
A7D
  8
DISTRICTS
 10
665.88888888899987
 20
4689.538796419999
 30
13.0
  0
VERTEX
  5
A7E
  8
DISTRICTS
 10
665.78867102399977
 20
4689.5355292399991
 30
13.0
  0
VERTEX
  5
A7F
  8
DISTRICTS
 10
665.68845315900001
 20
4689.5371077700001
 30
13.0
  0
VERTEX
  5
A80
  8
DISTRICTS
 10
665.5882352939999
 20
4689.5435578699999
 30
13.0
  0
VERTEX
  5
A81
  8
DISTRICTS
 10
665.48801742900002
 20
4689.5550134699979
 30
13.0
  0
SEQEND
  5
A82
  8
DISTRICTS
  0
POLYLINE
  5
29
  8
DISTRICTS
 66
     1
 10
0.0
 20
0.0
 30
10.0
 70
     1
  0
VERTEX
  5
A83
  8
DISTRICTS
 10
656.93721059618611
 20
4691.9902811631036
 30
10.0
  0
VERTEX
  5
A84
  8
DISTRICTS
 10
656.31150840891848
 20
4691.5731279111342
 30
10.0
  0
VERTEX
  5
A85
  8
DISTRICTS
 10
655.46623093699998
 20
4691.0898550100001
 30
10.0
  0
VERTEX
  5
A86
  8
DISTRICTS
 10
655.40885590699997
 20
4691.1742243400004
 30
10.0
  0
VERTEX
  5
A87
  8
DISTRICTS
 10
655.36601307199987
 20
4691.2358349200003
 30
10.0
  0
VERTEX
  5
A88
  8
DISTRICTS
 10
655.33787764899978
 20
4691.2744630099996
 30
10.0
  0
VERTEX
  5
A89
  8
DISTRICTS
 10
655.26579520699977
 20
4691.3710434699997
 30
10.0
  0
VERTEX
  5
A8A
  8
DISTRICTS
 10
655.18319323000003
 20
4691.4749403300002
 30
10.0
  0
VERTEX
  5
A8B
  8
DISTRICTS
 10
655.16557734200001
 20
4691.4964539499997
 30
10.0
  0
VERTEX
  5
A8C
  8
DISTRICTS
 10
655.09947955099994
 20
4691.5751789999986
 30
10.0
  0
VERTEX
  5
A8D
  8
DISTRICTS
 10
655.0653594769999
 20
4691.6147601299999
 30
10.0
  0
VERTEX
  5
A8E
  8
DISTRICTS
 10
655.01216427700001
 20
4691.6754176599989
 30
10.0
  0
VERTEX
  5
A8F
  8
DISTRICTS
 10
654.96514161200002
 20
4691.7277702700003
 30
10.0
  0
VERTEX
  5
A90
  8
DISTRICTS
 10
654.92169296999998
 20
4691.7756563199991
 30
10.0
  0
VERTEX
  5
A91
  8
DISTRICTS
 10
654.86492374699992
 20
4691.8369166700004
 30
10.0
  0
VERTEX
  5
A92
  8
DISTRICTS
 10
654.82866191199969
 20
4691.8758949900002
 30
10.0
  0
VERTEX
  5
A93
  8
DISTRICTS
 10
654.76470588199993
 20
4691.9434093
 30
10.0
  0
VERTEX
  5
A94
  8
DISTRICTS
 10
654.73375293499998
 20
4691.9761336499978
 30
10.0
  0
VERTEX
  5
A95
  8
DISTRICTS
 10
654.66448801699994
 20
4692.0482765200004
 30
10.0
  0
VERTEX
  5
A96
  8
DISTRICTS
 10
654.63767791299995
 20
4692.076372319998
 30
10.0
  0
VERTEX
  5
A97
  8
DISTRICTS
 10
654.56427015300005
 20
4692.1524081699999
 30
10.0
  0
VERTEX
  5
A98
  8
DISTRICTS
 10
654.54113701000006
 20
4692.1766109800001
 30
10.0
  0
VERTEX
  5
A99
  8
DISTRICTS
 10
654.46405228799995
 20
4692.2565967800001
 30
10.0
  0
VERTEX
  5
A9A
  8
DISTRICTS
 10
654.44479094099995
 20
4692.2768496400004
 30
10.0
  0
VERTEX
  5
A9B
  8
DISTRICTS
 10
654.36383442299996
 20
4692.3615757600001
 30
10.0
  0
VERTEX
  5
A9C
  8
DISTRICTS
 10
654.34924514500005
 20
4692.3770883099978
 30
10.0
  0
VERTEX
  5
A9D
  8
DISTRICTS
 10
654.26361655800008
 20
4692.468054779999
 30
10.0
  0
VERTEX
  5
A9E
  8
DISTRICTS
 10
654.25504292800008
 20
4692.4773269699981
 30
10.0
  0
VERTEX
  5
A9F
  8
DISTRICTS
 10
654.16339869299986
 20
4692.5767539999997
 30
10.0
  0
VERTEX
  5
AA0
  8
DISTRICTS
 10
654.07230368900002
 20
4692.6778043000004
 30
10.0
  0
VERTEX
  5
AA1
  8
DISTRICTS
 10
654.06318082799976
 20
4692.6880115000004
 30
10.0
  0
VERTEX
  5
AA2
  8
DISTRICTS
 10
653.98444679299996
 20
4692.7780429599989
 30
10.0
  0
VERTEX
  5
AA3
  8
DISTRICTS
 10
653.962962963
 20
4692.8029568100001
 30
10.0
  0
VERTEX
  5
AA4
  8
DISTRICTS
 10
653.8994077399999
 20
4692.8782816199991
 30
10.0
  0
VERTEX
  5
AA5
  8
DISTRICTS
 10
653.86274509799989
 20
4692.9225956
 30
10.0
  0
VERTEX
  5
AA6
  8
DISTRICTS
 10
653.81744630100002
 20
4692.9785202900002
 30
10.0
  0
VERTEX
  5
AA7
  8
DISTRICTS
 10
653.76252723300001
 20
4693.0480920099999
 30
10.0
  0
VERTEX
  5
AA8
  8
DISTRICTS
 10
653.73879842199995
 20
4693.0787589499996
 30
10.0
  0
VERTEX
  5
AA9
  8
DISTRICTS
 10
653.66364574400006
 20
4693.1789976099999
 30
10.0
  0
VERTEX
  5
AAA
  8
DISTRICTS
 10
653.59130996900001
 20
4693.2792362800001
 30
10.0
  0
VERTEX
  5
AAB
  8
DISTRICTS
 10
653.56209150300003
 20
4693.3215336100002
 30
10.0
  0
VERTEX
  5
AAC
  8
DISTRICTS
 10
653.52269313599993
 20
4693.3794749400013
 30
10.0
  0
VERTEX
  5
AAD
  8
DISTRICTS
 10
653.46187363800004
 20
4693.4736716699999
 30
10.0
  0
VERTEX
  5
AAE
  8
DISTRICTS
 10
653.39610044599999
 20
4693.5799522699999
 30
10.0
  0
VERTEX
  5
AAF
  8
DISTRICTS
 10
653.36165577300005
 20
4693.6393385700003
 30
10.0
  0
VERTEX
  5
AB0
  8
DISTRICTS
 10
653.33814817799998
 20
4693.6801909300002
 30
10.0
  0
VERTEX
  5
AB1
  8
DISTRICTS
 10
653.28359707399977
 20
4693.7804295899978
 30
10.0
  0
VERTEX
  5
AB2
  8
DISTRICTS
 10
653.26143790799995
 20
4693.8237736499996
 30
10.0
  0
VERTEX
  5
AB3
  8
DISTRICTS
 10
653.232408158
 20
4693.8806682599989
 30
10.0
  0
VERTEX
  5
AB4
  8
DISTRICTS
 10
653.18477015600001
 20
4693.9809069200001
 30
10.0
  0
VERTEX
  5
AB5
  8
DISTRICTS
 10
653.16122004399995
 20
4694.0343528599997
 30
10.0
  0
VERTEX
  5
AB6
  8
DISTRICTS
 10
653.14049679499999
 20
4694.0811455800003
 30
10.0
  0
VERTEX
  5
AB7
  8
DISTRICTS
 10
653.09931010800005
 20
4694.1813842499996
 30
10.0
  0
VERTEX
  5
AB8
  8
DISTRICTS
 10
653.06223371299996
 20
4694.2816229099999
 30
10.0
  0
VERTEX
  5
AB9
  8
DISTRICTS
 10
653.02718265299995
 20
4694.381861580001
 30
10.0
  0
VERTEX
  5
ABA
  8
DISTRICTS
 10
652.99589900699993
 20
4694.4821002400013
 30
10.0
  0
VERTEX
  5
ABB
  8
DISTRICTS
 10
652.968279306
 20
4694.5823388999997
 30
10.0
  0
VERTEX
  5
ABC
  8
DISTRICTS
 10
652.96078431399985
 20
4694.6127340700004
 30
10.0
  0
VERTEX
  5
ABD
  8
DISTRICTS
 10
652.94307381300007
 20
4694.6825775699999
 30
10.0
  0
VERTEX
  5
ABE
  8
DISTRICTS
 10
652.92086781999978
 20
4694.7828162300002
 30
10.0
  0
VERTEX
  5
ABF
  8
DISTRICTS
 10
652.90199643699975
 20
4694.8830548899996
 30
10.0
  0
VERTEX
  5
AC0
  8
DISTRICTS
 10
652.8863341
 20
4694.9832935599989
 30
10.0
  0
VERTEX
  5
AC1
  8
DISTRICTS
 10
652.87377067199998
 20
4695.0835322199991
 30
10.0
  0
VERTEX
  5
AC2
  8
DISTRICTS
 10
652.864213533
 20
4695.1837708800003
 30
10.0
  0
VERTEX
  5
AC3
  8
DISTRICTS
 10
652.86056644899975
 20
4695.2385091799997
 30
10.0
  0
VERTEX
  5
AC4
  8
DISTRICTS
 10
652.85737380800003
 20
4695.2840095499987
 30
10.0
  0
VERTEX
  5
AC5
  8
DISTRICTS
 10
652.85335501400004
 20
4695.384248209999
 30
10.0
  0
VERTEX
  5
AC6
  8
DISTRICTS
 10
652.85239750000005
 20
4695.4844868699984
 30
10.0
  0
VERTEX
  5
AC7
  8
DISTRICTS
 10
652.85450471199977
 20
4695.5847255400004
 30
10.0
  0
VERTEX
  5
AC8
  8
DISTRICTS
 10
652.85970521499985
 20
4695.6849641999997
 30
10.0
  0
VERTEX
  5
AC9
  8
DISTRICTS
 10
652.86056644899975
 20
4695.695289289999
 30
10.0
  0
VERTEX
  5
ACA
  8
DISTRICTS
 10
652.86753473800002
 20
4695.78520286
 30
10.0
  0
VERTEX
  5
ACB
  8
DISTRICTS
 10
652.87831532500002
 20
4695.8854415300002
 30
10.0
  0
VERTEX
  5
ACC
  8
DISTRICTS
 10
652.89221793000002
 20
4695.9856801899978
 30
10.0
  0
VERTEX
  5
ACD
  8
DISTRICTS
 10
652.90938342900006
 20
4696.0859188499999
 30
10.0
  0
VERTEX
  5
ACE
  8
DISTRICTS
 10
652.92998212099985
 20
4696.1861575200001
 30
10.0
  0
VERTEX
  5
ACF
  8
DISTRICTS
 10
652.95421312099995
 20
4696.2863961800003
 30
10.0
  0
VERTEX
  5
AD0
  8
DISTRICTS
 10
652.96078431399985
 20
4696.3101835099988
 30
10.0
  0
VERTEX
  5
AD1
  8
DISTRICTS
 10
652.98088120299997
 20
4696.3866348399979
 30
10.0
  0
VERTEX
  5
AD2
  8
DISTRICTS
 10
653.01104001500005
 20
4696.486873509999
 30
10.0
  0
VERTEX
  5
AD3
  8
DISTRICTS
 10
653.04542908799976
 20
4696.5871121700002
 30
10.0
  0
VERTEX
  5
AD4
  8
DISTRICTS
 10
653.06100217900007
 20
4696.6279096899998
 30
10.0
  0
VERTEX
  5
AD5
  8
DISTRICTS
 10
653.08291960199995
 20
4696.6873508400004
 30
10.0
  0
VERTEX
  5
AD6
  8
DISTRICTS
 10
653.124181325
 20
4696.7875894999997
 30
10.0
  0
VERTEX
  5
AD7
  8
DISTRICTS
 10
653.16122004399995
 20
4696.8681613799999
 30
10.0
  0
VERTEX
  5
AD8
  8
DISTRICTS
 10
653.17005405800001
 20
4696.88782816
 30
10.0
  0
VERTEX
  5
AD9
  8
DISTRICTS
 10
653.21916367599999
 20
4696.9880668300002
 30
10.0
  0
VERTEX
  5
ADA
  8
DISTRICTS
 10
653.26143790799995
 20
4697.0658175099998
 30
10.0
  0
VERTEX
  5
ADB
  8
DISTRICTS
 10
653.27353421999976
 20
4697.0883054899996
 30
10.0
  0
VERTEX
  5
ADC
  8
DISTRICTS
 10
653.33192462599993
 20
4697.1885441499999
 30
10.0
  0
VERTEX
  5
ADD
  8
DISTRICTS
 10
653.36165577300005
 20
4697.2354464299979
 30
10.0
  0
VERTEX
  5
ADE
  8
DISTRICTS
 10
653.39553677599986
 20
4697.2887828200001
 30
10.0
  0
VERTEX
  5
ADF
  8
DISTRICTS
 10
653.46187363800004
 20
4697.3845558100002
 30
10.0
  0
VERTEX
  5
AE0
  8
DISTRICTS
 10
653.53951660199994
 20
4697.4892601399997
 30
10.0
  0
VERTEX
  5
AE1
  8
DISTRICTS
 10
653.56209150300003
 20
4697.5176447699978
 30
10.0
  0
VERTEX
  5
AE2
  8
DISTRICTS
 10
653.62060575199985
 20
4697.5894988099999
 30
10.0
  0
VERTEX
  5
AE3
  8
DISTRICTS
 10
653.66230936800002
 20
4697.6376675600013
 30
10.0
  0
VERTEX
  5
AE4
  8
DISTRICTS
 10
653.70888294700001
 20
4697.6897374700002
 30
10.0
  0
VERTEX
  5
AE5
  8
DISTRICTS
 10
653.76252723300001
 20
4697.7466597199991
 30
10.0
  0
VERTEX
  5
AE6
  8
DISTRICTS
 10
653.80508622399975
 20
4697.7899761299986
 30
10.0
  0
VERTEX
  5
AE7
  8
DISTRICTS
 10
653.86274509799989
 20
4697.846178249998
 30
10.0
  0
VERTEX
  5
AE8
  8
DISTRICTS
 10
653.91027998499999
 20
4697.8902147999997
 30
10.0
  0
VERTEX
  5
AE9
  8
DISTRICTS
 10
653.962962963
 20
4697.9373734500023
 30
10.0
  0
VERTEX
  5
AEA
  8
DISTRICTS
 10
654.02592966899999
 20
4697.99045346
 30
10.0
  0
VERTEX
  5
AEB
  8
DISTRICTS
 10
654.06318082799976
 20
4698.0210601400004
 30
10.0
  0
VERTEX
  5
AEC
  8
DISTRICTS
 10
654.15399488699995
 20
4698.0906921200003
 30
10.0
  0
VERTEX
  5
AED
  8
DISTRICTS
 10
654.16339869299986
 20
4698.0977787499987
 30
10.0
  0
VERTEX
  5
AEE
  8
DISTRICTS
 10
654.26361655800008
 20
4698.1689159099997
 30
10.0
  0
VERTEX
  5
AEF
  8
DISTRICTS
 10
654.29722659799995
 20
4698.1909307899996
 30
10.0
  0
VERTEX
  5
AF0
  8
DISTRICTS
 10
654.36383442299996
 20
4698.2343435900011
 30
10.0
  0
VERTEX
  5
AF1
  8
DISTRICTS
 10
654.45970684300005
 20
4698.2911694499999
 30
10.0
  0
VERTEX
  5
AF2
  8
DISTRICTS
 10
654.56427015300005
 20
4698.3494042299999
 30
10.0
  0
VERTEX
  5
AF3
  8
DISTRICTS
 10
654.64877897999975
 20
4698.3914081100002
 30
10.0
  0
VERTEX
  5
AF4
  8
DISTRICTS
 10
654.66448801699994
 20
4698.3993260300003
 30
10.0
  0
VERTEX
  5
AF5
  8
DISTRICTS
 10
654.76470588199993
 20
4698.4458575600001
 30
10.0
  0
VERTEX
  5
AF6
  8
DISTRICTS
 10
654.86492374699992
 20
4698.4870533000003
 30
10.0
  0
VERTEX
  5
AF7
  8
DISTRICTS
 10
654.87724220599978
 20
4698.4916467800003
 30
10.0
  0
VERTEX
  5
AF8
  8
DISTRICTS
 10
654.96514161200002
 20
4698.5253960399987
 30
10.0
  0
VERTEX
  5
AF9
  8
DISTRICTS
 10
655.0653594769999
 20
4698.5593333699999
 30
10.0
  0
VERTEX
  5
AFA
  8
DISTRICTS
 10
655.16557734200001
 20
4698.58891709
 30
10.0
  0
VERTEX
  5
AFB
  8
DISTRICTS
 10
655.17698775699989
 20
4698.5918854399988
 30
10.0
  0
VERTEX
  5
AFC
  8
DISTRICTS
 10
655.26579520699977
 20
4698.6159972900023
 30
10.0
  0
VERTEX
  5
AFD
  8
DISTRICTS
 10
655.36601307199987
 20
4698.6393055099979
 30
10.0
  0
VERTEX
  5
AFE
  8
DISTRICTS
 10
655.46623093699998
 20
4698.6588787800001
 30
10.0
  0
VERTEX
  5
AFF
  8
DISTRICTS
 10
655.56644880199985
 20
4698.67492141
 30
10.0
  0
VERTEX
  5
B00
  8
DISTRICTS
 10
655.66666666699984
 20
4698.6876062499996
 30
10.0
  0
VERTEX
  5
B01
  8
DISTRICTS
 10
655.71432137999977
 20
4698.692124109999
 30
10.0
  0
VERTEX
  5
B02
  8
DISTRICTS
 10
655.76688453199995
 20
4698.6974185600011
 30
10.0
  0
VERTEX
  5
B03
  8
DISTRICTS
 10
655.86710239699994
 20
4698.7042228399987
 30
10.0
  0
VERTEX
  5
B04
  8
DISTRICTS
 10
655.96732026099994
 20
4698.7077900599998
 30
10.0
  0
VERTEX
  5
B05
  8
DISTRICTS
 10
656.06753812599993
 20
4698.7081778399988
 30
10.0
  0
VERTEX
  5
B06
  8
DISTRICTS
 10
656.16775599100004
 20
4698.7054189399996
 30
10.0
  0
VERTEX
  5
B07
  8
DISTRICTS
 10
656.26797385599991
 20
4698.699523100001
 30
10.0
  0
VERTEX
  5
B08
  8
DISTRICTS
 10
656.35011786600001
 20
4698.692124109999
 30
10.0
  0
VERTEX
  5
B09
  8
DISTRICTS
 10
656.36819172100002
 20
4698.6905804799999
 30
10.0
  0
VERTEX
  5
B0A
  8
DISTRICTS
 10
656.46840958600001
 20
4698.6790970599995
 30
10.0
  0
VERTEX
  5
B0B
  8
DISTRICTS
 10
656.56862745099988
 20
4698.6645511899997
 30
10.0
  0
VERTEX
  5
B0C
  8
DISTRICTS
 10
656.66884531599999
 20
4698.6468703700011
 30
10.0
  0
VERTEX
  5
B0D
  8
DISTRICTS
 10
656.76906318099975
 20
4698.6259707600011
 30
10.0
  0
VERTEX
  5
B0E
  8
DISTRICTS
 10
656.86928104599986
 20
4698.6017601800004
 30
10.0
  0
VERTEX
  5
B0F
  8
DISTRICTS
 10
656.90567132699994
 20
4698.5918854399988
 30
10.0
  0
VERTEX
  5
B10
  8
DISTRICTS
 10
656.96949891099985
 20
4698.5751041399999
 30
10.0
  0
VERTEX
  5
B11
  8
DISTRICTS
 10
657.06971677599995
 20
4698.5455870400001
 30
10.0
  0
VERTEX
  5
B12
  8
DISTRICTS
 10
657.16993464099994
 20
4698.5125447999981
 30
10.0
  0
VERTEX
  5
B13
  8
DISTRICTS
 10
657.22776335000003
 20
4698.4916467800003
 30
10.0
  0
VERTEX
  5
B14
  8
DISTRICTS
 10
657.27015250500017
 20
4698.4766493200004
 30
10.0
  0
VERTEX
  5
B15
  8
DISTRICTS
 10
657.37037037000005
 20
4698.438142789998
 30
10.0
  0
VERTEX
  5
B16
  8
DISTRICTS
 10
657.47058823500004
 20
4698.3958490000014
 30
10.0
  0
VERTEX
  5
B17
  8
DISTRICTS
 10
657.48051882499999
 20
4698.3914081100002
 30
10.0
  0
VERTEX
  5
B18
  8
DISTRICTS
 10
657.57080610000003
 20
4698.3515287600003
 30
10.0
  0
VERTEX
  5
B19
  8
DISTRICTS
 10
657.67102396500002
 20
4698.3034728299999
 30
10.0
  0
VERTEX
  5
B1A
  8
DISTRICTS
 10
657.69533836000016
 20
4698.2911694499999
 30
10.0
  0
VERTEX
  5
B1B
  8
DISTRICTS
 10
657.77124182999989
 20
4698.2530331300004
 30
10.0
  0
VERTEX
  5
B1C
  8
DISTRICTS
 10
657.871459695
 20
4698.199044179999
 30
10.0
  0
VERTEX
  5
B1D
  8
DISTRICTS
 10
657.88588581600004
 20
4698.1909307899996
 30
10.0
  0
VERTEX
  5
B1E
  8
DISTRICTS
 10
657.97167755999976
 20
4698.1428265799977
 30
10.0
  0
VERTEX
  5
B1F
  8
DISTRICTS
 10
658.05905888699976
 20
4698.0906921200003
 30
10.0
  0
VERTEX
  5
B20
  8
DISTRICTS
 10
658.07189542499987
 20
4698.0830383800003
 30
10.0
  0
VERTEX
  5
B21
  8
DISTRICTS
 10
658.17211328999997
 20
4698.0210095700004
 30
10.0
  0
VERTEX
  5
B22
  8
DISTRICTS
 10
658.21921008699985
 20
4697.99045346
 30
10.0
  0
VERTEX
  5
B23
  8
DISTRICTS
 10
658.27233115499985
 20
4697.9559393999989
 30
10.0
  0
VERTEX
  5
B24
  8
DISTRICTS
 10
658.36890495300008
 20
4697.8902147999997
 30
10.0
  0
VERTEX
  5
B25
  8
DISTRICTS
 10
658.47276688500017
 20
4697.8174408699988
 30
10.0
  0
VERTEX
  5
B26
  8
DISTRICTS
 10
658.51044224899977
 20
4697.7899761299986
 30
10.0
  0
VERTEX
  5
B27
  8
DISTRICTS
 10
658.57298474900006
 20
4697.7442361999983
 30
10.0
  0
VERTEX
  5
B28
  8
DISTRICTS
 10
658.64481851699998
 20
4697.6897374700002
 30
10.0
  0
VERTEX
  5
B29
  8
DISTRICTS
 10
658.67320261400005
 20
4697.668126399999
 30
10.0
  0
VERTEX
  5
B2A
  8
DISTRICTS
 10
658.77342047900004
 20
4697.5891664999999
 30
10.0
  0
VERTEX
  5
B2B
  8
DISTRICTS
 10
658.70308118409127
 20
4697.4271783235599
 30
10.0
  0
VERTEX
  5
B2C
  8
DISTRICTS
 10
658.32765998549633
 20
4696.9265944211938
 30
10.0
  0
VERTEX
  5
B2D
  8
DISTRICTS
 10
657.92442955641513
 20
4696.3425798684339
 30
10.0
  0
VERTEX
  5
B2E
  8
DISTRICTS
 10
657.56291278345373
 20
4695.7029449508709
 30
10.0
  0
VERTEX
  5
B2F
  8
DISTRICTS
 10
657.29872736914751
 20
4695.244076425296
 30
10.0
  0
VERTEX
  5
B30
  8
DISTRICTS
 10
657.11796907747134
 20
4694.437580103755
 30
10.0
  0
VERTEX
  5
B31
  8
DISTRICTS
 10
656.95111521142917
 20
4693.7562299125893
 30
10.0
  0
VERTEX
  5
B32
  8
DISTRICTS
 10
656.72864326363322
 20
4693.325171569415
 30
10.0
  0
VERTEX
  5
B33
  8
DISTRICTS
 10
656.66884531599999
 20
4692.762373999999
 30
10.0
  0
SEQEND
  5
B34
  8
DISTRICTS
  0
POLYLINE
  5
2A
  8
DISTRICTS
 66
     1
 10
0.0
 20
0.0
 30
12.0
 70
     1
  0
VERTEX
  5
B35
  8
DISTRICTS
 10
656.93721059618611
 20
4691.9902811631036
 30
12.0
  0
VERTEX
  5
B36
  8
DISTRICTS
 10
656.31150840891848
 20
4691.5731279111342
 30
12.0
  0
VERTEX
  5
B37
  8
DISTRICTS
 10
655.46623093699998
 20
4691.0898550100001
 30
12.0
  0
VERTEX
  5
B38
  8
DISTRICTS
 10
655.47644207899975
 20
4691.0739856800001
 30
12.0
  0
VERTEX
  5
B39
  8
DISTRICTS
 10
655.53981649499985
 20
4690.9737470199998
 30
12.0
  0
VERTEX
  5
B3A
  8
DISTRICTS
 10
655.56644880199985
 20
4690.9312838699989
 30
12.0
  0
VERTEX
  5
B3B
  8
DISTRICTS
 10
655.60039397000003
 20
4690.8735083499996
 30
12.0
  0
VERTEX
  5
B3C
  8
DISTRICTS
 10
655.659389885
 20
4690.7732696900011
 30
12.0
  0
VERTEX
  5
B3D
  8
DISTRICTS
 10
655.66666666699984
 20
4690.7610637500002
 30
12.0
  0
VERTEX
  5
B3E
  8
DISTRICTS
 10
655.71553249800002
 20
4690.6730310299999
 30
12.0
  0
VERTEX
  5
B3F
  8
DISTRICTS
 10
655.76688453199995
 20
4690.5831834999999
 30
12.0
  0
VERTEX
  5
B40
  8
DISTRICTS
 10
655.77238833599995
 20
4690.5727923599998
 30
12.0
  0
VERTEX
  5
B41
  8
DISTRICTS
 10
655.82765892500004
 20
4690.4725537000004
 30
12.0
  0
VERTEX
  5
B42
  8
DISTRICTS
 10
655.86710239699994
 20
4690.4050606600003
 30
12.0
  0
VERTEX
  5
B43
  8
DISTRICTS
 10
655.88488693599993
 20
4690.3723150400001
 30
12.0
  0
VERTEX
  5
B44
  8
DISTRICTS
 10
655.94323043600002
 20
4690.2720763699999
 30
12.0
  0
VERTEX
  5
B45
  8
DISTRICTS
 10
655.96732026099994
 20
4690.23376207
 30
12.0
  0
VERTEX
  5
B46
  8
DISTRICTS
 10
656.003879267
 20
4690.1718377099987
 30
12.0
  0
VERTEX
  5
B47
  8
DISTRICTS
 10
656.06753812599993
 20
4690.0742886599992
 30
12.0
  0
VERTEX
  5
B48
  8
DISTRICTS
 10
656.136803633
 20
4689.9713603800001
 30
12.0
  0
VERTEX
  5
B49
  8
DISTRICTS
 10
656.16775599100004
 20
4689.9300469199989
 30
12.0
  0
VERTEX
  5
B4A
  8
DISTRICTS
 10
656.21049120099985
 20
4689.871121719998
 30
12.0
  0
VERTEX
  5
B4B
  8
DISTRICTS
 10
656.26797385599991
 20
4689.8000265700002
 30
12.0
  0
VERTEX
  5
B4C
  8
DISTRICTS
 10
656.29115163599977
 20
4689.7708830499978
 30
12.0
  0
VERTEX
  5
B4D
  8
DISTRICTS
 10
656.36819172100002
 20
4689.6836842599987
 30
12.0
  0
VERTEX
  5
B4E
  8
DISTRICTS
 10
656.37974532400006
 20
4689.6706443900002
 30
12.0
  0
VERTEX
  5
B4F
  8
DISTRICTS
 10
656.46840958600001
 20
4689.5797405200001
 30
12.0
  0
VERTEX
  5
B50
  8
DISTRICTS
 10
656.47774270000002
 20
4689.5704057299999
 30
12.0
  0
VERTEX
  5
B51
  8
DISTRICTS
 10
656.56862745099988
 20
4689.4866991699992
 30
12.0
  0
VERTEX
  5
B52
  8
DISTRICTS
 10
656.58746254699997
 20
4689.4701670599998
 30
12.0
  0
VERTEX
  5
B53
  8
DISTRICTS
 10
656.66884531599999
 20
4689.40329492
 30
12.0
  0
VERTEX
  5
B54
  8
DISTRICTS
 10
656.71247869900003
 20
4689.3699283999977
 30
12.0
  0
VERTEX
  5
B55
  8
DISTRICTS
 10
656.76906318099975
 20
4689.3287010100003
 30
12.0
  0
VERTEX
  5
B56
  8
DISTRICTS
 10
656.85815297800002
 20
4689.2696897400001
 30
12.0
  0
VERTEX
  5
B57
  8
DISTRICTS
 10
656.86928104599986
 20
4689.2625445800004
 30
12.0
  0
VERTEX
  5
B58
  8
DISTRICTS
 10
656.96949891099985
 20
4689.2025174800001
 30
12.0
  0
VERTEX
  5
B59
  8
DISTRICTS
 10
657.03215099699992
 20
4689.169451069999
 30
12.0
  0
VERTEX
  5
B5A
  8
DISTRICTS
 10
657.06971677599995
 20
4689.1497498799999
 30
12.0
  0
VERTEX
  5
B5B
  8
DISTRICTS
 10
657.16993464099994
 20
4689.1025117099989
 30
12.0
  0
VERTEX
  5
B5C
  8
DISTRICTS
 10
657.25227157399991
 20
4689.0692124099978
 30
12.0
  0
VERTEX
  5
B5D
  8
DISTRICTS
 10
657.27015250500017
 20
4689.0618552699998
 30
12.0
  0
VERTEX
  5
B5E
  8
DISTRICTS
 10
657.37037037000005
 20
4689.0250933699999
 30
12.0
  0
VERTEX
  5
B5F
  8
DISTRICTS
 10
657.47058823500004
 20
4688.9944284699986
 30
12.0
  0
VERTEX
  5
B60
  8
DISTRICTS
 10
657.57080610000003
 20
4688.9693667199999
 30
12.0
  0
VERTEX
  5
B61
  8
DISTRICTS
 10
657.67102396500002
 20
4688.9473974599978
 30
12.0
  0
VERTEX
  5
B62
  8
DISTRICTS
 10
657.77124182999989
 20
4688.9305524600004
 30
12.0
  0
VERTEX
  5
B63
  8
DISTRICTS
 10
657.871459695
 20
4688.9186358500001
 30
12.0
  0
VERTEX
  5
B64
  8
DISTRICTS
 10
657.97167755999976
 20
4688.9114918799987
 30
12.0
  0
VERTEX
  5
B65
  8
DISTRICTS
 10
658.07189542499987
 20
4688.9090529900004
 30
12.0
  0
VERTEX
  5
B66
  8
DISTRICTS
 10
658.17211328999997
 20
4688.9113498300003
 30
12.0
  0
VERTEX
  5
B67
  8
DISTRICTS
 10
658.27233115499985
 20
4688.9185220299978
 30
12.0
  0
VERTEX
  5
B68
  8
DISTRICTS
 10
658.37254901999995
 20
4688.9308265700001
 30
12.0
  0
VERTEX
  5
B69
  8
DISTRICTS
 10
658.47276688500017
 20
4688.94863953
 30
12.0
  0
VERTEX
  5
B6A
  8
DISTRICTS
 10
658.55877715199995
 20
4688.9689737500003
 30
12.0
  0
VERTEX
  5
B6B
  8
DISTRICTS
 10
658.57298474900006
 20
4688.9720917200002
 30
12.0
  0
VERTEX
  5
B6C
  8
DISTRICTS
 10
658.67320261400005
 20
4688.9995334100004
 30
12.0
  0
VERTEX
  5
B6D
  8
DISTRICTS
 10
658.77342047900004
 20
4689.0339046000008
 30
12.0
  0
VERTEX
  5
B6E
  8
DISTRICTS
 10
658.85828805000006
 20
4689.0692124099978
 30
12.0
  0
VERTEX
  5
B6F
  8
DISTRICTS
 10
658.87363834400003
 20
4689.075421720001
 30
12.0
  0
VERTEX
  5
B70
  8
DISTRICTS
 10
658.9738562089999
 20
4689.1221253000003
 30
12.0
  0
VERTEX
  5
B71
  8
DISTRICTS
 10
659.05934944399996
 20
4689.169451069999
 30
12.0
  0
VERTEX
  5
B72
  8
DISTRICTS
 10
659.07407407400001
 20
4689.1776814799987
 30
12.0
  0
VERTEX
  5
B73
  8
DISTRICTS
 10
659.174291939
 20
4689.2401366200002
 30
12.0
  0
VERTEX
  5
B74
  8
DISTRICTS
 10
659.21671440699993
 20
4689.2696897400001
 30
12.0
  0
VERTEX
  5
B75
  8
DISTRICTS
 10
659.27450980399988
 20
4689.3118503799997
 30
12.0
  0
VERTEX
  5
B76
  8
DISTRICTS
 10
659.34705017399995
 20
4689.3699283999977
 30
12.0
  0
VERTEX
  5
B77
  8
DISTRICTS
 10
659.37472766899998
 20
4689.3936900799999
 30
12.0
  0
VERTEX
  5
B78
  8
DISTRICTS
 10
659.45849801600002
 20
4689.4701670599998
 30
12.0
  0
VERTEX
  5
B79
  8
DISTRICTS
 10
659.47494553399974
 20
4689.4866242699982
 30
12.0
  0
VERTEX
  5
B7A
  8
DISTRICTS
 10
659.55609430899995
 20
4689.5704057299999
 30
12.0
  0
VERTEX
  5
B7B
  8
DISTRICTS
 10
659.57516339899985
 20
4689.5923796799989
 30
12.0
  0
VERTEX
  5
B7C
  8
DISTRICTS
 10
659.64281438399985
 20
4689.6706443900002
 30
12.0
  0
VERTEX
  5
B7D
  8
DISTRICTS
 10
659.67538126400007
 20
4689.7132493600002
 30
12.0
  0
VERTEX
  5
B7E
  8
DISTRICTS
 10
659.72032598400006
 20
4689.7708830499978
 30
12.0
  0
VERTEX
  5
B7F
  8
DISTRICTS
 10
659.77559912900006
 20
4689.85160077
 30
12.0
  0
VERTEX
  5
B80
  8
DISTRICTS
 10
659.789517047
 20
4689.871121719998
 30
12.0
  0
VERTEX
  5
B81
  8
DISTRICTS
 10
659.85345282799994
 20
4689.9713603800001
 30
12.0
  0
VERTEX
  5
B82
  8
DISTRICTS
 10
659.87581699299994
 20
4690.0112974499989
 30
12.0
  0
VERTEX
  5
B83
  8
DISTRICTS
 10
659.91206825500001
 20
4690.0715990500003
 30
12.0
  0
VERTEX
  5
B84
  8
DISTRICTS
 10
659.96526891899998
 20
4690.1718377099987
 30
12.0
  0
VERTEX
  5
B85
  8
DISTRICTS
 10
659.97603485800016
 20
4690.1945920799999
 30
12.0
  0
VERTEX
  5
B86
  8
DISTRICTS
 10
660.01641824800004
 20
4690.2720763699999
 30
12.0
  0
VERTEX
  5
B87
  8
DISTRICTS
 10
660.06319482599997
 20
4690.3723150400001
 30
12.0
  0
VERTEX
  5
B88
  8
DISTRICTS
 10
660.07625272300004
 20
4690.4032859600002
 30
12.0
  0
VERTEX
  5
B89
  8
DISTRICTS
 10
660.10920078599997
 20
4690.4725537000004
 30
12.0
  0
VERTEX
  5
B8A
  8
DISTRICTS
 10
660.15305622799997
 20
4690.5727923599998
 30
12.0
  0
VERTEX
  5
B8B
  8
DISTRICTS
 10
660.17647058800003
 20
4690.6305837700002
 30
12.0
  0
VERTEX
  5
B8C
  8
DISTRICTS
 10
660.19645438800001
 20
4690.6730310299999
 30
12.0
  0
VERTEX
  5
B8D
  8
DISTRICTS
 10
660.24095242400006
 20
4690.7732696900011
 30
12.0
  0
VERTEX
  5
B8E
  8
DISTRICTS
 10
660.27668845300002
 20
4690.8572373300003
 30
12.0
  0
VERTEX
  5
B8F
  8
DISTRICTS
 10
660.28516345699995
 20
4690.8735083499996
 30
12.0
  0
VERTEX
  5
B90
  8
DISTRICTS
 10
660.33487690499999
 20
4690.9737470199998
 30
12.0
  0
VERTEX
  5
B91
  8
DISTRICTS
 10
660.37690631800001
 20
4691.0608020599993
 30
12.0
  0
VERTEX
  5
B92
  8
DISTRICTS
 10
660.38565541000003
 20
4691.0739856800001
 30
12.0
  0
VERTEX
  5
B93
  8
DISTRICTS
 10
660.44753495199996
 20
4691.1742243400004
 30
12.0
  0
VERTEX
  5
B94
  8
DISTRICTS
 10
660.47712418299989
 20
4691.2283025799989
 30
12.0
  0
VERTEX
  5
B95
  8
DISTRICTS
 10
660.52441734699994
 20
4691.2744630099996
 30
12.0
  0
VERTEX
  5
B96
  8
DISTRICTS
 10
660.57734204799999
 20
4691.3449176599988
 30
12.0
  0
VERTEX
  5
B97
  8
DISTRICTS
 10
660.67755991299975
 20
4691.3448920999999
 30
12.0
  0
VERTEX
  5
B98
  8
DISTRICTS
 10
660.71524214700003
 20
4691.2744630099996
 30
12.0
  0
VERTEX
  5
B99
  8
DISTRICTS
 10
660.77777777799997
 20
4691.2220953000005
 30
12.0
  0
VERTEX
  5
B9A
  8
DISTRICTS
 10
660.80545646600001
 20
4691.1742243400004
 30
12.0
  0
VERTEX
  5
B9B
  8
DISTRICTS
 10
660.87799564300008
 20
4691.1130856
 30
12.0
  0
VERTEX
  5
B9C
  8
DISTRICTS
 10
660.91481534699994
 20
4691.0739856800001
 30
12.0
  0
VERTEX
  5
B9D
  8
DISTRICTS
 10
660.97821350799995
 20
4691.0333812400004
 30
12.0
  0
VERTEX
  5
B9E
  8
DISTRICTS
 10
661.07843137299994
 20
4690.9809945500001
 30
12.0
  0
VERTEX
  5
B9F
  8
DISTRICTS
 10
661.09925235399999
 20
4690.9737470199998
 30
12.0
  0
VERTEX
  5
BA0
  8
DISTRICTS
 10
661.17864923699995
 20
4690.9476394599997
 30
12.0
  0
VERTEX
  5
BA1
  8
DISTRICTS
 10
661.27886710199994
 20
4690.9355327499998
 30
12.0
  0
VERTEX
  5
BA2
  8
DISTRICTS
 10
661.37908496699993
 20
4690.9486383699996
 30
12.0
  0
VERTEX
  5
BA3
  8
DISTRICTS
 10
661.43571029300006
 20
4690.9737470199998
 30
12.0
  0
VERTEX
  5
BA4
  8
DISTRICTS
 10
661.47930283199992
 20
4690.9886680099999
 30
12.0
  0
VERTEX
  5
BA5
  8
DISTRICTS
 10
661.57952069700002
 20
4691.0723246699999
 30
12.0
  0
VERTEX
  5
BA6
  8
DISTRICTS
 10
661.64917258399976
 20
4691.1742243400004
 30
12.0
  0
VERTEX
  5
BA7
  8
DISTRICTS
 10
661.67347739399997
 20
4691.2744630099996
 30
12.0
  0
VERTEX
  5
BA8
  8
DISTRICTS
 10
661.67375863500001
 20
4691.3747016699999
 30
12.0
  0
VERTEX
  5
BA9
  8
DISTRICTS
 10
661.65023215799999
 20
4691.4749403300002
 30
12.0
  0
VERTEX
  5
BAA
  8
DISTRICTS
 10
661.58759490699993
 20
4691.5751789999986
 30
12.0
  0
VERTEX
  5
BAB
  8
DISTRICTS
 10
661.57952069700002
 20
4691.58521354
 30
12.0
  0
VERTEX
  5
BAC
  8
DISTRICTS
 10
661.47930283199992
 20
4691.6722828999991
 30
12.0
  0
VERTEX
  5
BAD
  8
DISTRICTS
 10
661.37908496699993
 20
4691.7261718
 30
12.0
  0
VERTEX
  5
BAE
  8
DISTRICTS
 10
661.27886710199994
 20
4691.7493661199978
 30
12.0
  0
VERTEX
  5
BAF
  8
DISTRICTS
 10
661.17864923699995
 20
4691.7536032199987
 30
12.0
  0
VERTEX
  5
BB0
  8
DISTRICTS
 10
661.07843137299994
 20
4691.7423833900002
 30
12.0
  0
VERTEX
  5
BB1
  8
DISTRICTS
 10
660.97821350799995
 20
4691.7148680600003
 30
12.0
  0
VERTEX
  5
BB2
  8
DISTRICTS
 10
660.88338962699993
 20
4691.6754176599989
 30
12.0
  0
VERTEX
  5
BB3
  8
DISTRICTS
 10
660.77777777799997
 20
4691.6198178599998
 30
12.0
  0
VERTEX
  5
BB4
  8
DISTRICTS
 10
660.67755991299975
 20
4691.5942658599997
 30
12.0
  0
VERTEX
  5
BB5
  8
DISTRICTS
 10
660.62686939699995
 20
4691.6754176599989
 30
12.0
  0
VERTEX
  5
BB6
  8
DISTRICTS
 10
660.58986338199975
 20
4691.7756563199991
 30
12.0
  0
VERTEX
  5
BB7
  8
DISTRICTS
 10
660.57734204799999
 20
4691.8296693000002
 30
12.0
  0
VERTEX
  5
BB8
  8
DISTRICTS
 10
660.57037957400007
 20
4691.8758949900002
 30
12.0
  0
VERTEX
  5
BB9
  8
DISTRICTS
 10
660.56022681299999
 20
4691.9761336499978
 30
12.0
  0
VERTEX
  5
BBA
  8
DISTRICTS
 10
660.55666586799987
 20
4692.076372319998
 30
12.0
  0
VERTEX
  5
BBB
  8
DISTRICTS
 10
660.56018457399978
 20
4692.1766109800001
 30
12.0
  0
VERTEX
  5
BBC
  8
DISTRICTS
 10
660.57194481800002
 20
4692.2768496400004
 30
12.0
  0
VERTEX
  5
BBD
  8
DISTRICTS
 10
660.57734204799999
 20
4692.2994261699987
 30
12.0
  0
VERTEX
  5
BBE
  8
DISTRICTS
 10
660.59409292199985
 20
4692.3770883099978
 30
12.0
  0
VERTEX
  5
BBF
  8
DISTRICTS
 10
660.62713096499999
 20
4692.4773269699981
 30
12.0
  0
VERTEX
  5
BC0
  8
DISTRICTS
 10
660.66327662399976
 20
4692.5775656300002
 30
12.0
  0
VERTEX
  5
BC1
  8
DISTRICTS
 10
660.67755991299975
 20
4692.6724052099989
 30
12.0
  0
VERTEX
  5
BC2
  8
DISTRICTS
 10
660.67755991299975
 20
4692.6965741499998
 30
12.0
  0
VERTEX
  5
BC3
  8
DISTRICTS
 10
660.67515504199991
 20
4692.7780429599989
 30
12.0
  0
VERTEX
  5
BC4
  8
DISTRICTS
 10
660.65397751299997
 20
4692.8782816199991
 30
12.0
  0
VERTEX
  5
BC5
  8
DISTRICTS
 10
660.63474322800005
 20
4692.9785202900002
 30
12.0
  0
VERTEX
  5
BC6
  8
DISTRICTS
 10
660.32990694683099
 20
4692.880208031851
 30
12.0
  0
VERTEX
  5
BC7
  8
DISTRICTS
 10
659.45392377089047
 20
4692.5464854302754
 30
12.0
  0
VERTEX
  5
BC8
  8
DISTRICTS
 10
658.32765998549633
 20
4692.3100986734798
 30
12.0
  0
VERTEX
  5
BC9
  8
DISTRICTS
 10
657.67414875735165
 20
4692.2266680230878
 30
12.0
  0
SEQEND
  5
BCA
  8
DISTRICTS
  0
POLYLINE
  5
2B
  8
DISTRICTS
 66
     1
 10
0.0
 20
0.0
 30
11.0
 70
     1
  0
VERTEX
  5
BCB
  8
DISTRICTS
 10
660.63474322800005
 20
4692.9785202900002
 30
11.0
  0
VERTEX
  5
BCC
  8
DISTRICTS
 10
660.32990694683099
 20
4692.880208031851
 30
11.0
  0
VERTEX
  5
BCD
  8
DISTRICTS
 10
659.45392377089047
 20
4692.5464854302754
 30
11.0
  0
VERTEX
  5
BCE
  8
DISTRICTS
 10
658.32765998549633
 20
4692.3100986734798
 30
11.0
  0
VERTEX
  5
BCF
  8
DISTRICTS
 10
657.67414875735165
 20
4692.2266680230878
 30
11.0
  0
VERTEX
  5
BD0
  8
DISTRICTS
 10
656.93721059618611
 20
4691.9902811631036
 30
11.0
  0
VERTEX
  5
BD1
  8
DISTRICTS
 10
656.66884531599999
 20
4692.762373999999
 30
11.0
  0
VERTEX
  5
BD2
  8
DISTRICTS
 10
656.72864326363322
 20
4693.325171569415
 30
11.0
  0
VERTEX
  5
BD3
  8
DISTRICTS
 10
656.95111521142917
 20
4693.7562299125893
 30
11.0
  0
VERTEX
  5
BD4
  8
DISTRICTS
 10
657.11796907747134
 20
4694.437580103755
 30
11.0
  0
VERTEX
  5
BD5
  8
DISTRICTS
 10
657.29872736914751
 20
4695.244076425296
 30
11.0
  0
VERTEX
  5
BD6
  8
DISTRICTS
 10
657.56291278345373
 20
4695.7029449508709
 30
11.0
  0
VERTEX
  5
BD7
  8
DISTRICTS
 10
657.92442955641513
 20
4696.3425798684339
 30
11.0
  0
VERTEX
  5
BD8
  8
DISTRICTS
 10
658.32765998549633
 20
4696.9265944211938
 30
11.0
  0
VERTEX
  5
BD9
  8
DISTRICTS
 10
658.70308118409127
 20
4697.4271783235599
 30
11.0
  0
VERTEX
  5
BDA
  8
DISTRICTS
 10
658.77342047900004
 20
4697.5891664999999
 30
11.0
  0
VERTEX
  5
BDB
  8
DISTRICTS
 10
658.87363834400003
 20
4697.5079931199998
 30
11.0
  0
VERTEX
  5
BDC
  8
DISTRICTS
 10
658.89603783300004
 20
4697.4892601399997
 30
11.0
  0
VERTEX
  5
BDD
  8
DISTRICTS
 10
658.9738562089999
 20
4697.4238728500004
 30
11.0
  0
VERTEX
  5
BDE
  8
DISTRICTS
 10
659.01405520100002
 20
4697.3890214800003
 30
11.0
  0
VERTEX
  5
BDF
  8
DISTRICTS
 10
659.07407407400001
 20
4697.3367009100002
 30
11.0
  0
VERTEX
  5
BE0
  8
DISTRICTS
 10
659.12737103199993
 20
4697.2887828200001
 30
11.0
  0
VERTEX
  5
BE1
  8
DISTRICTS
 10
659.174291939
 20
4697.2463124899987
 30
11.0
  0
VERTEX
  5
BE2
  8
DISTRICTS
 10
659.23618203599995
 20
4697.1885441499999
 30
11.0
  0
VERTEX
  5
BE3
  8
DISTRICTS
 10
659.27450980399988
 20
4697.1524590600002
 30
11.0
  0
VERTEX
  5
BE4
  8
DISTRICTS
 10
659.34059347799996
 20
4697.0883054899996
 30
11.0
  0
VERTEX
  5
BE5
  8
DISTRICTS
 10
659.37472766899998
 20
4697.0547909400002
 30
11.0
  0
VERTEX
  5
BE6
  8
DISTRICTS
 10
659.44065093799975
 20
4696.9880668300002
 30
11.0
  0
VERTEX
  5
BE7
  8
DISTRICTS
 10
659.47494553399974
 20
4696.9528332899999
 30
11.0
  0
VERTEX
  5
BE8
  8
DISTRICTS
 10
659.53636465399995
 20
4696.88782816
 30
11.0
  0
VERTEX
  5
BE9
  8
DISTRICTS
 10
659.57516339899985
 20
4696.8459543199988
 30
11.0
  0
VERTEX
  5
BEA
  8
DISTRICTS
 10
659.62772429699999
 20
4696.7875894999997
 30
11.0
  0
VERTEX
  5
BEB
  8
DISTRICTS
 10
659.67538126400007
 20
4696.7333248000004
 30
11.0
  0
VERTEX
  5
BEC
  8
DISTRICTS
 10
659.71470359199986
 20
4696.6873508400004
 30
11.0
  0
VERTEX
  5
BED
  8
DISTRICTS
 10
659.77559912900006
 20
4696.6138685400001
 30
11.0
  0
VERTEX
  5
BEE
  8
DISTRICTS
 10
659.79725622800004
 20
4696.5871121700002
 30
11.0
  0
VERTEX
  5
BEF
  8
DISTRICTS
 10
659.87532180000005
 20
4696.486873509999
 30
11.0
  0
VERTEX
  5
BF0
  8
DISTRICTS
 10
659.949669707
 20
4696.3866348399979
 30
11.0
  0
VERTEX
  5
BF1
  8
DISTRICTS
 10
659.97603485800016
 20
4696.3491765099998
 30
11.0
  0
VERTEX
  5
BF2
  8
DISTRICTS
 10
660.01961390999975
 20
4696.2863961800003
 30
11.0
  0
VERTEX
  5
BF3
  8
DISTRICTS
 10
660.07625272300004
 20
4696.19963663
 30
11.0
  0
VERTEX
  5
BF4
  8
DISTRICTS
 10
660.0849823609999
 20
4696.1861575200001
 30
11.0
  0
VERTEX
  5
BF5
  8
DISTRICTS
 10
660.14690561299994
 20
4696.0859188499999
 30
11.0
  0
VERTEX
  5
BF6
  8
DISTRICTS
 10
660.17647058800003
 20
4696.0344891699979
 30
11.0
  0
VERTEX
  5
BF7
  8
DISTRICTS
 10
660.20457147699994
 20
4695.9856801899978
 30
11.0
  0
VERTEX
  5
BF8
  8
DISTRICTS
 10
660.25825695000003
 20
4695.8854415300002
 30
11.0
  0
VERTEX
  5
BF9
  8
DISTRICTS
 10
660.27668845300002
 20
4695.8483439199999
 30
11.0
  0
VERTEX
  5
BFA
  8
DISTRICTS
 10
660.30846154099993
 20
4695.78520286
 30
11.0
  0
VERTEX
  5
BFB
  8
DISTRICTS
 10
660.35470792299998
 20
4695.6849641999997
 30
11.0
  0
VERTEX
  5
BFC
  8
DISTRICTS
 10
660.37690631800001
 20
4695.6322731199998
 30
11.0
  0
VERTEX
  5
BFD
  8
DISTRICTS
 10
660.39744239499976
 20
4695.5847255400004
 30
11.0
  0
VERTEX
  5
BFE
  8
DISTRICTS
 10
660.43699597099976
 20
4695.4844868699984
 30
11.0
  0
VERTEX
  5
BFF
  8
DISTRICTS
 10
660.47227563699994
 20
4695.384248209999
 30
11.0
  0
VERTEX
  5
C00
  8
DISTRICTS
 10
660.47712418299989
 20
4695.3690347700003
 30
11.0
  0
VERTEX
  5
C01
  8
DISTRICTS
 10
660.50539557699994
 20
4695.2840095499987
 30
11.0
  0
VERTEX
  5
C02
  8
DISTRICTS
 10
660.53497060199993
 20
4695.1837708800003
 30
11.0
  0
VERTEX
  5
C03
  8
DISTRICTS
 10
660.56090827000003
 20
4695.0835322199991
 30
11.0
  0
VERTEX
  5
C04
  8
DISTRICTS
 10
660.57734204799999
 20
4695.0106911299999
 30
11.0
  0
VERTEX
  5
C05
  8
DISTRICTS
 10
660.58389489699994
 20
4694.9832935599989
 30
11.0
  0
VERTEX
  5
C06
  8
DISTRICTS
 10
660.60472064299995
 20
4694.8830548899996
 30
11.0
  0
VERTEX
  5
C07
  8
DISTRICTS
 10
660.62239741899975
 20
4694.7828162300002
 30
11.0
  0
VERTEX
  5
C08
  8
DISTRICTS
 10
660.63711529399995
 20
4694.6825775699999
 30
11.0
  0
VERTEX
  5
C09
  8
DISTRICTS
 10
660.64905272999999
 20
4694.5823388999997
 30
11.0
  0
VERTEX
  5
C0A
  8
DISTRICTS
 10
660.65837614500003
 20
4694.4821002400013
 30
11.0
  0
VERTEX
  5
C0B
  8
DISTRICTS
 10
660.66524095099976
 20
4694.381861580001
 30
11.0
  0
VERTEX
  5
C0C
  8
DISTRICTS
 10
660.66979417599998
 20
4694.2816229099999
 30
11.0
  0
VERTEX
  5
C0D
  8
DISTRICTS
 10
660.67217874499977
 20
4694.1813842499996
 30
11.0
  0
VERTEX
  5
C0E
  8
DISTRICTS
 10
660.67253946699975
 20
4694.0811455800003
 30
11.0
  0
VERTEX
  5
C0F
  8
DISTRICTS
 10
660.67103087300006
 20
4693.9809069200001
 30
11.0
  0
VERTEX
  5
C10
  8
DISTRICTS
 10
660.66782714700003
 20
4693.8806682599989
 30
11.0
  0
VERTEX
  5
C11
  8
DISTRICTS
 10
660.66313477599999
 20
4693.7804295899978
 30
11.0
  0
VERTEX
  5
C12
  8
DISTRICTS
 10
660.65720917900001
 20
4693.6801909300002
 30
11.0
  0
VERTEX
  5
C13
  8
DISTRICTS
 10
660.65037789500002
 20
4693.5799522699999
 30
11.0
  0
VERTEX
  5
C14
  8
DISTRICTS
 10
660.64307552900004
 20
4693.4797136000007
 30
11.0
  0
VERTEX
  5
C15
  8
DISTRICTS
 10
660.63590113500004
 20
4693.3794749400013
 30
11.0
  0
VERTEX
  5
C16
  8
DISTRICTS
 10
660.62971995199996
 20
4693.2792362800001
 30
11.0
  0
VERTEX
  5
C17
  8
DISTRICTS
 10
660.62585300199976
 20
4693.1789976099999
 30
11.0
  0
VERTEX
  5
C18
  8
DISTRICTS
 10
660.62642002199993
 20
4693.0787589499996
 30
11.0
  0
SEQEND
  5
C19
  8
DISTRICTS
  0
POLYLINE
  5
2C
  8
DISTRICTS
 66
     1
 10
0.0
 20
0.0
 30
16.0
 70
     1
  0
VERTEX
  5
C1A
  8
DISTRICTS
 10
652.75736308499995
 20
4669.6229116900013
 30
16.0
  0
VERTEX
  5
C1B
  8
DISTRICTS
 10
652.86056644899975
 20
4669.636839249998
 30
16.0
  0
VERTEX
  5
C1C
  8
DISTRICTS
 10
652.96078431399985
 20
4669.6322601800011
 30
16.0
  0
VERTEX
  5
C1D
  8
DISTRICTS
 10
653.00442523000004
 20
4669.6229116900013
 30
16.0
  0
VERTEX
  5
C1E
  8
DISTRICTS
 10
653.06100217900007
 20
4669.61143395
 30
16.0
  0
VERTEX
  5
C1F
  8
DISTRICTS
 10
653.16122004399995
 20
4669.5754919000001
 30
16.0
  0
VERTEX
  5
C20
  8
DISTRICTS
 10
653.26448811499995
 20
4669.5226730300001
 30
16.0
  0
VERTEX
  5
C21
  8
DISTRICTS
 10
653.36165577300005
 20
4669.46110899
 30
16.0
  0
VERTEX
  5
C22
  8
DISTRICTS
 10
653.41057837999995
 20
4669.4224343699998
 30
16.0
  0
VERTEX
  5
C23
  8
DISTRICTS
 10
653.46187363800004
 20
4669.3849480500012
 30
16.0
  0
VERTEX
  5
C24
  8
DISTRICTS
 10
653.53263482099987
 20
4669.3221956999996
 30
16.0
  0
VERTEX
  5
C25
  8
DISTRICTS
 10
653.56209150300003
 20
4669.2984321000004
 30
16.0
  0
VERTEX
  5
C26
  8
DISTRICTS
 10
653.64213105099975
 20
4669.2219570400002
 30
16.0
  0
VERTEX
  5
C27
  8
DISTRICTS
 10
653.66230936800002
 20
4669.2047039299996
 30
16.0
  0
VERTEX
  5
C28
  8
DISTRICTS
 10
653.74624760300003
 20
4669.1217183799999
 30
16.0
  0
VERTEX
  5
C29
  8
DISTRICTS
 10
653.76252723300001
 20
4669.1075184399988
 30
16.0
  0
VERTEX
  5
C2A
  8
DISTRICTS
 10
653.85008701599997
 20
4669.0214797099989
 30
16.0
  0
VERTEX
  5
C2B
  8
DISTRICTS
 10
653.86274509799989
 20
4669.0106064900001
 30
16.0
  0
VERTEX
  5
C2C
  8
DISTRICTS
 10
653.962962963
 20
4668.9170718900023
 30
16.0
  0
VERTEX
  5
C2D
  8
DISTRICTS
 10
654.06318082799976
 20
4668.8292461299998
 30
16.0
  0
VERTEX
  5
C2E
  8
DISTRICTS
 10
654.07216850099985
 20
4668.8210023900001
 30
16.0
  0
VERTEX
  5
C2F
  8
DISTRICTS
 10
654.16339869299986
 20
4668.7480204199992
 30
16.0
  0
VERTEX
  5
C30
  8
DISTRICTS
 10
654.19754317100001
 20
4668.7207637199981
 30
16.0
  0
VERTEX
  5
C31
  8
DISTRICTS
 10
654.26361655800008
 20
4668.6737993799998
 30
16.0
  0
VERTEX
  5
C32
  8
DISTRICTS
 10
654.342378811
 20
4668.6205250599978
 30
16.0
  0
VERTEX
  5
C33
  8
DISTRICTS
 10
654.36383442299996
 20
4668.6072377600003
 30
16.0
  0
VERTEX
  5
C34
  8
DISTRICTS
 10
654.46405228799995
 20
4668.5475530200001
 30
16.0
  0
VERTEX
  5
C35
  8
DISTRICTS
 10
654.51534987900004
 20
4668.5202863999984
 30
16.0
  0
VERTEX
  5
C36
  8
DISTRICTS
 10
654.56427015300005
 20
4668.4953139600002
 30
16.0
  0
VERTEX
  5
C37
  8
DISTRICTS
 10
654.66448801699994
 20
4668.4501579600001
 30
16.0
  0
VERTEX
  5
C38
  8
DISTRICTS
 10
654.74758093599985
 20
4668.4200477300001
 30
16.0
  0
VERTEX
  5
C39
  8
DISTRICTS
 10
654.76470588199993
 20
4668.4136511499992
 30
16.0
  0
VERTEX
  5
C3A
  8
DISTRICTS
 10
654.86492374699992
 20
4668.3826727299993
 30
16.0
  0
VERTEX
  5
C3B
  8
DISTRICTS
 10
654.96514161200002
 20
4668.3613939099978
 30
16.0
  0
VERTEX
  5
C3C
  8
DISTRICTS
 10
655.0653594769999
 20
4668.3498581200001
 30
16.0
  0
VERTEX
  5
C3D
  8
DISTRICTS
 10
655.16557734200001
 20
4668.347807359999
 30
16.0
  0
VERTEX
  5
C3E
  8
DISTRICTS
 10
655.26579520699977
 20
4668.3548700000001
 30
16.0
  0
VERTEX
  5
C3F
  8
DISTRICTS
 10
655.36601307199987
 20
4668.37086679
 30
16.0
  0
VERTEX
  5
C40
  8
DISTRICTS
 10
655.46623093699998
 20
4668.3960596799998
 30
16.0
  0
VERTEX
  5
C41
  8
DISTRICTS
 10
655.53513792000001
 20
4668.4200477300001
 30
16.0
  0
VERTEX
  5
C42
  8
DISTRICTS
 10
655.56644880199985
 20
4668.4294011600014
 30
16.0
  0
VERTEX
  5
C43
  8
DISTRICTS
 10
655.66666666699984
 20
4668.4690501699979
 30
16.0
  0
VERTEX
  5
C44
  8
DISTRICTS
 10
655.76688453199995
 20
4668.5210107100011
 30
16.0
  0
VERTEX
  5
C45
  8
DISTRICTS
 10
655.86710239699994
 20
4668.5796127499998
 30
16.0
  0
VERTEX
  5
C46
  8
DISTRICTS
 10
655.92438959699984
 20
4668.6205250599978
 30
16.0
  0
VERTEX
  5
C47
  8
DISTRICTS
 10
655.96732026099994
 20
4668.6515322400001
 30
16.0
  0
VERTEX
  5
C48
  8
DISTRICTS
 10
656.04943545499998
 20
4668.7207637199981
 30
16.0
  0
VERTEX
  5
C49
  8
DISTRICTS
 10
656.06753812599993
 20
4668.7369266599999
 30
16.0
  0
VERTEX
  5
C4A
  8
DISTRICTS
 10
656.152412551
 20
4668.8210023900001
 30
16.0
  0
VERTEX
  5
C4B
  8
DISTRICTS
 10
656.16775599100004
 20
4668.8377437500003
 30
16.0
  0
VERTEX
  5
C4C
  8
DISTRICTS
 10
656.239979715
 20
4668.9212410500004
 30
16.0
  0
VERTEX
  5
C4D
  8
DISTRICTS
 10
656.26797385599991
 20
4668.9580071299997
 30
16.0
  0
VERTEX
  5
C4E
  8
DISTRICTS
 10
656.31533137300005
 20
4669.0214797099989
 30
16.0
  0
VERTEX
  5
C4F
  8
DISTRICTS
 10
656.36819172100002
 20
4669.1038980800004
 30
16.0
  0
VERTEX
  5
C50
  8
DISTRICTS
 10
656.37973077799995
 20
4669.1217183799999
 30
16.0
  0
VERTEX
  5
C51
  8
DISTRICTS
 10
656.43726402200002
 20
4669.2219570400002
 30
16.0
  0
VERTEX
  5
C52
  8
DISTRICTS
 10
656.46840958600001
 20
4669.286854590001
 30
16.0
  0
VERTEX
  5
C53
  8
DISTRICTS
 10
656.48630196099975
 20
4669.3221956999996
 30
16.0
  0
VERTEX
  5
C54
  8
DISTRICTS
 10
656.530039278
 20
4669.4224343699998
 30
16.0
  0
VERTEX
  5
C55
  8
DISTRICTS
 10
656.56862745099988
 20
4669.5311154699984
 30
16.0
  0
VERTEX
  5
C56
  8
DISTRICTS
 10
656.59978699300007
 20
4669.6229116900013
 30
16.0
  0
VERTEX
  5
C57
  8
DISTRICTS
 10
656.62859039399996
 20
4669.7231503599978
 30
16.0
  0
VERTEX
  5
C58
  8
DISTRICTS
 10
656.65361040899995
 20
4669.8233890199999
 30
16.0
  0
VERTEX
  5
C59
  8
DISTRICTS
 10
656.66884531599999
 20
4669.8907443999988
 30
16.0
  0
VERTEX
  5
C5A
  8
DISTRICTS
 10
656.67726415100003
 20
4669.9236276800002
 30
16.0
  0
VERTEX
  5
C5B
  8
DISTRICTS
 10
656.70159154099974
 20
4670.0238663500004
 30
16.0
  0
VERTEX
  5
C5C
  8
DISTRICTS
 10
656.72646646800001
 20
4670.1241050099998
 30
16.0
  0
VERTEX
  5
C5D
  8
DISTRICTS
 10
656.75345209199975
 20
4670.2243436799999
 30
16.0
  0
VERTEX
  5
C5E
  8
DISTRICTS
 10
656.76906318099975
 20
4670.2763793100003
 30
16.0
  0
VERTEX
  5
C5F
  8
DISTRICTS
 10
656.78450652900005
 20
4670.3245823400002
 30
16.0
  0
VERTEX
  5
C60
  8
DISTRICTS
 10
656.82012141899997
 20
4670.4248209999996
 30
16.0
  0
VERTEX
  5
C61
  8
DISTRICTS
 10
656.09270691701386
 20
4670.5238978488924
 30
16.0
  0
VERTEX
  5
C62
  8
DISTRICTS
 10
655.3496819196555
 20
4670.6300490018393
 30
16.0
  0
VERTEX
  5
C63
  8
DISTRICTS
 10
654.60665692229679
 20
4670.5238978488924
 30
16.0
  0
VERTEX
  5
C64
  8
DISTRICTS
 10
653.78402201575977
 20
4670.1789067307991
 30
16.0
  0
SEQEND
  5
C65
  8
DISTRICTS
  0
POLYLINE
  5
2D
  8
DISTRICTS
 66
     1
 10
0.0
 20
0.0
 30
14.0
 70
     1
  0
VERTEX
  5
C66
  8
DISTRICTS
 10
650.17504332172643
 20
4672.8061470697139
 30
14.0
  0
VERTEX
  5
C67
  8
DISTRICTS
 10
650.57309248840011
 20
4672.5673070013818
 30
14.0
  0
VERTEX
  5
C68
  8
DISTRICTS
 10
651.13036128382123
 20
4672.2223158832894
 30
14.0
  0
VERTEX
  5
C69
  8
DISTRICTS
 10
651.89992285436949
 20
4671.771173612251
 30
14.0
  0
VERTEX
  5
C6A
  8
DISTRICTS
 10
652.69028360015625
 20
4671.4182934447717
 30
14.0
  0
VERTEX
  5
C6B
  8
DISTRICTS
 10
652.8287042432745
 20
4672.2488536457276
 30
14.0
  0
VERTEX
  5
C6C
  8
DISTRICTS
 10
653.0940703543904
 20
4673.1511381878072
 30
14.0
  0
VERTEX
  5
C6D
  8
DISTRICTS
 10
653.35943627589666
 20
4673.8145827647413
 30
14.0
  0
VERTEX
  5
C6E
  8
DISTRICTS
 10
653.46187363800004
 20
4674.0539085700002
 30
14.0
  0
VERTEX
  5
C6F
  8
DISTRICTS
 10
653.36165577300005
 20
4674.08556804
 30
14.0
  0
VERTEX
  5
C70
  8
DISTRICTS
 10
653.27212595100002
 20
4674.1336515499997
 30
14.0
  0
VERTEX
  5
C71
  8
DISTRICTS
 10
653.26143790799995
 20
4674.1396034899999
 30
14.0
  0
VERTEX
  5
C72
  8
DISTRICTS
 10
653.16122004399995
 20
4674.2180406400003
 30
14.0
  0
VERTEX
  5
C73
  8
DISTRICTS
 10
653.1458142099998
 20
4674.23389021
 30
14.0
  0
VERTEX
  5
C74
  8
DISTRICTS
 10
653.06100217900007
 20
4674.3220099399996
 30
14.0
  0
VERTEX
  5
C75
  8
DISTRICTS
 10
653.05153122499985
 20
4674.3341288800002
 30
14.0
  0
VERTEX
  5
C76
  8
DISTRICTS
 10
652.97263890500017
 20
4674.4343675399987
 30
14.0
  0
VERTEX
  5
C77
  8
DISTRICTS
 10
652.96078431399985
 20
4674.4494525999999
 30
14.0
  0
VERTEX
  5
C78
  8
DISTRICTS
 10
652.90293495100002
 20
4674.5346062099989
 30
14.0
  0
VERTEX
  5
C79
  8
DISTRICTS
 10
652.86056644899975
 20
4674.5967759799978
 30
14.0
  0
VERTEX
  5
C7A
  8
DISTRICTS
 10
652.83734512699994
 20
4674.6348448700001
 30
14.0
  0
VERTEX
  5
C7B
  8
DISTRICTS
 10
652.77639179000005
 20
4674.7350835300003
 30
14.0
  0
VERTEX
  5
C7C
  8
DISTRICTS
 10
652.76034858399998
 20
4674.7626206799996
 30
14.0
  0
VERTEX
  5
C7D
  8
DISTRICTS
 10
652.72074677199998
 20
4674.8353221999978
 30
14.0
  0
VERTEX
  5
C7E
  8
DISTRICTS
 10
652.67016024899999
 20
4674.9355608599981
 30
14.0
  0
VERTEX
  5
C7F
  8
DISTRICTS
 10
652.66013071899988
 20
4674.95958324
 30
14.0
  0
VERTEX
  5
C80
  8
DISTRICTS
 10
652.62918248400001
 20
4675.0357995200002
 30
14.0
  0
VERTEX
  5
C81
  8
DISTRICTS
 10
652.60133871499988
 20
4675.1360381900004
 30
14.0
  0
VERTEX
  5
C82
  8
DISTRICTS
 10
652.59279401599974
 20
4675.2362768499988
 30
14.0
  0
VERTEX
  5
C83
  8
DISTRICTS
 10
652.60779124299995
 20
4675.3365155099991
 30
14.0
  0
VERTEX
  5
C84
  8
DISTRICTS
 10
652.64424867499974
 20
4675.4367541800002
 30
14.0
  0
VERTEX
  5
C85
  8
DISTRICTS
 10
652.66013071899988
 20
4675.4655737700004
 30
14.0
  0
VERTEX
  5
C86
  8
DISTRICTS
 10
652.69159728499994
 20
4675.5369928399978
 30
14.0
  0
VERTEX
  5
C87
  8
DISTRICTS
 10
652.73836996099976
 20
4675.6372314999999
 30
14.0
  0
VERTEX
  5
C88
  8
DISTRICTS
 10
652.76034858399998
 20
4675.68979717
 30
14.0
  0
VERTEX
  5
C89
  8
DISTRICTS
 10
652.77815984999995
 20
4675.7374701700001
 30
14.0
  0
VERTEX
  5
C8A
  8
DISTRICTS
 10
652.80970611299995
 20
4675.8377088300003
 30
14.0
  0
VERTEX
  5
C8B
  8
DISTRICTS
 10
652.829805545
 20
4675.9379474899997
 30
14.0
  0
VERTEX
  5
C8C
  8
DISTRICTS
 10
652.83950039599995
 20
4676.0381861599999
 30
14.0
  0
VERTEX
  5
C8D
  8
DISTRICTS
 10
652.83971318300007
 20
4676.1384248200002
 30
14.0
  0
VERTEX
  5
C8E
  8
DISTRICTS
 10
652.82994681699995
 20
4676.2386634799977
 30
14.0
  0
VERTEX
  5
C8F
  8
DISTRICTS
 10
652.80695764300003
 20
4676.3389021499988
 30
14.0
  0
VERTEX
  5
C90
  8
DISTRICTS
 10
652.76034858399998
 20
4676.4436139700001
 30
14.0
  0
VERTEX
  5
C91
  8
DISTRICTS
 10
652.70156112099994
 20
4676.5393794700003
 30
14.0
  0
VERTEX
  5
C92
  8
DISTRICTS
 10
652.66013071899988
 20
4676.5857931700011
 30
14.0
  0
VERTEX
  5
C93
  8
DISTRICTS
 10
652.58978633499987
 20
4676.6396181399996
 30
14.0
  0
VERTEX
  5
C94
  8
DISTRICTS
 10
652.559912854
 20
4676.6620955199996
 30
14.0
  0
VERTEX
  5
C95
  8
DISTRICTS
 10
652.45969498900001
 20
4676.7040480599999
 30
14.0
  0
VERTEX
  5
C96
  8
DISTRICTS
 10
652.35947712399991
 20
4676.7141731800002
 30
14.0
  0
VERTEX
  5
C97
  8
DISTRICTS
 10
652.25925925900003
 20
4676.7012661299977
 30
14.0
  0
VERTEX
  5
C98
  8
DISTRICTS
 10
652.15904139400004
 20
4676.6638099899992
 30
14.0
  0
VERTEX
  5
C99
  8
DISTRICTS
 10
652.11737557799995
 20
4676.6396181399996
 30
14.0
  0
VERTEX
  5
C9A
  8
DISTRICTS
 10
652.05882352900005
 20
4676.6069902700001
 30
14.0
  0
VERTEX
  5
C9B
  8
DISTRICTS
 10
651.97253499399994
 20
4676.5393794700003
 30
14.0
  0
VERTEX
  5
C9C
  8
DISTRICTS
 10
651.95860566399995
 20
4676.527821669998
 30
14.0
  0
VERTEX
  5
C9D
  8
DISTRICTS
 10
651.87054834199978
 20
4676.43914081
 30
14.0
  0
VERTEX
  5
C9E
  8
DISTRICTS
 10
651.85838779999995
 20
4676.4216502299996
 30
14.0
  0
VERTEX
  5
C9F
  8
DISTRICTS
 10
651.79970320699999
 20
4676.3389021499988
 30
14.0
  0
VERTEX
  5
CA0
  8
DISTRICTS
 10
651.75748605800004
 20
4676.2386634799977
 30
14.0
  0
VERTEX
  5
CA1
  8
DISTRICTS
 10
651.71385531199985
 20
4676.1384248200002
 30
14.0
  0
VERTEX
  5
CA2
  8
DISTRICTS
 10
651.68025559299997
 20
4676.0381861599999
 30
14.0
  0
VERTEX
  5
CA3
  8
DISTRICTS
 10
651.65795206999985
 20
4675.9604912299992
 30
14.0
  0
VERTEX
  5
CA4
  8
DISTRICTS
 10
651.64816342599977
 20
4675.9379474899997
 30
14.0
  0
VERTEX
  5
CA5
  8
DISTRICTS
 10
651.60403642400001
 20
4675.8377088300003
 30
14.0
  0
VERTEX
  5
CA6
  8
DISTRICTS
 10
651.55773420499997
 20
4675.7617403499999
 30
14.0
  0
VERTEX
  5
CA7
  8
DISTRICTS
 10
651.53455354399978
 20
4675.7374701700001
 30
14.0
  0
VERTEX
  5
CA8
  8
DISTRICTS
 10
651.45751633999987
 20
4675.6775111599991
 30
14.0
  0
VERTEX
  5
CA9
  8
DISTRICTS
 10
651.37764415800007
 20
4675.6372314999999
 30
14.0
  0
VERTEX
  5
CAA
  8
DISTRICTS
 10
651.35729847499977
 20
4675.6291581599999
 30
14.0
  0
VERTEX
  5
CAB
  8
DISTRICTS
 10
651.25708061
 20
4675.5969735099989
 30
14.0
  0
VERTEX
  5
CAC
  8
DISTRICTS
 10
651.1568627449999
 20
4675.57013972
 30
14.0
  0
VERTEX
  5
CAD
  8
DISTRICTS
 10
651.05664488000002
 20
4675.5452559200003
 30
14.0
  0
VERTEX
  5
CAE
  8
DISTRICTS
 10
651.02385239800003
 20
4675.5369928399978
 30
14.0
  0
VERTEX
  5
CAF
  8
DISTRICTS
 10
650.95642701500003
 20
4675.5219706899998
 30
14.0
  0
VERTEX
  5
CB0
  8
DISTRICTS
 10
650.85620915000004
 20
4675.49809688
 30
14.0
  0
VERTEX
  5
CB1
  8
DISTRICTS
 10
650.75599128500005
 20
4675.4719446299987
 30
14.0
  0
VERTEX
  5
CB2
  8
DISTRICTS
 10
650.65577341999995
 20
4675.442947149998
 30
14.0
  0
VERTEX
  5
CB3
  8
DISTRICTS
 10
650.63602393500003
 20
4675.4367541800002
 30
14.0
  0
VERTEX
  5
CB4
  8
DISTRICTS
 10
650.55555555599994
 20
4675.41291009
 30
14.0
  0
VERTEX
  5
CB5
  8
DISTRICTS
 10
650.45533769099995
 20
4675.3798676099996
 30
14.0
  0
VERTEX
  5
CB6
  8
DISTRICTS
 10
650.35511982599985
 20
4675.3432910399988
 30
14.0
  0
VERTEX
  5
CB7
  8
DISTRICTS
 10
650.33737811900005
 20
4675.3365155099991
 30
14.0
  0
VERTEX
  5
CB8
  8
DISTRICTS
 10
650.25490196099986
 20
4675.305439849998
 30
14.0
  0
VERTEX
  5
CB9
  8
DISTRICTS
 10
650.15468409599976
 20
4675.26479208
 30
14.0
  0
VERTEX
  5
CBA
  8
DISTRICTS
 10
650.08729876400002
 20
4675.2362768499988
 30
14.0
  0
VERTEX
  5
CBB
  8
DISTRICTS
 10
650.05446623099999
 20
4675.2222394399996
 30
14.0
  0
VERTEX
  5
CBC
  8
DISTRICTS
 10
649.95424836599989
 20
4675.1789651199988
 30
14.0
  0
VERTEX
  5
CBD
  8
DISTRICTS
 10
649.85403050100001
 20
4675.1346935999991
 30
14.0
  0
VERTEX
  5
CBE
  8
DISTRICTS
 10
649.75381263600002
 20
4675.09154743
 30
14.0
  0
VERTEX
  5
CBF
  8
DISTRICTS
 10
649.65359477100003
 20
4675.0494266699989
 30
14.0
  0
VERTEX
  5
CC0
  8
DISTRICTS
 10
649.61859469900003
 20
4675.0357995200002
 30
14.0
  0
VERTEX
  5
CC1
  8
DISTRICTS
 10
649.55337690600004
 20
4675.0098502600003
 30
14.0
  0
VERTEX
  5
CC2
  8
DISTRICTS
 10
649.45315904099994
 20
4674.9735160500004
 30
14.0
  0
VERTEX
  5
CC3
  8
DISTRICTS
 10
649.35294117599994
 20
4674.941012029999
 30
14.0
  0
VERTEX
  5
CC4
  8
DISTRICTS
 10
649.33330455800001
 20
4674.9355608599981
 30
14.0
  0
VERTEX
  5
CC5
  8
DISTRICTS
 10
649.25272331199994
 20
4674.9130776399998
 30
14.0
  0
VERTEX
  5
CC6
  8
DISTRICTS
 10
649.15250544699995
 20
4674.8898050999996
 30
14.0
  0
VERTEX
  5
CC7
  8
DISTRICTS
 10
649.05228758199985
 20
4674.8711668799997
 30
14.0
  0
VERTEX
  5
CC8
  8
DISTRICTS
 10
648.95206971699974
 20
4674.8569979200001
 30
14.0
  0
VERTEX
  5
CC9
  8
DISTRICTS
 10
648.85185185199998
 20
4674.84699851
 30
14.0
  0
VERTEX
  5
CCA
  8
DISTRICTS
 10
649.19318878644208
 20
4674.0799605955153
 30
14.0
  0
VERTEX
  5
CCB
  8
DISTRICTS
 10
649.77699434466194
 20
4673.124600425368
 30
14.0
  0
SEQEND
  5
CCC
  8
DISTRICTS
  0
POLYLINE
  5
2E
  8
DISTRICTS
 66
     1
 10
0.0
 20
0.0
 30
15.0
 70
     1
  0
VERTEX
  5
CCD
  8
DISTRICTS
 10
652.69028360015625
 20
4671.4182934447717
 30
15.0
  0
VERTEX
  5
CCE
  8
DISTRICTS
 10
652.61641127853807
 20
4670.975040119929
 30
15.0
  0
VERTEX
  5
CCF
  8
DISTRICTS
 10
652.75736308499995
 20
4669.6229116900013
 30
15.0
  0
VERTEX
  5
CD0
  8
DISTRICTS
 10
653.78402201575977
 20
4670.1789067307991
 30
15.0
  0
VERTEX
  5
CD1
  8
DISTRICTS
 10
654.60665692229679
 20
4670.5238978488924
 30
15.0
  0
VERTEX
  5
CD2
  8
DISTRICTS
 10
655.3496819196555
 20
4670.6300490018393
 30
15.0
  0
VERTEX
  5
CD3
  8
DISTRICTS
 10
656.09270691701386
 20
4670.5238978488924
 30
15.0
  0
VERTEX
  5
CD4
  8
DISTRICTS
 10
656.82012141899997
 20
4670.4248209999996
 30
15.0
  0
VERTEX
  5
CD5
  8
DISTRICTS
 10
656.85957170199993
 20
4670.5250596699998
 30
15.0
  0
VERTEX
  5
CD6
  8
DISTRICTS
 10
656.86928104599986
 20
4670.5475014599979
 30
15.0
  0
VERTEX
  5
CD7
  8
DISTRICTS
 10
656.90318779099994
 20
4670.6252983300001
 30
15.0
  0
VERTEX
  5
CD8
  8
DISTRICTS
 10
656.94908969899996
 20
4670.7255369900004
 30
15.0
  0
VERTEX
  5
CD9
  8
DISTRICTS
 10
656.96949891099985
 20
4670.7684521000001
 30
15.0
  0
VERTEX
  5
CDA
  8
DISTRICTS
 10
656.99640377699995
 20
4670.8257756599996
 30
15.0
  0
VERTEX
  5
CDB
  8
DISTRICTS
 10
657.04355295699997
 20
4670.926014319999
 30
15.0
  0
VERTEX
  5
CDC
  8
DISTRICTS
 10
657.06971677599995
 20
4670.982884699999
 30
15.0
  0
VERTEX
  5
CDD
  8
DISTRICTS
 10
657.08937356800004
 20
4671.0262529800002
 30
15.0
  0
VERTEX
  5
CDE
  8
DISTRICTS
 10
657.13322402199992
 20
4671.1264916500004
 30
15.0
  0
VERTEX
  5
CDF
  8
DISTRICTS
 10
657.17332091499975
 20
4671.2267303099989
 30
15.0
  0
VERTEX
  5
CE0
  8
DISTRICTS
 10
657.21118196600003
 20
4671.3269689699982
 30
15.0
  0
VERTEX
  5
CE1
  8
DISTRICTS
 10
657.24432820699997
 20
4671.4272076399984
 30
15.0
  0
VERTEX
  5
CE2
  8
DISTRICTS
 10
657.27275303899989
 20
4671.5274462999978
 30
15.0
  0
VERTEX
  5
CE3
  8
DISTRICTS
 10
657.29829628800007
 20
4671.627684959999
 30
15.0
  0
VERTEX
  5
CE4
  8
DISTRICTS
 10
657.31888426399985
 20
4671.7279236300001
 30
15.0
  0
VERTEX
  5
CE5
  8
DISTRICTS
 10
657.33459701599998
 20
4671.8281622900004
 30
15.0
  0
VERTEX
  5
CE6
  8
DISTRICTS
 10
657.34556148000001
 20
4671.9284009499997
 30
15.0
  0
VERTEX
  5
CE7
  8
DISTRICTS
 10
657.35190936399977
 20
4672.0286396199999
 30
15.0
  0
VERTEX
  5
CE8
  8
DISTRICTS
 10
657.35374050300004
 20
4672.1288782800002
 30
15.0
  0
VERTEX
  5
CE9
  8
DISTRICTS
 10
657.35109849399998
 20
4672.2291169500004
 30
15.0
  0
VERTEX
  5
CEA
  8
DISTRICTS
 10
657.34396439800003
 20
4672.3293556099979
 30
15.0
  0
VERTEX
  5
CEB
  8
DISTRICTS
 10
657.33227009300003
 20
4672.4295942700001
 30
15.0
  0
VERTEX
  5
CEC
  8
DISTRICTS
 10
657.31592799199996
 20
4672.5298329400002
 30
15.0
  0
VERTEX
  5
CED
  8
DISTRICTS
 10
657.29487168200001
 20
4672.6300715999987
 30
15.0
  0
VERTEX
  5
CEE
  8
DISTRICTS
 10
657.26918646299998
 20
4672.730310259999
 30
15.0
  0
VERTEX
  5
CEF
  8
DISTRICTS
 10
657.24100613999985
 20
4672.8305489300001
 30
15.0
  0
VERTEX
  5
CF0
  8
DISTRICTS
 10
657.20834452199995
 20
4672.9307875900004
 30
15.0
  0
VERTEX
  5
CF1
  8
DISTRICTS
 10
657.16993464099994
 20
4673.03544891
 30
15.0
  0
VERTEX
  5
CF2
  8
DISTRICTS
 10
657.13341935999995
 20
4673.1312649199999
 30
15.0
  0
VERTEX
  5
CF3
  8
DISTRICTS
 10
657.09253797500003
 20
4673.2315035800011
 30
15.0
  0
VERTEX
  5
CF4
  8
DISTRICTS
 10
657.06971677599995
 20
4673.2868915400004
 30
15.0
  0
VERTEX
  5
CF5
  8
DISTRICTS
 10
657.05091102699976
 20
4673.3317422399996
 30
15.0
  0
VERTEX
  5
CF6
  8
DISTRICTS
 10
657.0100728839999
 20
4673.4319809099998
 30
15.0
  0
VERTEX
  5
CF7
  8
DISTRICTS
 10
656.96949891099985
 20
4673.5375365299979
 30
15.0
  0
VERTEX
  5
CF8
  8
DISTRICTS
 10
656.93735964500002
 20
4673.6324582300012
 30
15.0
  0
VERTEX
  5
CF9
  8
DISTRICTS
 10
656.90982578900002
 20
4673.7326968999987
 30
15.0
  0
VERTEX
  5
CFA
  8
DISTRICTS
 10
656.89036174699993
 20
4673.8329355599999
 30
15.0
  0
VERTEX
  5
CFB
  8
DISTRICTS
 10
656.87962791999985
 20
4673.9331742200002
 30
15.0
  0
VERTEX
  5
CFC
  8
DISTRICTS
 10
656.87699712099993
 20
4674.0334128900004
 30
15.0
  0
VERTEX
  5
CFD
  8
DISTRICTS
 10
656.88061526800004
 20
4674.1336515499997
 30
15.0
  0
VERTEX
  5
CFE
  8
DISTRICTS
 10
656.88778329100001
 20
4674.23389021
 30
15.0
  0
VERTEX
  5
CFF
  8
DISTRICTS
 10
656.89551758200002
 20
4674.3341288800002
 30
15.0
  0
VERTEX
  5
D00
  8
DISTRICTS
 10
656.90104962999976
 20
4674.4343675399987
 30
15.0
  0
VERTEX
  5
D01
  8
DISTRICTS
 10
656.90205982999976
 20
4674.5346062099989
 30
15.0
  0
VERTEX
  5
D02
  8
DISTRICTS
 10
656.89657890399985
 20
4674.6348448700001
 30
15.0
  0
VERTEX
  5
D03
  8
DISTRICTS
 10
656.88264437400005
 20
4674.7350835300003
 30
15.0
  0
VERTEX
  5
D04
  8
DISTRICTS
 10
656.86928104599986
 20
4674.7896654100023
 30
15.0
  0
VERTEX
  5
D05
  8
DISTRICTS
 10
656.86016379399985
 20
4674.8353221999978
 30
15.0
  0
VERTEX
  5
D06
  8
DISTRICTS
 10
656.82861957499995
 20
4674.9355608599981
 30
15.0
  0
VERTEX
  5
D07
  8
DISTRICTS
 10
656.78065618900007
 20
4675.0357995200002
 30
15.0
  0
VERTEX
  5
D08
  8
DISTRICTS
 10
656.76906318099975
 20
4675.0545148800002
 30
15.0
  0
VERTEX
  5
D09
  8
DISTRICTS
 10
656.71933946599995
 20
4675.1360381900004
 30
15.0
  0
VERTEX
  5
D0A
  8
DISTRICTS
 10
656.66884531599999
 20
4675.19786217
 30
15.0
  0
VERTEX
  5
D0B
  8
DISTRICTS
 10
656.63422291199993
 20
4675.2362768499988
 30
15.0
  0
VERTEX
  5
D0C
  8
DISTRICTS
 10
656.56862745099988
 20
4675.2972060000002
 30
15.0
  0
VERTEX
  5
D0D
  8
DISTRICTS
 10
656.51526220599999
 20
4675.3365155099991
 30
15.0
  0
VERTEX
  5
D0E
  8
DISTRICTS
 10
656.46840958600001
 20
4675.369217460001
 30
15.0
  0
VERTEX
  5
D0F
  8
DISTRICTS
 10
656.36819172100002
 20
4675.42095307
 30
15.0
  0
VERTEX
  5
D10
  8
DISTRICTS
 10
656.32210330299995
 20
4675.4367541800002
 30
15.0
  0
VERTEX
  5
D11
  8
DISTRICTS
 10
656.26797385599991
 20
4675.4576917799986
 30
15.0
  0
VERTEX
  5
D12
  8
DISTRICTS
 10
656.16775599100004
 20
4675.4818304599994
 30
15.0
  0
VERTEX
  5
D13
  8
DISTRICTS
 10
656.06753812599993
 20
4675.49259213
 30
15.0
  0
VERTEX
  5
D14
  8
DISTRICTS
 10
655.96732026099994
 20
4675.4916045199998
 30
15.0
  0
VERTEX
  5
D15
  8
DISTRICTS
 10
655.86710239699994
 20
4675.4791416999997
 30
15.0
  0
VERTEX
  5
D16
  8
DISTRICTS
 10
655.76688453199995
 20
4675.45453645
 30
15.0
  0
VERTEX
  5
D17
  8
DISTRICTS
 10
655.71610118499996
 20
4675.4367541800002
 30
15.0
  0
VERTEX
  5
D18
  8
DISTRICTS
 10
655.66666666699984
 20
4675.4193993999988
 30
15.0
  0
VERTEX
  5
D19
  8
DISTRICTS
 10
655.56644880199985
 20
4675.3723852599996
 30
15.0
  0
VERTEX
  5
D1A
  8
DISTRICTS
 10
655.50434206399996
 20
4675.3365155099991
 30
15.0
  0
VERTEX
  5
D1B
  8
DISTRICTS
 10
655.46623093699998
 20
4675.3116028000004
 30
15.0
  0
VERTEX
  5
D1C
  8
DISTRICTS
 10
655.36481534300003
 20
4675.2362768499988
 30
15.0
  0
VERTEX
  5
D1D
  8
DISTRICTS
 10
655.26579520699977
 20
4675.1482929900012
 30
15.0
  0
VERTEX
  5
D1E
  8
DISTRICTS
 10
655.2517107299999
 20
4675.1360381900004
 30
15.0
  0
VERTEX
  5
D1F
  8
DISTRICTS
 10
655.16557734200001
 20
4675.0451898999991
 30
15.0
  0
VERTEX
  5
D20
  8
DISTRICTS
 10
655.15583622300005
 20
4675.0357995200002
 30
15.0
  0
VERTEX
  5
D21
  8
DISTRICTS
 10
655.0653594769999
 20
4674.9310758399997
 30
15.0
  0
VERTEX
  5
D22
  8
DISTRICTS
 10
654.98247466700002
 20
4674.8353221999978
 30
15.0
  0
VERTEX
  5
D23
  8
DISTRICTS
 10
654.96514161200002
 20
4674.8124766399978
 30
15.0
  0
VERTEX
  5
D24
  8
DISTRICTS
 10
654.89460290399995
 20
4674.7350835300003
 30
15.0
  0
VERTEX
  5
D25
  8
DISTRICTS
 10
654.86492374699992
 20
4674.6998408999989
 30
15.0
  0
VERTEX
  5
D26
  8
DISTRICTS
 10
654.79935375100001
 20
4674.6348448700001
 30
15.0
  0
VERTEX
  5
D27
  8
DISTRICTS
 10
654.76470588199993
 20
4674.5991208799987
 30
15.0
  0
VERTEX
  5
D28
  8
DISTRICTS
 10
654.69083346499986
 20
4674.5346062099989
 30
15.0
  0
VERTEX
  5
D29
  8
DISTRICTS
 10
654.66448801699994
 20
4674.5112272300003
 30
15.0
  0
VERTEX
  5
D2A
  8
DISTRICTS
 10
654.56427015300005
 20
4674.4341891200002
 30
15.0
  0
VERTEX
  5
D2B
  8
DISTRICTS
 10
654.46405228799995
 20
4674.3662581199997
 30
15.0
  0
VERTEX
  5
D2C
  8
DISTRICTS
 10
654.41101887299999
 20
4674.3341288800002
 30
15.0
  0
VERTEX
  5
D2D
  8
DISTRICTS
 10
654.36383442299996
 20
4674.3050952499998
 30
15.0
  0
VERTEX
  5
D2E
  8
DISTRICTS
 10
654.26361655800008
 20
4674.2496000000001
 30
15.0
  0
VERTEX
  5
D2F
  8
DISTRICTS
 10
654.23153072699995
 20
4674.23389021
 30
15.0
  0
VERTEX
  5
D30
  8
DISTRICTS
 10
654.16339869299986
 20
4674.1995564199979
 30
15.0
  0
VERTEX
  5
D31
  8
DISTRICTS
 10
654.06318082799976
 20
4674.1545461999976
 30
15.0
  0
VERTEX
  5
D32
  8
DISTRICTS
 10
654.00877606300003
 20
4674.1336515499997
 30
15.0
  0
VERTEX
  5
D33
  8
DISTRICTS
 10
653.962962963
 20
4674.1152747599999
 30
15.0
  0
VERTEX
  5
D34
  8
DISTRICTS
 10
653.86274509799989
 20
4674.0826567200002
 30
15.0
  0
VERTEX
  5
D35
  8
DISTRICTS
 10
653.76252723300001
 20
4674.0579683999977
 30
15.0
  0
VERTEX
  5
D36
  8
DISTRICTS
 10
653.66230936800002
 20
4674.04324094
 30
15.0
  0
VERTEX
  5
D37
  8
DISTRICTS
 10
653.56209150300003
 20
4674.0409221700002
 30
15.0
  0
VERTEX
  5
D38
  8
DISTRICTS
 10
653.46187363800004
 20
4674.0539085700002
 30
15.0
  0
VERTEX
  5
D39
  8
DISTRICTS
 10
653.35943627589666
 20
4673.8145827647413
 30
15.0
  0
VERTEX
  5
D3A
  8
DISTRICTS
 10
653.0940703543904
 20
4673.1511381878072
 30
15.0
  0
VERTEX
  5
D3B
  8
DISTRICTS
 10
652.8287042432745
 20
4672.2488536457276
 30
15.0
  0
SEQEND
  5
D3C
  8
DISTRICTS
  0
POLYLINE
  5
2F
  8
DISTRICTS
 66
     1
 10
0.0
 20
0.0
 30
19.0
 70
     1
  0
VERTEX
  5
D3D
  8
DISTRICTS
 10
646.35377185256596
 20
4669.0377821203883
 30
19.0
  0
VERTEX
  5
D3E
  8
DISTRICTS
 10
647.17640656949357
 20
4668.9050932050013
 30
19.0
  0
VERTEX
  5
D3F
  8
DISTRICTS
 10
647.86635842047235
 20
4668.7724042896143
 30
19.0
  0
VERTEX
  5
D40
  8
DISTRICTS
 10
648.82167638256738
 20
4668.3212620185759
 30
19.0
  0
VERTEX
  5
D41
  8
DISTRICTS
 10
650.95642701500003
 20
4667.3686714699998
 30
19.0
  0
VERTEX
  5
D42
  8
DISTRICTS
 10
650.92403508999985
 20
4667.3174224300001
 30
19.0
  0
VERTEX
  5
D43
  8
DISTRICTS
 10
650.85620915000004
 20
4667.2096234999981
 30
19.0
  0
VERTEX
  5
D44
  8
DISTRICTS
 10
650.80173033899985
 20
4667.1169451100004
 30
19.0
  0
VERTEX
  5
D45
  8
DISTRICTS
 10
650.75599128500005
 20
4667.0384661999997
 30
19.0
  0
VERTEX
  5
D46
  8
DISTRICTS
 10
650.74404413800005
 20
4667.0167064400002
 30
19.0
  0
VERTEX
  5
D47
  8
DISTRICTS
 10
650.68933301300001
 20
4666.9164677799999
 30
19.0
  0
VERTEX
  5
D48
  8
DISTRICTS
 10
650.65577341999995
 20
4666.8545358900001
 30
19.0
  0
VERTEX
  5
D49
  8
DISTRICTS
 10
650.63616404100003
 20
4666.8162291199997
 30
19.0
  0
VERTEX
  5
D4A
  8
DISTRICTS
 10
650.58505472199977
 20
4666.7159904500004
 30
19.0
  0
VERTEX
  5
D4B
  8
DISTRICTS
 10
650.55555555599994
 20
4666.6579653600002
 30
19.0
  0
VERTEX
  5
D4C
  8
DISTRICTS
 10
650.53523816499978
 20
4666.6157517900001
 30
19.0
  0
VERTEX
  5
D4D
  8
DISTRICTS
 10
650.48694275100002
 20
4666.5155131299998
 30
19.0
  0
VERTEX
  5
D4E
  8
DISTRICTS
 10
650.45533769099995
 20
4666.4501136199979
 30
19.0
  0
VERTEX
  5
D4F
  8
DISTRICTS
 10
650.43936890600003
 20
4666.4152744599987
 30
19.0
  0
VERTEX
  5
D50
  8
DISTRICTS
 10
650.39306201300008
 20
4666.3150358000003
 30
19.0
  0
VERTEX
  5
D51
  8
DISTRICTS
 10
650.35511982599985
 20
4666.2337434399979
 30
19.0
  0
VERTEX
  5
D52
  8
DISTRICTS
 10
650.34671764999996
 20
4666.21479714
 30
19.0
  0
VERTEX
  5
D53
  8
DISTRICTS
 10
650.30159712399995
 20
4666.1145584699998
 30
19.0
  0
VERTEX
  5
D54
  8
DISTRICTS
 10
650.25490196099986
 20
4666.01277364
 30
19.0
  0
VERTEX
  5
D55
  8
DISTRICTS
 10
650.21089795599994
 20
4665.9140811500001
 30
19.0
  0
VERTEX
  5
D56
  8
DISTRICTS
 10
650.16497681999999
 20
4665.8138424799999
 30
19.0
  0
VERTEX
  5
D57
  8
DISTRICTS
 10
650.15468409599976
 20
4665.7919542199998
 30
19.0
  0
VERTEX
  5
D58
  8
DISTRICTS
 10
650.11947772400003
 20
4665.7136038199997
 30
19.0
  0
VERTEX
  5
D59
  8
DISTRICTS
 10
650.07288286100004
 20
4665.6133651600003
 30
19.0
  0
VERTEX
  5
D5A
  8
DISTRICTS
 10
650.05446623099999
 20
4665.5750333599981
 30
19.0
  0
VERTEX
  5
D5B
  8
DISTRICTS
 10
650.02597106099995
 20
4665.5131264900001
 30
19.0
  0
VERTEX
  5
D5C
  8
DISTRICTS
 10
649.97797572199977
 20
4665.4128878299998
 30
19.0
  0
VERTEX
  5
D5D
  8
DISTRICTS
 10
649.95424836599989
 20
4665.3652606200003
 30
19.0
  0
VERTEX
  5
D5E
  8
DISTRICTS
 10
649.92906123
 20
4665.3126491599987
 30
19.0
  0
VERTEX
  5
D5F
  8
DISTRICTS
 10
649.87888917300006
 20
4665.2124105000003
 30
19.0
  0
VERTEX
  5
D60
  8
DISTRICTS
 10
649.85403050100001
 20
4665.1649323199981
 30
19.0
  0
VERTEX
  5
D61
  8
DISTRICTS
 10
649.82738489400003
 20
4665.1121718399991
 30
19.0
  0
VERTEX
  5
D62
  8
DISTRICTS
 10
649.774153318
 20
4665.011933169998
 30
19.0
  0
VERTEX
  5
D63
  8
DISTRICTS
 10
649.75381263600002
 20
4664.9754127300002
 30
19.0
  0
VERTEX
  5
D64
  8
DISTRICTS
 10
649.719418034
 20
4664.9116945100004
 30
19.0
  0
VERTEX
  5
D65
  8
DISTRICTS
 10
649.6620738979999
 20
4664.8114558500001
 30
19.0
  0
VERTEX
  5
D66
  8
DISTRICTS
 10
649.65359477100003
 20
4664.7972948899987
 30
19.0
  0
VERTEX
  5
D67
  8
DISTRICTS
 10
649.60334114199998
 20
4664.7112171799999
 30
19.0
  0
VERTEX
  5
D68
  8
DISTRICTS
 10
649.55337690600004
 20
4664.630908529999
 30
19.0
  0
VERTEX
  5
D69
  8
DISTRICTS
 10
649.54124431299999
 20
4664.6109785199978
 30
19.0
  0
VERTEX
  5
D6A
  8
DISTRICTS
 10
649.47688183800005
 20
4664.5107398600003
 30
19.0
  0
VERTEX
  5
D6B
  8
DISTRICTS
 10
649.45315904099994
 20
4664.4758193300004
 30
19.0
  0
VERTEX
  5
D6C
  8
DISTRICTS
 10
649.40936695100004
 20
4664.4105011900001
 30
19.0
  0
VERTEX
  5
D6D
  8
DISTRICTS
 10
649.35294117599994
 20
4664.3315052300004
 30
19.0
  0
VERTEX
  5
D6E
  8
DISTRICTS
 10
649.33788445599976
 20
4664.3102625299989
 30
19.0
  0
VERTEX
  5
D6F
  8
DISTRICTS
 10
649.26268433099995
 20
4664.2100238700004
 30
19.0
  0
VERTEX
  5
D70
  8
DISTRICTS
 10
649.25272331199994
 20
4664.1973822700002
 30
19.0
  0
VERTEX
  5
D71
  8
DISTRICTS
 10
649.18347777500003
 20
4664.1097851999994
 30
19.0
  0
VERTEX
  5
D72
  8
DISTRICTS
 10
649.15250544699995
 20
4664.0727305399996
 30
19.0
  0
VERTEX
  5
D73
  8
DISTRICTS
 10
649.09913734300005
 20
4664.0095465399991
 30
19.0
  0
VERTEX
  5
D74
  8
DISTRICTS
 10
649.05228758199985
 20
4663.95689597
 30
19.0
  0
VERTEX
  5
D75
  8
DISTRICTS
 10
649.00915708399975
 20
4663.9093078799997
 30
19.0
  0
VERTEX
  5
D76
  8
DISTRICTS
 10
648.95206971699974
 20
4663.8492331400003
 30
19.0
  0
VERTEX
  5
D77
  8
DISTRICTS
 10
648.912864539
 20
4663.8090692100004
 30
19.0
  0
VERTEX
  5
D78
  8
DISTRICTS
 10
648.85185185199998
 20
4663.7491135199998
 30
19.0
  0
VERTEX
  5
D79
  8
DISTRICTS
 10
648.80936903099985
 20
4663.7088305500001
 30
19.0
  0
VERTEX
  5
D7A
  8
DISTRICTS
 10
648.75163398699988
 20
4663.6559768899997
 30
19.0
  0
VERTEX
  5
D7B
  8
DISTRICTS
 10
648.69750495799997
 20
4663.6085918899998
 30
19.0
  0
VERTEX
  5
D7C
  8
DISTRICTS
 10
648.651416122
 20
4663.5693657899992
 30
19.0
  0
VERTEX
  5
D7D
  8
DISTRICTS
 10
648.57577145000005
 20
4663.5083532199997
 30
19.0
  0
VERTEX
  5
D7E
  8
DISTRICTS
 10
648.55119825700001
 20
4663.4889426899999
 30
19.0
  0
VERTEX
  5
D7F
  8
DISTRICTS
 10
648.45098039199991
 20
4663.4142272700001
 30
19.0
  0
VERTEX
  5
D80
  8
DISTRICTS
 10
648.44231118699986
 20
4663.4081145600012
 30
19.0
  0
VERTEX
  5
D81
  8
DISTRICTS
 10
648.35076252699992
 20
4663.3442017400002
 30
19.0
  0
VERTEX
  5
D82
  8
DISTRICTS
 10
648.294484442
 20
4663.307875890001
 30
19.0
  0
VERTEX
  5
D83
  8
DISTRICTS
 10
648.25054466199992
 20
4663.2795845199998
 30
19.0
  0
VERTEX
  5
D84
  8
DISTRICTS
 10
648.15032679699993
 20
4663.2198128099999
 30
19.0
  0
VERTEX
  5
D85
  8
DISTRICTS
 10
648.12836793199995
 20
4663.2076372299998
 30
19.0
  0
VERTEX
  5
D86
  8
DISTRICTS
 10
648.05010893199994
 20
4663.1638601200002
 30
19.0
  0
VERTEX
  5
D87
  8
DISTRICTS
 10
647.94989106800006
 20
4663.1129967799989
 30
19.0
  0
VERTEX
  5
D88
  8
DISTRICTS
 10
647.93798620099994
 20
4663.1073985700023
 30
19.0
  0
VERTEX
  5
D89
  8
DISTRICTS
 10
647.84967320299995
 20
4663.0650482000001
 30
19.0
  0
VERTEX
  5
D8A
  8
DISTRICTS
 10
647.74945533799996
 20
4663.0217857999987
 30
19.0
  0
VERTEX
  5
D8B
  8
DISTRICTS
 10
647.71226075699997
 20
4663.0071599000003
 30
19.0
  0
VERTEX
  5
D8C
  8
DISTRICTS
 10
647.64923747300008
 20
4662.9816435800003
 30
19.0
  0
VERTEX
  5
D8D
  8
DISTRICTS
 10
647.54901960799987
 20
4662.9450194299998
 30
19.0
  0
VERTEX
  5
D8E
  8
DISTRICTS
 10
647.44880174299976
 20
4662.9124864499991
 30
19.0
  0
VERTEX
  5
D8F
  8
DISTRICTS
 10
647.42974878799998
 20
4662.90692124
 30
19.0
  0
VERTEX
  5
D90
  8
DISTRICTS
 10
647.348583878
 20
4662.8822198199996
 30
19.0
  0
VERTEX
  5
D91
  8
DISTRICTS
 10
647.2483660129999
 20
4662.8552824799999
 30
19.0
  0
VERTEX
  5
D92
  8
DISTRICTS
 10
647.14814814800002
 20
4662.8317910100004
 30
19.0
  0
VERTEX
  5
D93
  8
DISTRICTS
 10
647.04793028300003
 20
4662.8115280900001
 30
19.0
  0
VERTEX
  5
D94
  8
DISTRICTS
 10
647.01996297100004
 20
4662.8066825799997
 30
19.0
  0
VERTEX
  5
D95
  8
DISTRICTS
 10
646.94771241800004
 20
4662.7934824599979
 30
19.0
  0
VERTEX
  5
D96
  8
DISTRICTS
 10
646.84749455300005
 20
4662.7781745700004
 30
19.0
  0
VERTEX
  5
D97
  8
DISTRICTS
 10
646.74727668800006
 20
4662.7657830400003
 30
19.0
  0
VERTEX
  5
D98
  8
DISTRICTS
 10
646.64705882400006
 20
4662.75618983
 30
19.0
  0
VERTEX
  5
D99
  8
DISTRICTS
 10
646.54684095899995
 20
4662.7492986999978
 30
19.0
  0
VERTEX
  5
D9A
  8
DISTRICTS
 10
646.44662309399985
 20
4662.7450338299977
 30
19.0
  0
VERTEX
  5
D9B
  8
DISTRICTS
 10
646.34640522899986
 20
4662.7433384300002
 30
19.0
  0
VERTEX
  5
D9C
  8
DISTRICTS
 10
646.24618736399975
 20
4662.7441731899999
 30
19.0
  0
VERTEX
  5
D9D
  8
DISTRICTS
 10
646.14596949899999
 20
4662.74751466
 30
19.0
  0
VERTEX
  5
D9E
  8
DISTRICTS
 10
646.04575163399988
 20
4662.753353600001
 30
19.0
  0
VERTEX
  5
D9F
  8
DISTRICTS
 10
645.94553376900001
 20
4662.7616932299998
 30
19.0
  0
VERTEX
  5
DA0
  8
DISTRICTS
 10
645.84531590400002
 20
4662.7725473399996
 30
19.0
  0
VERTEX
  5
DA1
  8
DISTRICTS
 10
645.74509803899991
 20
4662.7859382400002
 30
19.0
  0
VERTEX
  5
DA2
  8
DISTRICTS
 10
645.64488017400004
 20
4662.80189453
 30
19.0
  0
VERTEX
  5
DA3
  8
DISTRICTS
 10
645.61868658100002
 20
4662.8066825799997
 30
19.0
  0
VERTEX
  5
DA4
  8
DISTRICTS
 10
645.54466230900005
 20
4662.8197069400003
 30
19.0
  0
VERTEX
  5
DA5
  8
DISTRICTS
 10
645.44444444400006
 20
4662.8397938899989
 30
19.0
  0
VERTEX
  5
DA6
  8
DISTRICTS
 10
645.34422658000005
 20
4662.8624624200002
 30
19.0
  0
VERTEX
  5
DA7
  8
DISTRICTS
 10
645.24400871499995
 20
4662.8877522700004
 30
19.0
  0
VERTEX
  5
DA8
  8
DISTRICTS
 10
645.17477268799996
 20
4662.90692124
 30
19.0
  0
VERTEX
  5
DA9
  8
DISTRICTS
 10
645.14379084999985
 20
4662.91526505
 30
19.0
  0
VERTEX
  5
DAA
  8
DISTRICTS
 10
645.04357298499986
 20
4662.94443675
 30
19.0
  0
VERTEX
  5
DAB
  8
DISTRICTS
 10
644.94335511999998
 20
4662.9762597299978
 30
19.0
  0
VERTEX
  5
DAC
  8
DISTRICTS
 10
644.85331184500001
 20
4663.0071599000003
 30
19.0
  0
VERTEX
  5
DAD
  8
DISTRICTS
 10
644.84313725499987
 20
4663.0105806600004
 30
19.0
  0
VERTEX
  5
DAE
  8
DISTRICTS
 10
644.74291938999977
 20
4663.0460932599999
 30
19.0
  0
VERTEX
  5
DAF
  8
DISTRICTS
 10
644.64270152500001
 20
4663.0842181199978
 30
19.0
  0
VERTEX
  5
DB0
  8
DISTRICTS
 10
644.58496370499995
 20
4663.1073985700023
 30
19.0
  0
VERTEX
  5
DB1
  8
DISTRICTS
 10
644.5424836599999
 20
4663.1241967599999
 30
19.0
  0
VERTEX
  5
DB2
  8
DISTRICTS
 10
644.46967269117556
 20
4663.464847983716
 30
19.0
  0
VERTEX
  5
DB3
  8
DISTRICTS
 10
644.52274583755479
 20
4664.5528970692467
 30
19.0
  0
VERTEX
  5
DB4
  8
DISTRICTS
 10
644.57581898393425
 20
4665.2694171710591
 30
19.0
  0
VERTEX
  5
DB5
  8
DISTRICTS
 10
644.81464852186025
 20
4665.6674838140316
 30
19.0
  0
VERTEX
  5
DB6
  8
DISTRICTS
 10
645.47806379964959
 20
4666.224777238016
 30
19.0
  0
VERTEX
  5
DB7
  8
DISTRICTS
 10
645.7168931479664
 20
4666.9147595773911
 30
19.0
  0
VERTEX
  5
DB8
  8
DISTRICTS
 10
645.87611277671385
 20
4668.0293464253609
 30
19.0
  0
SEQEND
  5
DB9
  8
DISTRICTS
  0
POLYLINE
  5
30
  8
DISTRICTS
 66
     1
 10
0.0
 20
0.0
 30
20.0
 70
     1
  0
VERTEX
  5
DBA
  8
DISTRICTS
 10
646.35377185256596
 20
4669.0377821203883
 30
20.0
  0
VERTEX
  5
DBB
  8
DISTRICTS
 10
645.87611277671385
 20
4668.0293464253609
 30
20.0
  0
VERTEX
  5
DBC
  8
DISTRICTS
 10
645.7168931479664
 20
4666.9147595773911
 30
20.0
  0
VERTEX
  5
DBD
  8
DISTRICTS
 10
645.47806379964959
 20
4666.224777238016
 30
20.0
  0
VERTEX
  5
DBE
  8
DISTRICTS
 10
644.81464852186025
 20
4665.6674838140316
 30
20.0
  0
VERTEX
  5
DBF
  8
DISTRICTS
 10
644.57581898393425
 20
4665.2694171710591
 30
20.0
  0
VERTEX
  5
DC0
  8
DISTRICTS
 10
644.52274583755479
 20
4664.5528970692467
 30
20.0
  0
VERTEX
  5
DC1
  8
DISTRICTS
 10
644.46967269117556
 20
4663.464847983716
 30
20.0
  0
VERTEX
  5
DC2
  8
DISTRICTS
 10
644.5424836599999
 20
4663.1241967599999
 30
20.0
  0
VERTEX
  5
DC3
  8
DISTRICTS
 10
644.44226579500003
 20
4663.1657051399989
 30
20.0
  0
VERTEX
  5
DC4
  8
DISTRICTS
 10
644.34652976699999
 20
4663.2076372299998
 30
20.0
  0
VERTEX
  5
DC5
  8
DISTRICTS
 10
644.24183006500004
 20
4663.25412134
 30
20.0
  0
VERTEX
  5
DC6
  8
DISTRICTS
 10
644.14161220000005
 20
4663.3009013999999
 30
20.0
  0
VERTEX
  5
DC7
  8
DISTRICTS
 10
644.12700559799976
 20
4663.307875890001
 30
20.0
  0
VERTEX
  5
DC8
  8
DISTRICTS
 10
644.04139433599994
 20
4663.3482702800002
 30
20.0
  0
VERTEX
  5
DC9
  8
DISTRICTS
 10
643.94117647099995
 20
4663.3973361199996
 30
20.0
  0
VERTEX
  5
DCA
  8
DISTRICTS
 10
643.91955354300001
 20
4663.4081145600012
 30
20.0
  0
VERTEX
  5
DCB
  8
DISTRICTS
 10
643.84095860599984
 20
4663.4467811699997
 30
20.0
  0
VERTEX
  5
DCC
  8
DISTRICTS
 10
643.74074074099985
 20
4663.4974454900002
 30
20.0
  0
VERTEX
  5
DCD
  8
DISTRICTS
 10
643.71942148300002
 20
4663.5083532199997
 30
20.0
  0
VERTEX
  5
DCE
  8
DISTRICTS
 10
643.64052287599986
 20
4663.5480682799989
 30
20.0
  0
VERTEX
  5
DCF
  8
DISTRICTS
 10
643.54030501099976
 20
4663.599497449999
 30
20.0
  0
VERTEX
  5
DD0
  8
DISTRICTS
 10
643.52268939400005
 20
4663.6085918899998
 30
20.0
  0
VERTEX
  5
DD1
  8
DISTRICTS
 10
643.440087146
 20
4663.6503113099989
 30
20.0
  0
VERTEX
  5
DD2
  8
DISTRICTS
 10
643.33986928099989
 20
4663.701539749999
 30
20.0
  0
VERTEX
  5
DD3
  8
DISTRICTS
 10
643.32562977899977
 20
4663.7088305500001
 30
20.0
  0
VERTEX
  5
DD4
  8
DISTRICTS
 10
643.23965141600002
 20
4663.7515041200004
 30
20.0
  0
VERTEX
  5
DD5
  8
DISTRICTS
 10
643.13943355100002
 20
4663.8015349699999
 30
20.0
  0
VERTEX
  5
DD6
  8
DISTRICTS
 10
643.12436600699994
 20
4663.8090692100004
 30
20.0
  0
VERTEX
  5
DD7
  8
DISTRICTS
 10
643.03921568600003
 20
4663.8497657099997
 30
20.0
  0
VERTEX
  5
DD8
  8
DISTRICTS
 10
642.93899782099993
 20
4663.8979288199989
 30
20.0
  0
VERTEX
  5
DD9
  8
DISTRICTS
 10
642.91559295900004
 20
4663.9093078799997
 30
20.0
  0
VERTEX
  5
DDA
  8
DISTRICTS
 10
642.83877995599994
 20
4663.9443385900004
 30
20.0
  0
VERTEX
  5
DDB
  8
DISTRICTS
 10
642.73856209199994
 20
4663.99114809
 30
20.0
  0
VERTEX
  5
DDC
  8
DISTRICTS
 10
642.70061419900003
 20
4664.0095465399991
 30
20.0
  0
VERTEX
  5
DDD
  8
DISTRICTS
 10
642.63834422699995
 20
4664.0375087599987
 30
20.0
  0
VERTEX
  5
DDE
  8
DISTRICTS
 10
642.53812636199984
 20
4664.0852618500003
 30
20.0
  0
VERTEX
  5
DDF
  8
DISTRICTS
 10
642.48937997099995
 20
4664.1097851999994
 30
20.0
  0
VERTEX
  5
DE0
  8
DISTRICTS
 10
642.43790849699985
 20
4664.1339077000011
 30
20.0
  0
VERTEX
  5
DE1
  8
DISTRICTS
 10
642.33769063199975
 20
4664.1831922800002
 30
20.0
  0
VERTEX
  5
DE2
  8
DISTRICTS
 10
642.28550078699993
 20
4664.2100238700004
 30
20.0
  0
VERTEX
  5
DE3
  8
DISTRICTS
 10
642.23747276699999
 20
4664.2323620400002
 30
20.0
  0
VERTEX
  5
DE4
  8
DISTRICTS
 10
642.13725490199988
 20
4664.2828110700002
 30
20.0
  0
VERTEX
  5
DE5
  8
DISTRICTS
 10
642.08829677999995
 20
4664.3102625299989
 30
20.0
  0
VERTEX
  5
DE6
  8
DISTRICTS
 10
642.037037037
 20
4664.3373218999977
 30
20.0
  0
VERTEX
  5
DE7
  8
DISTRICTS
 10
641.93681917200001
 20
4664.3978731899997
 30
20.0
  0
VERTEX
  5
DE8
  8
DISTRICTS
 10
641.91550062299996
 20
4664.4105011900001
 30
20.0
  0
VERTEX
  5
DE9
  8
DISTRICTS
 10
641.83660130699991
 20
4664.4573763300004
 30
20.0
  0
VERTEX
  5
DEA
  8
DISTRICTS
 10
641.73638344199992
 20
4664.5085330499987
 30
20.0
  0
VERTEX
  5
DEB
  8
DISTRICTS
 10
641.63616557699993
 20
4664.5457411899988
 30
20.0
  0
VERTEX
  5
DEC
  8
DISTRICTS
 10
641.53594771199994
 20
4664.5762987799999
 30
20.0
  0
VERTEX
  5
DED
  8
DISTRICTS
 10
641.43572984699995
 20
4664.6084132799979
 30
20.0
  0
VERTEX
  5
DEE
  8
DISTRICTS
 10
641.33551198300006
 20
4664.6405547699997
 30
20.0
  0
VERTEX
  5
DEF
  8
DISTRICTS
 10
641.23529411799996
 20
4664.6885694199991
 30
20.0
  0
VERTEX
  5
DF0
  8
DISTRICTS
 10
641.203131396
 20
4664.7112171799999
 30
20.0
  0
VERTEX
  5
DF1
  8
DISTRICTS
 10
641.13507625299997
 20
4664.75356388
 30
20.0
  0
VERTEX
  5
DF2
  8
DISTRICTS
 10
641.07512157600002
 20
4664.8114558500001
 30
20.0
  0
VERTEX
  5
DF3
  8
DISTRICTS
 10
641.03485838799998
 20
4664.8581743699988
 30
20.0
  0
VERTEX
  5
DF4
  8
DISTRICTS
 10
640.99710690400002
 20
4664.9116945100004
 30
20.0
  0
VERTEX
  5
DF5
  8
DISTRICTS
 10
640.95316533300002
 20
4665.011933169998
 30
20.0
  0
VERTEX
  5
DF6
  8
DISTRICTS
 10
640.93464052299987
 20
4665.1095818699996
 30
20.0
  0
VERTEX
  5
DF7
  8
DISTRICTS
 10
640.92711348199987
 20
4665.2124105000003
 30
20.0
  0
VERTEX
  5
DF8
  8
DISTRICTS
 10
640.93464052299987
 20
4665.2996948699983
 30
20.0
  0
VERTEX
  5
DF9
  8
DISTRICTS
 10
640.93560139600004
 20
4665.3126491599987
 30
20.0
  0
VERTEX
  5
DFA
  8
DISTRICTS
 10
640.95345988199995
 20
4665.4128878299998
 30
20.0
  0
VERTEX
  5
DFB
  8
DISTRICTS
 10
640.98110738399998
 20
4665.5131264900001
 30
20.0
  0
VERTEX
  5
DFC
  8
DISTRICTS
 10
641.01292128300008
 20
4665.6133651600003
 30
20.0
  0
VERTEX
  5
DFD
  8
DISTRICTS
 10
641.03485838799998
 20
4665.6931839199997
 30
20.0
  0
VERTEX
  5
DFE
  8
DISTRICTS
 10
641.04128548300002
 20
4665.7136038199997
 30
20.0
  0
VERTEX
  5
DFF
  8
DISTRICTS
 10
641.05963551499997
 20
4665.8138424799999
 30
20.0
  0
VERTEX
  5
E00
  8
DISTRICTS
 10
641.06161405199998
 20
4665.9140811500001
 30
20.0
  0
VERTEX
  5
E01
  8
DISTRICTS
 10
641.037733893
 20
4666.0143198100004
 30
20.0
  0
VERTEX
  5
E02
  8
DISTRICTS
 10
640.98261262899985
 20
4666.1145584699998
 30
20.0
  0
VERTEX
  5
E03
  8
DISTRICTS
 10
640.93464052299987
 20
4666.1900683699978
 30
20.0
  0
VERTEX
  5
E04
  8
DISTRICTS
 10
640.92382219299986
 20
4666.21479714
 30
20.0
  0
VERTEX
  5
E05
  8
DISTRICTS
 10
640.92894516199999
 20
4666.3150358000003
 30
20.0
  0
VERTEX
  5
E06
  8
DISTRICTS
 10
640.93464052299987
 20
4666.3317831599988
 30
20.0
  0
VERTEX
  5
E07
  8
DISTRICTS
 10
640.967133279
 20
4666.4152744599987
 30
20.0
  0
VERTEX
  5
E08
  8
DISTRICTS
 10
641.02326909500005
 20
4666.5155131299998
 30
20.0
  0
VERTEX
  5
E09
  8
DISTRICTS
 10
641.03485838799998
 20
4666.5548031899998
 30
20.0
  0
VERTEX
  5
E0A
  8
DISTRICTS
 10
641.05543478200002
 20
4666.6157517900001
 30
20.0
  0
VERTEX
  5
E0B
  8
DISTRICTS
 10
641.06856294800002
 20
4666.7159904500004
 30
20.0
  0
VERTEX
  5
E0C
  8
DISTRICTS
 10
641.0726928119999
 20
4666.8162291199997
 30
20.0
  0
VERTEX
  5
E0D
  8
DISTRICTS
 10
641.07234140800006
 20
4666.9164677799999
 30
20.0
  0
VERTEX
  5
E0E
  8
DISTRICTS
 10
641.06969813000001
 20
4667.0167064400002
 30
20.0
  0
VERTEX
  5
E0F
  8
DISTRICTS
 10
641.06599349500004
 20
4667.1169451100004
 30
20.0
  0
VERTEX
  5
E10
  8
DISTRICTS
 10
641.06198976400003
 20
4667.2171837699998
 30
20.0
  0
VERTEX
  5
E11
  8
DISTRICTS
 10
641.05819252200001
 20
4667.3174224300001
 30
20.0
  0
VERTEX
  5
E12
  8
DISTRICTS
 10
641.05495461400005
 20
4667.4176611000003
 30
20.0
  0
VERTEX
  5
E13
  8
DISTRICTS
 10
641.05253256000003
 20
4667.5178997599987
 30
20.0
  0
VERTEX
  5
E14
  8
DISTRICTS
 10
641.05111966899995
 20
4667.618138419999
 30
20.0
  0
VERTEX
  5
E15
  8
DISTRICTS
 10
641.05086675400003
 20
4667.7183770899992
 30
20.0
  0
VERTEX
  5
E16
  8
DISTRICTS
 10
641.0518957459999
 20
4667.8186157500004
 30
20.0
  0
VERTEX
  5
E17
  8
DISTRICTS
 10
641.05430899199985
 20
4667.9188544199978
 30
20.0
  0
VERTEX
  5
E18
  8
DISTRICTS
 10
641.05819576600004
 20
4668.0190930799999
 30
20.0
  0
VERTEX
  5
E19
  8
DISTRICTS
 10
641.06363689599993
 20
4668.1193317400002
 30
20.0
  0
VERTEX
  5
E1A
  8
DISTRICTS
 10
641.07070802700002
 20
4668.2195704100004
 30
20.0
  0
VERTEX
  5
E1B
  8
DISTRICTS
 10
641.079481859
 20
4668.319809069998
 30
20.0
  0
VERTEX
  5
E1C
  8
DISTRICTS
 10
641.09002955400001
 20
4668.4200477300001
 30
20.0
  0
VERTEX
  5
E1D
  8
DISTRICTS
 10
641.10242145400002
 20
4668.5202863999984
 30
20.0
  0
VERTEX
  5
E1E
  8
DISTRICTS
 10
641.11672719199998
 20
4668.6205250599978
 30
20.0
  0
VERTEX
  5
E1F
  8
DISTRICTS
 10
641.13301528800002
 20
4668.7207637199981
 30
20.0
  0
VERTEX
  5
E20
  8
DISTRICTS
 10
641.13507625299997
 20
4668.7322061000004
 30
20.0
  0
VERTEX
  5
E21
  8
DISTRICTS
 10
641.15055580499995
 20
4668.8210023900001
 30
20.0
  0
VERTEX
  5
E22
  8
DISTRICTS
 10
641.17004239300002
 20
4668.9212410500004
 30
20.0
  0
VERTEX
  5
E23
  8
DISTRICTS
 10
641.19164672300008
 20
4669.0214797099989
 30
20.0
  0
VERTEX
  5
E24
  8
DISTRICTS
 10
641.21543187899977
 20
4669.1217183799999
 30
20.0
  0
VERTEX
  5
E25
  8
DISTRICTS
 10
641.23529411799996
 20
4669.1986786999987
 30
20.0
  0
VERTEX
  5
E26
  8
DISTRICTS
 10
641.24117404100002
 20
4669.2219570400002
 30
20.0
  0
VERTEX
  5
E27
  8
DISTRICTS
 10
641.26824615099997
 20
4669.3221956999996
 30
20.0
  0
VERTEX
  5
E28
  8
DISTRICTS
 10
641.29762137
 20
4669.4224343699998
 30
20.0
  0
VERTEX
  5
E29
  8
DISTRICTS
 10
641.32932957399987
 20
4669.5226730300001
 30
20.0
  0
VERTEX
  5
E2A
  8
DISTRICTS
 10
641.33551198300006
 20
4669.5413281700012
 30
20.0
  0
VERTEX
  5
E2B
  8
DISTRICTS
 10
641.36228020700003
 20
4669.6229116900013
 30
20.0
  0
VERTEX
  5
E2C
  8
DISTRICTS
 10
641.39734152699998
 20
4669.7231503599978
 30
20.0
  0
VERTEX
  5
E2D
  8
DISTRICTS
 10
641.43475218900005
 20
4669.8233890199999
 30
20.0
  0
VERTEX
  5
E2E
  8
DISTRICTS
 10
641.47312720699995
 20
4669.9236276800002
 30
20.0
  0
VERTEX
  5
E2F
  8
DISTRICTS
 10
641.5137704
 20
4670.0238663500004
 30
20.0
  0
VERTEX
  5
E30
  8
DISTRICTS
 10
641.53594771199994
 20
4670.0765850899998
 30
20.0
  0
VERTEX
  5
E31
  8
DISTRICTS
 10
641.55598957300003
 20
4670.1241050099998
 30
20.0
  0
VERTEX
  5
E32
  8
DISTRICTS
 10
641.59966764099977
 20
4670.2243436799999
 30
20.0
  0
VERTEX
  5
E33
  8
DISTRICTS
 10
641.63616557699993
 20
4670.3048653899996
 30
20.0
  0
VERTEX
  5
E34
  8
DISTRICTS
 10
641.64515877400004
 20
4670.3245823400002
 30
20.0
  0
VERTEX
  5
E35
  8
DISTRICTS
 10
641.69157078000001
 20
4670.4248209999996
 30
20.0
  0
VERTEX
  5
E36
  8
DISTRICTS
 10
641.73638344199992
 20
4670.5181133999986
 30
20.0
  0
VERTEX
  5
E37
  8
DISTRICTS
 10
641.78847858699999
 20
4670.6252983300001
 30
20.0
  0
VERTEX
  5
E38
  8
DISTRICTS
 10
641.83660130699991
 20
4670.72131472
 30
20.0
  0
VERTEX
  5
E39
  8
DISTRICTS
 10
641.88927191199991
 20
4670.8257756599996
 30
20.0
  0
VERTEX
  5
E3A
  8
DISTRICTS
 10
641.93681917200001
 20
4670.9179843799993
 30
20.0
  0
VERTEX
  5
E3B
  8
DISTRICTS
 10
641.99277755799994
 20
4671.0262529800002
 30
20.0
  0
VERTEX
  5
E3C
  8
DISTRICTS
 10
642.037037037
 20
4671.1106841700002
 30
20.0
  0
VERTEX
  5
E3D
  8
DISTRICTS
 10
642.04538302399976
 20
4671.1264916500004
 30
20.0
  0
VERTEX
  5
E3E
  8
DISTRICTS
 10
642.09788372699995
 20
4671.2267303099989
 30
20.0
  0
VERTEX
  5
E3F
  8
DISTRICTS
 10
642.13725490199988
 20
4671.3012948200003
 30
20.0
  0
VERTEX
  5
E40
  8
DISTRICTS
 10
642.15087434300005
 20
4671.3269689699982
 30
20.0
  0
VERTEX
  5
E41
  8
DISTRICTS
 10
642.20368203800001
 20
4671.4272076399984
 30
20.0
  0
VERTEX
  5
E42
  8
DISTRICTS
 10
642.23747276699999
 20
4671.4911155199998
 30
20.0
  0
VERTEX
  5
E43
  8
DISTRICTS
 10
642.79786630491185
 20
4671.2404179507048
 30
20.0
  0
VERTEX
  5
E44
  8
DISTRICTS
 10
643.56742787546
 20
4670.8423512045438
 30
20.0
  0
VERTEX
  5
E45
  8
DISTRICTS
 10
644.6288923199229
 20
4670.2319822556774
 30
20.0
  0
VERTEX
  5
E46
  8
DISTRICTS
 10
645.31884417090203
 20
4669.7277644597598
 30
20.0
  0
SEQEND
  5
E47
  8
DISTRICTS
  0
POLYLINE
  5
31
  8
DISTRICTS
 66
     1
 10
0.0
 20
0.0
 30
18.0
 70
     1
  0
VERTEX
  5
E48
  8
DISTRICTS
 10
650.17504332172643
 20
4672.8061470697139
 30
18.0
  0
VERTEX
  5
E49
  8
DISTRICTS
 10
649.40548175117817
 20
4671.903862527638
 30
18.0
  0
VERTEX
  5
E4A
  8
DISTRICTS
 10
648.66245675381992
 20
4671.0811912728777
 30
18.0
  0
VERTEX
  5
E4B
  8
DISTRICTS
 10
648.05211481201923
 20
4669.913528900026
 30
18.0
  0
VERTEX
  5
E4C
  8
DISTRICTS
 10
647.86635842047235
 20
4668.7724042896143
 30
18.0
  0
VERTEX
  5
E4D
  8
DISTRICTS
 10
647.17640656949357
 20
4668.9050932050013
 30
18.0
  0
VERTEX
  5
E4E
  8
DISTRICTS
 10
646.35377185256596
 20
4669.0377821203883
 30
18.0
  0
VERTEX
  5
E4F
  8
DISTRICTS
 10
645.31884417090203
 20
4669.7277644597598
 30
18.0
  0
VERTEX
  5
E50
  8
DISTRICTS
 10
644.6288923199229
 20
4670.2319822556774
 30
18.0
  0
VERTEX
  5
E51
  8
DISTRICTS
 10
643.56742787546
 20
4670.8423512045438
 30
18.0
  0
VERTEX
  5
E52
  8
DISTRICTS
 10
642.79786630491185
 20
4671.2404179507048
 30
18.0
  0
VERTEX
  5
E53
  8
DISTRICTS
 10
642.23747276699999
 20
4671.4911155199998
 30
18.0
  0
VERTEX
  5
E54
  8
DISTRICTS
 10
642.25671563699996
 20
4671.5274462999978
 30
18.0
  0
VERTEX
  5
E55
  8
DISTRICTS
 10
642.30959813000004
 20
4671.627684959999
 30
18.0
  0
VERTEX
  5
E56
  8
DISTRICTS
 10
642.33769063199975
 20
4671.6808526900004
 30
18.0
  0
VERTEX
  5
E57
  8
DISTRICTS
 10
642.36253308900007
 20
4671.7279236300001
 30
18.0
  0
VERTEX
  5
E58
  8
DISTRICTS
 10
642.41547739199984
 20
4671.8281622900004
 30
18.0
  0
VERTEX
  5
E59
  8
DISTRICTS
 10
642.43790849699985
 20
4671.8705670999998
 30
18.0
  0
VERTEX
  5
E5A
  8
DISTRICTS
 10
642.46839040300006
 20
4671.9284009499997
 30
18.0
  0
VERTEX
  5
E5B
  8
DISTRICTS
 10
642.52161120900007
 20
4672.0286396199999
 30
18.0
  0
VERTEX
  5
E5C
  8
DISTRICTS
 10
642.53812636199984
 20
4672.0596571300002
 30
18.0
  0
VERTEX
  5
E5D
  8
DISTRICTS
 10
642.57478502900005
 20
4672.1288782800002
 30
18.0
  0
VERTEX
  5
E5E
  8
DISTRICTS
 10
642.62871150800004
 20
4672.2291169500004
 30
18.0
  0
VERTEX
  5
E5F
  8
DISTRICTS
 10
642.63834422699995
 20
4672.2469431299996
 30
18.0
  0
VERTEX
  5
E60
  8
DISTRICTS
 10
642.68260285400004
 20
4672.3293556099979
 30
18.0
  0
VERTEX
  5
E61
  8
DISTRICTS
 10
642.73785648900002
 20
4672.4295942700001
 30
18.0
  0
VERTEX
  5
E62
  8
DISTRICTS
 10
642.79305904099988
 20
4672.5298329400002
 30
18.0
  0
VERTEX
  5
E63
  8
DISTRICTS
 10
642.83877995599994
 20
4672.6102300599996
 30
18.0
  0
VERTEX
  5
E64
  8
DISTRICTS
 10
642.84999540299998
 20
4672.6300715999987
 30
18.0
  0
VERTEX
  5
E65
  8
DISTRICTS
 10
642.907650257
 20
4672.730310259999
 30
18.0
  0
VERTEX
  5
E66
  8
DISTRICTS
 10
642.93899782099993
 20
4672.7831900900001
 30
18.0
  0
VERTEX
  5
E67
  8
DISTRICTS
 10
642.96696779299975
 20
4672.8305489300001
 30
18.0
  0
VERTEX
  5
E68
  8
DISTRICTS
 10
643.02813488899994
 20
4672.9307875900004
 30
18.0
  0
VERTEX
  5
E69
  8
DISTRICTS
 10
643.03921568600003
 20
4672.9485510699988
 30
18.0
  0
VERTEX
  5
E6A
  8
DISTRICTS
 10
643.09066047299996
 20
4673.0310262499997
 30
18.0
  0
VERTEX
  5
E6B
  8
DISTRICTS
 10
643.13943355100002
 20
4673.1060463699996
 30
18.0
  0
VERTEX
  5
E6C
  8
DISTRICTS
 10
643.15586356699998
 20
4673.1312649199999
 30
18.0
  0
VERTEX
  5
E6D
  8
DISTRICTS
 10
643.22324994300004
 20
4673.2315035800011
 30
18.0
  0
VERTEX
  5
E6E
  8
DISTRICTS
 10
643.23965141600002
 20
4673.2551944099987
 30
18.0
  0
VERTEX
  5
E6F
  8
DISTRICTS
 10
643.29308961499999
 20
4673.3317422399996
 30
18.0
  0
VERTEX
  5
E70
  8
DISTRICTS
 10
643.33986928099989
 20
4673.3960992800003
 30
18.0
  0
VERTEX
  5
E71
  8
DISTRICTS
 10
643.36627820299975
 20
4673.4319809099998
 30
18.0
  0
VERTEX
  5
E72
  8
DISTRICTS
 10
643.440087146
 20
4673.5284070899997
 30
18.0
  0
VERTEX
  5
E73
  8
DISTRICTS
 10
643.52312569699995
 20
4673.6324582300012
 30
18.0
  0
VERTEX
  5
E74
  8
DISTRICTS
 10
643.54030501099976
 20
4673.6533047000003
 30
18.0
  0
VERTEX
  5
E75
  8
DISTRICTS
 10
643.60766811400003
 20
4673.7326968999987
 30
18.0
  0
VERTEX
  5
E76
  8
DISTRICTS
 10
643.64052287599986
 20
4673.7702433599989
 30
18.0
  0
VERTEX
  5
E77
  8
DISTRICTS
 10
643.69748894300005
 20
4673.8329355599999
 30
18.0
  0
VERTEX
  5
E78
  8
DISTRICTS
 10
643.74074074099985
 20
4673.8792164699998
 30
18.0
  0
VERTEX
  5
E79
  8
DISTRICTS
 10
643.79364412799976
 20
4673.9331742200002
 30
18.0
  0
VERTEX
  5
E7A
  8
DISTRICTS
 10
643.84095860599984
 20
4673.9802100999987
 30
18.0
  0
VERTEX
  5
E7B
  8
DISTRICTS
 10
643.89779642300016
 20
4674.0334128900004
 30
18.0
  0
VERTEX
  5
E7C
  8
DISTRICTS
 10
643.94117647099995
 20
4674.0730617299978
 30
18.0
  0
VERTEX
  5
E7D
  8
DISTRICTS
 10
644.01260208999997
 20
4674.1336515499997
 30
18.0
  0
VERTEX
  5
E7E
  8
DISTRICTS
 10
644.04139433599994
 20
4674.1575186
 30
18.0
  0
VERTEX
  5
E7F
  8
DISTRICTS
 10
644.14161220000005
 20
4674.2333931099984
 30
18.0
  0
VERTEX
  5
E80
  8
DISTRICTS
 10
644.24183006500004
 20
4674.3026983199998
 30
18.0
  0
VERTEX
  5
E81
  8
DISTRICTS
 10
644.292493186
 20
4674.3341288800002
 30
18.0
  0
VERTEX
  5
E82
  8
DISTRICTS
 10
644.34204793000004
 20
4674.3640828300004
 30
18.0
  0
VERTEX
  5
E83
  8
DISTRICTS
 10
644.44226579500003
 20
4674.4188681300002
 30
18.0
  0
VERTEX
  5
E84
  8
DISTRICTS
 10
644.47293395199995
 20
4674.4343675399987
 30
18.0
  0
VERTEX
  5
E85
  8
DISTRICTS
 10
644.5424836599999
 20
4674.4686704999976
 30
18.0
  0
VERTEX
  5
E86
  8
DISTRICTS
 10
644.64270152500001
 20
4674.5134483700003
 30
18.0
  0
VERTEX
  5
E87
  8
DISTRICTS
 10
644.69389724699988
 20
4674.5346062099989
 30
18.0
  0
VERTEX
  5
E88
  8
DISTRICTS
 10
644.74291938999977
 20
4674.5544892099997
 30
18.0
  0
VERTEX
  5
E89
  8
DISTRICTS
 10
644.84313725499987
 20
4674.59250952
 30
18.0
  0
VERTEX
  5
E8A
  8
DISTRICTS
 10
644.94335511999998
 20
4674.6271005400004
 30
18.0
  0
VERTEX
  5
E8B
  8
DISTRICTS
 10
644.96690774699994
 20
4674.6348448700001
 30
18.0
  0
VERTEX
  5
E8C
  8
DISTRICTS
 10
645.04357298499986
 20
4674.6599174000003
 30
18.0
  0
VERTEX
  5
E8D
  8
DISTRICTS
 10
645.14379084999985
 20
4674.6903973999997
 30
18.0
  0
VERTEX
  5
E8E
  8
DISTRICTS
 10
645.24400871499995
 20
4674.7184173599999
 30
18.0
  0
VERTEX
  5
E8F
  8
DISTRICTS
 10
645.30795391399988
 20
4674.7350835300003
 30
18.0
  0
VERTEX
  5
E90
  8
DISTRICTS
 10
645.34422658000005
 20
4674.7446184299997
 30
18.0
  0
VERTEX
  5
E91
  8
DISTRICTS
 10
645.44444444400006
 20
4674.7694511099999
 30
18.0
  0
VERTEX
  5
E92
  8
DISTRICTS
 10
645.54466230900005
 20
4674.792188739998
 30
18.0
  0
VERTEX
  5
E93
  8
DISTRICTS
 10
645.64488017400004
 20
4674.8129128
 30
18.0
  0
VERTEX
  5
E94
  8
DISTRICTS
 10
645.74509803899991
 20
4674.831692939998
 30
18.0
  0
VERTEX
  5
E95
  8
DISTRICTS
 10
645.76620487000002
 20
4674.8353221999978
 30
18.0
  0
VERTEX
  5
E96
  8
DISTRICTS
 10
645.84531590400002
 20
4674.84932321
 30
18.0
  0
VERTEX
  5
E97
  8
DISTRICTS
 10
645.94553376900001
 20
4674.8652582799978
 30
18.0
  0
VERTEX
  5
E98
  8
DISTRICTS
 10
646.04575163399988
 20
4674.8793522400001
 30
18.0
  0
VERTEX
  5
E99
  8
DISTRICTS
 10
646.14596949899999
 20
4674.8916547699991
 30
18.0
  0
VERTEX
  5
E9A
  8
DISTRICTS
 10
646.24618736399975
 20
4674.9022154900003
 30
18.0
  0
VERTEX
  5
E9B
  8
DISTRICTS
 10
646.34640522899986
 20
4674.9110842099999
 30
18.0
  0
VERTEX
  5
E9C
  8
DISTRICTS
 10
646.44662309399985
 20
4674.9183109799978
 30
18.0
  0
VERTEX
  5
E9D
  8
DISTRICTS
 10
646.54684095899995
 20
4674.9239463200001
 30
18.0
  0
VERTEX
  5
E9E
  8
DISTRICTS
 10
646.64705882400006
 20
4674.9280415399999
 30
18.0
  0
VERTEX
  5
E9F
  8
DISTRICTS
 10
646.74727668800006
 20
4674.9306494299999
 30
18.0
  0
VERTEX
  5
EA0
  8
DISTRICTS
 10
646.84749455300005
 20
4674.9318251200002
 30
18.0
  0
VERTEX
  5
EA1
  8
DISTRICTS
 10
646.94771241800004
 20
4674.9316273599998
 30
18.0
  0
VERTEX
  5
EA2
  8
DISTRICTS
 10
647.04793028300003
 20
4674.9301200599994
 30
18.0
  0
VERTEX
  5
EA3
  8
DISTRICTS
 10
647.14814814800002
 20
4674.9273742400001
 30
18.0
  0
VERTEX
  5
EA4
  8
DISTRICTS
 10
647.2483660129999
 20
4674.9234702100002
 30
18.0
  0
VERTEX
  5
EA5
  8
DISTRICTS
 10
647.348583878
 20
4674.9185000799989
 30
18.0
  0
VERTEX
  5
EA6
  8
DISTRICTS
 10
647.44880174299976
 20
4674.9125705500001
 30
18.0
  0
VERTEX
  5
EA7
  8
DISTRICTS
 10
647.54901960799987
 20
4674.9058057800003
 30
18.0
  0
VERTEX
  5
EA8
  8
DISTRICTS
 10
647.64923747300008
 20
4674.8983504999997
 30
18.0
  0
VERTEX
  5
EA9
  8
DISTRICTS
 10
647.74945533799996
 20
4674.8903730900001
 30
18.0
  0
VERTEX
  5
EAA
  8
DISTRICTS
 10
647.84967320299995
 20
4674.8820686899981
 30
18.0
  0
VERTEX
  5
EAB
  8
DISTRICTS
 10
647.94989106800006
 20
4674.8736620400023
 30
18.0
  0
VERTEX
  5
EAC
  8
DISTRICTS
 10
648.05010893199994
 20
4674.8654100999984
 30
18.0
  0
VERTEX
  5
EAD
  8
DISTRICTS
 10
648.15032679699993
 20
4674.8576040600001
 30
18.0
  0
VERTEX
  5
EAE
  8
DISTRICTS
 10
648.25054466199992
 20
4674.85057065
 30
18.0
  0
VERTEX
  5
EAF
  8
DISTRICTS
 10
648.35076252699992
 20
4674.8446722599992
 30
18.0
  0
VERTEX
  5
EB0
  8
DISTRICTS
 10
648.45098039199991
 20
4674.8403055700001
 30
18.0
  0
VERTEX
  5
EB1
  8
DISTRICTS
 10
648.55119825700001
 20
4674.8378979199979
 30
18.0
  0
VERTEX
  5
EB2
  8
DISTRICTS
 10
648.651416122
 20
4674.8379008700003
 30
18.0
  0
VERTEX
  5
EB3
  8
DISTRICTS
 10
648.75163398699988
 20
4674.8407797700002
 30
18.0
  0
VERTEX
  5
EB4
  8
DISTRICTS
 10
648.85185185199998
 20
4674.84699851
 30
18.0
  0
VERTEX
  5
EB5
  8
DISTRICTS
 10
649.19318878644208
 20
4674.0799605955153
 30
18.0
  0
VERTEX
  5
EB6
  8
DISTRICTS
 10
649.77699434466194
 20
4673.124600425368
 30
18.0
  0
SEQEND
  5
EB7
  8
DISTRICTS
  0
POLYLINE
  5
32
  8
DISTRICTS
 66
     1
 10
0.0
 20
0.0
 30
17.0
 70
     1
  0
VERTEX
  5
EB8
  8
DISTRICTS
 10
650.17504332172643
 20
4672.8061470697139
 30
17.0
  0
VERTEX
  5
EB9
  8
DISTRICTS
 10
649.40548175117817
 20
4671.903862527638
 30
17.0
  0
VERTEX
  5
EBA
  8
DISTRICTS
 10
648.66245675381992
 20
4671.0811912728777
 30
17.0
  0
VERTEX
  5
EBB
  8
DISTRICTS
 10
648.05211481201923
 20
4669.913528900026
 30
17.0
  0
VERTEX
  5
EBC
  8
DISTRICTS
 10
647.86635842047235
 20
4668.7724042896143
 30
17.0
  0
VERTEX
  5
EBD
  8
DISTRICTS
 10
648.82167638256738
 20
4668.3212620185759
 30
17.0
  0
VERTEX
  5
EBE
  8
DISTRICTS
 10
650.95642701500003
 20
4667.3686714699998
 30
17.0
  0
VERTEX
  5
EBF
  8
DISTRICTS
 10
650.98962677600002
 20
4667.4176611000003
 30
17.0
  0
VERTEX
  5
EC0
  8
DISTRICTS
 10
651.05760034599984
 20
4667.5178997599987
 30
17.0
  0
VERTEX
  5
EC1
  8
DISTRICTS
 10
651.13056251900002
 20
4667.618138419999
 30
17.0
  0
VERTEX
  5
EC2
  8
DISTRICTS
 10
651.1568627449999
 20
4667.6548110699996
 30
17.0
  0
VERTEX
  5
EC3
  8
DISTRICTS
 10
651.206769366
 20
4667.7183770899992
 30
17.0
  0
VERTEX
  5
EC4
  8
DISTRICTS
 10
651.25708061
 20
4667.7844159999986
 30
17.0
  0
VERTEX
  5
EC5
  8
DISTRICTS
 10
651.28614382299975
 20
4667.8186157500004
 30
17.0
  0
VERTEX
  5
EC6
  8
DISTRICTS
 10
651.35729847499977
 20
4667.9071014499987
 30
17.0
  0
VERTEX
  5
EC7
  8
DISTRICTS
 10
651.36809260400003
 20
4667.9188544199978
 30
17.0
  0
VERTEX
  5
EC8
  8
DISTRICTS
 10
651.45751633999987
 20
4668.0266813999979
 30
17.0
  0
VERTEX
  5
EC9
  8
DISTRICTS
 10
651.534707422
 20
4668.1193317400002
 30
17.0
  0
VERTEX
  5
ECA
  8
DISTRICTS
 10
651.55773420499997
 20
4668.1518644300004
 30
17.0
  0
VERTEX
  5
ECB
  8
DISTRICTS
 10
651.60877366800003
 20
4668.2195704100004
 30
17.0
  0
VERTEX
  5
ECC
  8
DISTRICTS
 10
651.65795206999985
 20
4668.2994458999992
 30
17.0
  0
VERTEX
  5
ECD
  8
DISTRICTS
 10
651.67048169099985
 20
4668.319809069998
 30
17.0
  0
VERTEX
  5
ECE
  8
DISTRICTS
 10
651.72679521400005
 20
4668.4200477300001
 30
17.0
  0
VERTEX
  5
ECF
  8
DISTRICTS
 10
651.75816993499996
 20
4668.47946185
 30
17.0
  0
VERTEX
  5
ED0
  8
DISTRICTS
 10
651.77943470100001
 20
4668.5202863999984
 30
17.0
  0
VERTEX
  5
ED1
  8
DISTRICTS
 10
651.83266089199981
 20
4668.6205250599978
 30
17.0
  0
VERTEX
  5
ED2
  8
DISTRICTS
 10
651.85838779999995
 20
4668.6680184799998
 30
17.0
  0
VERTEX
  5
ED3
  8
DISTRICTS
 10
651.887599862
 20
4668.7207637199981
 30
17.0
  0
VERTEX
  5
ED4
  8
DISTRICTS
 10
651.94495418899999
 20
4668.8210023900001
 30
17.0
  0
VERTEX
  5
ED5
  8
DISTRICTS
 10
651.95860566399995
 20
4668.8442327800003
 30
17.0
  0
VERTEX
  5
ED6
  8
DISTRICTS
 10
652.00649765799994
 20
4668.9212410500004
 30
17.0
  0
VERTEX
  5
ED7
  8
DISTRICTS
 10
652.05882352900005
 20
4669.0037207799996
 30
17.0
  0
VERTEX
  5
ED8
  8
DISTRICTS
 10
652.07100142699994
 20
4669.0214797099989
 30
17.0
  0
VERTEX
  5
ED9
  8
DISTRICTS
 10
652.14130969599989
 20
4669.1217183799999
 30
17.0
  0
VERTEX
  5
EDA
  8
DISTRICTS
 10
652.15904139400004
 20
4669.1467444999989
 30
17.0
  0
VERTEX
  5
EDB
  8
DISTRICTS
 10
652.21853792199977
 20
4669.2219570400002
 30
17.0
  0
VERTEX
  5
EDC
  8
DISTRICTS
 10
652.25925925900003
 20
4669.2729208800001
 30
17.0
  0
VERTEX
  5
EDD
  8
DISTRICTS
 10
652.30451817300002
 20
4669.3221956999996
 30
17.0
  0
VERTEX
  5
EDE
  8
DISTRICTS
 10
652.35947712399991
 20
4669.3814353400003
 30
17.0
  0
VERTEX
  5
EDF
  8
DISTRICTS
 10
652.40495070099985
 20
4669.4224343699998
 30
17.0
  0
VERTEX
  5
EE0
  8
DISTRICTS
 10
652.45969498900001
 20
4669.4712976000001
 30
17.0
  0
VERTEX
  5
EE1
  8
DISTRICTS
 10
652.53263069100001
 20
4669.5226730300001
 30
17.0
  0
VERTEX
  5
EE2
  8
DISTRICTS
 10
652.559912854
 20
4669.5416867900003
 30
17.0
  0
VERTEX
  5
EE3
  8
DISTRICTS
 10
652.66013071899988
 20
4669.5925363200004
 30
17.0
  0
VERTEX
  5
EE4
  8
DISTRICTS
 10
652.75736308499995
 20
4669.6229116900013
 30
17.0
  0
VERTEX
  5
EE5
  8
DISTRICTS
 10
652.61641127853807
 20
4670.975040119929
 30
17.0
  0
VERTEX
  5
EE6
  8
DISTRICTS
 10
652.69028360015625
 20
4671.4182934447717
 30
17.0
  0
VERTEX
  5
EE7
  8
DISTRICTS
 10
651.89992285436949
 20
4671.771173612251
 30
17.0
  0
VERTEX
  5
EE8
  8
DISTRICTS
 10
651.13036128382123
 20
4672.2223158832894
 30
17.0
  0
VERTEX
  5
EE9
  8
DISTRICTS
 10
650.57309248840011
 20
4672.5673070013818
 30
17.0
  0
SEQEND
  5
EEA
  8
DISTRICTS
  0
POLYLINE
  5
33
  8
DISTRICTS
 66
     1
 10
0.0
 20
0.0
 30
9.0
 70
     1
  0
VERTEX
  5
EEB
  8
DISTRICTS
 10
647.13081632299975
 20
4681.3508353200004
 30
9.0
  0
VERTEX
  5
EEC
  8
DISTRICTS
 10
647.04793028300003
 20
4681.4061307499996
 30
9.0
  0
VERTEX
  5
EED
  8
DISTRICTS
 10
647.00038701199992
 20
4681.4510739899988
 30
9.0
  0
VERTEX
  5
EEE
  8
DISTRICTS
 10
646.94771241800004
 20
4681.53036213
 30
9.0
  0
VERTEX
  5
EEF
  8
DISTRICTS
 10
646.93414922699981
 20
4681.5513126499991
 30
9.0
  0
VERTEX
  5
EF0
  8
DISTRICTS
 10
646.89232843199977
 20
4681.6515513099994
 30
9.0
  0
VERTEX
  5
EF1
  8
DISTRICTS
 10
646.87272669100003
 20
4681.7517899799977
 30
9.0
  0
VERTEX
  5
EF2
  8
DISTRICTS
 10
646.86676179699975
 20
4681.8520286399998
 30
9.0
  0
VERTEX
  5
EF3
  8
DISTRICTS
 10
646.8700781849999
 20
4681.9522673000001
 30
9.0
  0
VERTEX
  5
EF4
  8
DISTRICTS
 10
646.87908797900002
 20
4682.0525059700003
 30
9.0
  0
VERTEX
  5
EF5
  8
DISTRICTS
 10
646.88876762500001
 20
4682.1527446299979
 30
9.0
  0
VERTEX
  5
EF6
  8
DISTRICTS
 10
646.89343992500005
 20
4682.25298329
 30
9.0
  0
VERTEX
  5
EF7
  8
DISTRICTS
 10
646.89052659000004
 20
4682.3532219600002
 30
9.0
  0
VERTEX
  5
EF8
  8
DISTRICTS
 10
646.88277806699978
 20
4682.4534606200004
 30
9.0
  0
VERTEX
  5
EF9
  8
DISTRICTS
 10
646.87581822900006
 20
4682.553699279998
 30
9.0
  0
VERTEX
  5
EFA
  8
DISTRICTS
 10
646.87448382800005
 20
4682.6539379499991
 30
9.0
  0
VERTEX
  5
EFB
  8
DISTRICTS
 10
646.88204546400004
 20
4682.7541766100003
 30
9.0
  0
VERTEX
  5
EFC
  8
DISTRICTS
 10
646.90156763899995
 20
4682.8544152699988
 30
9.0
  0
VERTEX
  5
EFD
  8
DISTRICTS
 10
646.93644201599977
 20
4682.9546539399998
 30
9.0
  0
VERTEX
  5
EFE
  8
DISTRICTS
 10
646.94771241800004
 20
4682.9788242499999
 30
9.0
  0
VERTEX
  5
EFF
  8
DISTRICTS
 10
646.98259715500001
 20
4683.054892600001
 30
9.0
  0
VERTEX
  5
F00
  8
DISTRICTS
 10
647.04655142000001
 20
4683.1551312600004
 30
9.0
  0
VERTEX
  5
F01
  8
DISTRICTS
 10
647.12215825099997
 20
4683.2553699299997
 30
9.0
  0
VERTEX
  5
F02
  8
DISTRICTS
 10
647.14814814800002
 20
4683.2903262500004
 30
9.0
  0
VERTEX
  5
F03
  8
DISTRICTS
 10
647.20438081500004
 20
4683.35560859
 30
9.0
  0
VERTEX
  5
F04
  8
DISTRICTS
 10
647.2483660129999
 20
4683.4168383099995
 30
9.0
  0
VERTEX
  5
F05
  8
DISTRICTS
 10
647.27849624800001
 20
4683.4558472600002
 30
9.0
  0
VERTEX
  5
F06
  8
DISTRICTS
 10
647.335363368
 20
4683.5560859200023
 30
9.0
  0
VERTEX
  5
F07
  8
DISTRICTS
 10
647.348583878
 20
4683.5874555399978
 30
9.0
  0
VERTEX
  5
F08
  8
DISTRICTS
 10
647.37540201399975
 20
4683.6563245799998
 30
9.0
  0
VERTEX
  5
F09
  8
DISTRICTS
 10
647.403934091
 20
4683.75656325
 30
9.0
  0
VERTEX
  5
F0A
  8
DISTRICTS
 10
647.42649711800004
 20
4683.8568019100003
 30
9.0
  0
VERTEX
  5
F0B
  8
DISTRICTS
 10
647.44668292899985
 20
4683.9570405699988
 30
9.0
  0
VERTEX
  5
F0C
  8
DISTRICTS
 10
647.44880174299976
 20
4683.9672359100014
 30
9.0
  0
VERTEX
  5
F0D
  8
DISTRICTS
 10
647.46504705500001
 20
4684.0572792399998
 30
9.0
  0
VERTEX
  5
F0E
  8
DISTRICTS
 10
647.48490623899977
 20
4684.1575179000001
 30
9.0
  0
VERTEX
  5
F0F
  8
DISTRICTS
 10
647.50801527699991
 20
4684.2577565600004
 30
9.0
  0
VERTEX
  5
F10
  8
DISTRICTS
 10
647.53576840400001
 20
4684.3579952299997
 30
9.0
  0
VERTEX
  5
F11
  8
DISTRICTS
 10
647.54901960799987
 20
4684.3978687099989
 30
9.0
  0
VERTEX
  5
F12
  8
DISTRICTS
 10
647.56701727400002
 20
4684.45823389
 30
9.0
  0
VERTEX
  5
F13
  8
DISTRICTS
 10
647.60343930799991
 20
4684.5584725500003
 30
9.0
  0
VERTEX
  5
F14
  8
DISTRICTS
 10
647.64836285599995
 20
4684.6587112200004
 30
9.0
  0
VERTEX
  5
F15
  8
DISTRICTS
 10
647.69753377899985
 20
4684.7589498799989
 30
9.0
  0
VERTEX
  5
F16
  8
DISTRICTS
 10
647.74945533799996
 20
4684.84511329
 30
9.0
  0
VERTEX
  5
F17
  8
DISTRICTS
 10
647.75772200799997
 20
4684.8591885400001
 30
9.0
  0
VERTEX
  5
F18
  8
DISTRICTS
 10
647.82637455400004
 20
4684.9594272100003
 30
9.0
  0
VERTEX
  5
F19
  8
DISTRICTS
 10
647.84967320299995
 20
4684.9888834699987
 30
9.0
  0
VERTEX
  5
F1A
  8
DISTRICTS
 10
647.90740351500006
 20
4685.0596658699988
 30
9.0
  0
VERTEX
  5
F1B
  8
DISTRICTS
 10
647.94989106800006
 20
4685.1054656799979
 30
9.0
  0
VERTEX
  5
F1C
  8
DISTRICTS
 10
648.00405258599994
 20
4685.1599045299981
 30
9.0
  0
VERTEX
  5
F1D
  8
DISTRICTS
 10
648.05010893199994
 20
4685.2020093700012
 30
9.0
  0
VERTEX
  5
F1E
  8
DISTRICTS
 10
648.121281479
 20
4685.2601431999992
 30
9.0
  0
VERTEX
  5
F1F
  8
DISTRICTS
 10
648.15032679699993
 20
4685.2825090099996
 30
9.0
  0
VERTEX
  5
F20
  8
DISTRICTS
 10
648.25054466199992
 20
4685.3498324499997
 30
9.0
  0
VERTEX
  5
F21
  8
DISTRICTS
 10
648.26890617599975
 20
4685.3603818600004
 30
9.0
  0
VERTEX
  5
F22
  8
DISTRICTS
 10
648.35076252699992
 20
4685.4071731900003
 30
9.0
  0
VERTEX
  5
F23
  8
DISTRICTS
 10
648.45098039199991
 20
4685.4527870299999
 30
9.0
  0
VERTEX
  5
F24
  8
DISTRICTS
 10
648.47215775500001
 20
4685.4606205299979
 30
9.0
  0
VERTEX
  5
F25
  8
DISTRICTS
 10
648.55119825700001
 20
4685.4913348399996
 30
9.0
  0
VERTEX
  5
F26
  8
DISTRICTS
 10
648.651416122
 20
4685.5210298499996
 30
9.0
  0
VERTEX
  5
F27
  8
DISTRICTS
 10
648.75163398699988
 20
4685.5421027399998
 30
9.0
  0
VERTEX
  5
F28
  8
DISTRICTS
 10
648.85185185199998
 20
4685.5555594699999
 30
9.0
  0
VERTEX
  5
F29
  8
DISTRICTS
 10
648.93276020199994
 20
4685.56085919
 30
9.0
  0
VERTEX
  5
F2A
  8
DISTRICTS
 10
648.95206971699974
 20
4685.5623055599999
 30
9.0
  0
VERTEX
  5
F2B
  8
DISTRICTS
 10
649.05228758199985
 20
4685.5623085300003
 30
9.0
  0
VERTEX
  5
F2C
  8
DISTRICTS
 10
649.07176714599996
 20
4685.56085919
 30
9.0
  0
VERTEX
  5
F2D
  8
DISTRICTS
 10
649.15250544699995
 20
4685.5555987899979
 30
9.0
  0
VERTEX
  5
F2E
  8
DISTRICTS
 10
649.25272331199994
 20
4685.5422747100001
 30
9.0
  0
VERTEX
  5
F2F
  8
DISTRICTS
 10
649.35294117599994
 20
4685.5215028800003
 30
9.0
  0
VERTEX
  5
F30
  8
DISTRICTS
 10
649.45315904099994
 20
4685.49235598
 30
9.0
  0
VERTEX
  5
F31
  8
DISTRICTS
 10
649.53644394599985
 20
4685.4606205299979
 30
9.0
  0
VERTEX
  5
F32
  8
DISTRICTS
 10
649.55337690600004
 20
4685.45444718
 30
9.0
  0
VERTEX
  5
F33
  8
DISTRICTS
 10
649.65359477100003
 20
4685.4098556999998
 30
9.0
  0
VERTEX
  5
F34
  8
DISTRICTS
 10
649.74144701099976
 20
4685.3603818600004
 30
9.0
  0
VERTEX
  5
F35
  8
DISTRICTS
 10
649.75381263600002
 20
4685.3533143100003
 30
9.0
  0
VERTEX
  5
F36
  8
DISTRICTS
 10
649.85403050100001
 20
4685.2867382699997
 30
9.0
  0
VERTEX
  5
F37
  8
DISTRICTS
 10
649.88851617199975
 20
4685.2601431999992
 30
9.0
  0
VERTEX
  5
F38
  8
DISTRICTS
 10
649.95424836599989
 20
4685.2053032599997
 30
9.0
  0
VERTEX
  5
F39
  8
DISTRICTS
 10
650.00240673600001
 20
4685.1599045299981
 30
9.0
  0
VERTEX
  5
F3A
  8
DISTRICTS
 10
650.05446623099999
 20
4685.1044849899999
 30
9.0
  0
VERTEX
  5
F3B
  8
DISTRICTS
 10
650.09326791900003
 20
4685.0596658699988
 30
9.0
  0
VERTEX
  5
F3C
  8
DISTRICTS
 10
650.15468409599976
 20
4684.9759970900004
 30
9.0
  0
VERTEX
  5
F3D
  8
DISTRICTS
 10
650.16631612799995
 20
4684.9594272100003
 30
9.0
  0
VERTEX
  5
F3E
  8
DISTRICTS
 10
650.22727116700003
 20
4684.8591885400001
 30
9.0
  0
VERTEX
  5
F3F
  8
DISTRICTS
 10
650.25490196099986
 20
4684.8028938400003
 30
9.0
  0
VERTEX
  5
F40
  8
DISTRICTS
 10
650.27672274199995
 20
4684.7589498799989
 30
9.0
  0
VERTEX
  5
F41
  8
DISTRICTS
 10
650.31799089499987
 20
4684.6587112200004
 30
9.0
  0
VERTEX
  5
F42
  8
DISTRICTS
 10
650.35004356499985
 20
4684.5584725500003
 30
9.0
  0
VERTEX
  5
F43
  8
DISTRICTS
 10
650.35511982599985
 20
4684.5386525399999
 30
9.0
  0
VERTEX
  5
F44
  8
DISTRICTS
 10
650.37748734100001
 20
4684.45823389
 30
9.0
  0
VERTEX
  5
F45
  8
DISTRICTS
 10
650.39890001599986
 20
4684.3579952299997
 30
9.0
  0
VERTEX
  5
F46
  8
DISTRICTS
 10
650.41469959099993
 20
4684.2577565600004
 30
9.0
  0
VERTEX
  5
F47
  8
DISTRICTS
 10
650.42589987500003
 20
4684.1575179000001
 30
9.0
  0
VERTEX
  5
F48
  8
DISTRICTS
 10
650.43352782099998
 20
4684.0572792399998
 30
9.0
  0
VERTEX
  5
F49
  8
DISTRICTS
 10
650.438814697
 20
4683.9570405699988
 30
9.0
  0
VERTEX
  5
F4A
  8
DISTRICTS
 10
650.44354181300002
 20
4683.8568019100003
 30
9.0
  0
VERTEX
  5
F4B
  8
DISTRICTS
 10
650.45077701399998
 20
4683.75656325
 30
9.0
  0
VERTEX
  5
F4C
  8
DISTRICTS
 10
650.45533769099995
 20
4683.7254464199978
 30
9.0
  0
VERTEX
  5
F4D
  8
DISTRICTS
 10
650.46731126899988
 20
4683.6563245799998
 30
9.0
  0
VERTEX
  5
F4E
  8
DISTRICTS
 10
650.50772786000005
 20
4683.5560859200023
 30
9.0
  0
VERTEX
  5
F4F
  8
DISTRICTS
 10
650.55555555599994
 20
4683.5085868899978
 30
9.0
  0
VERTEX
  5
F50
  8
DISTRICTS
 10
650.60536578000006
 20
4683.4558472600002
 30
9.0
  0
VERTEX
  5
F51
  8
DISTRICTS
 10
650.65577341999995
 20
4683.4295031700003
 30
9.0
  0
VERTEX
  5
F52
  8
DISTRICTS
 10
650.73288563000006
 20
4683.35560859
 30
9.0
  0
VERTEX
  5
F53
  8
DISTRICTS
 10
650.75599128500005
 20
4683.3380003399998
 30
9.0
  0
VERTEX
  5
F54
  8
DISTRICTS
 10
650.81542858800003
 20
4683.2553699299997
 30
9.0
  0
VERTEX
  5
F55
  8
DISTRICTS
 10
650.84775455600004
 20
4683.1551312600004
 30
9.0
  0
VERTEX
  5
F56
  8
DISTRICTS
 10
650.84796460799976
 20
4683.054892600001
 30
9.0
  0
VERTEX
  5
F57
  8
DISTRICTS
 10
650.81408732900002
 20
4682.9546539399998
 30
9.0
  0
VERTEX
  5
F58
  8
DISTRICTS
 10
650.75599128500005
 20
4682.8856623600004
 30
9.0
  0
VERTEX
  5
F59
  8
DISTRICTS
 10
650.70494730300004
 20
4682.8544152699988
 30
9.0
  0
VERTEX
  5
F5A
  8
DISTRICTS
 10
650.65577341999995
 20
4682.8216744199999
 30
9.0
  0
VERTEX
  5
F5B
  8
DISTRICTS
 10
650.55555555599994
 20
4682.7969779200002
 30
9.0
  0
VERTEX
  5
F5C
  8
DISTRICTS
 10
650.45533769099995
 20
4682.8033888
 30
9.0
  0
VERTEX
  5
F5D
  8
DISTRICTS
 10
650.35511982599985
 20
4682.8337455000001
 30
9.0
  0
VERTEX
  5
F5E
  8
DISTRICTS
 10
650.29598009199992
 20
4682.8544152699988
 30
9.0
  0
VERTEX
  5
F5F
  8
DISTRICTS
 10
650.25490196099986
 20
4682.874149629999
 30
9.0
  0
VERTEX
  5
F60
  8
DISTRICTS
 10
650.15468409599976
 20
4682.9023794299992
 30
9.0
  0
VERTEX
  5
F61
  8
DISTRICTS
 10
650.05446623099999
 20
4682.9008066699998
 30
9.0
  0
VERTEX
  5
F62
  8
DISTRICTS
 10
649.95424836599989
 20
4682.8747586400004
 30
9.0
  0
VERTEX
  5
F63
  8
DISTRICTS
 10
649.901740507
 20
4682.8544152699988
 30
9.0
  0
VERTEX
  5
F64
  8
DISTRICTS
 10
649.85403050100001
 20
4682.8359749299989
 30
9.0
  0
VERTEX
  5
F65
  8
DISTRICTS
 10
649.75381263600002
 20
4682.7921390199999
 30
9.0
  0
VERTEX
  5
F66
  8
DISTRICTS
 10
649.66481242500004
 20
4682.7541766100003
 30
9.0
  0
VERTEX
  5
F67
  8
DISTRICTS
 10
649.65359477100003
 20
4682.7492249400002
 30
9.0
  0
VERTEX
  5
F68
  8
DISTRICTS
 10
649.55337690600004
 20
4682.7063298499997
 30
9.0
  0
VERTEX
  5
F69
  8
DISTRICTS
 10
649.45315904099994
 20
4682.6682288900001
 30
9.0
  0
VERTEX
  5
F6A
  8
DISTRICTS
 10
649.41090411000005
 20
4682.6539379499991
 30
9.0
  0
VERTEX
  5
F6B
  8
DISTRICTS
 10
649.35294117599994
 20
4682.6326671699999
 30
9.0
  0
VERTEX
  5
F6C
  8
DISTRICTS
 10
649.25272331199994
 20
4682.60017186
 30
9.0
  0
VERTEX
  5
F6D
  8
DISTRICTS
 10
649.15250544699995
 20
4682.5719243399999
 30
9.0
  0
VERTEX
  5
F6E
  8
DISTRICTS
 10
649.07917286300005
 20
4682.553699279998
 30
9.0
  0
VERTEX
  5
F6F
  8
DISTRICTS
 10
649.05228758199985
 20
4682.5461910399999
 30
9.0
  0
VERTEX
  5
F70
  8
DISTRICTS
 10
648.95206971699974
 20
4682.5207689199988
 30
9.0
  0
VERTEX
  5
F71
  8
DISTRICTS
 10
648.85185185199998
 20
4682.4968226399997
 30
9.0
  0
VERTEX
  5
F72
  8
DISTRICTS
 10
648.75163398699988
 20
4682.4728752399997
 30
9.0
  0
VERTEX
  5
F73
  8
DISTRICTS
 10
648.67547409099996
 20
4682.4534606200004
 30
9.0
  0
VERTEX
  5
F74
  8
DISTRICTS
 10
648.651416122
 20
4682.4464399999979
 30
9.0
  0
VERTEX
  5
F75
  8
DISTRICTS
 10
648.55119825700001
 20
4682.41347597
 30
9.0
  0
VERTEX
  5
F76
  8
DISTRICTS
 10
648.45098039199991
 20
4682.3725569799981
 30
9.0
  0
VERTEX
  5
F77
  8
DISTRICTS
 10
648.41371715599985
 20
4682.3532219600002
 30
9.0
  0
VERTEX
  5
F78
  8
DISTRICTS
 10
648.35076252699992
 20
4682.3158184499998
 30
9.0
  0
VERTEX
  5
F79
  8
DISTRICTS
 10
648.27136257699976
 20
4682.25298329
 30
9.0
  0
VERTEX
  5
F7A
  8
DISTRICTS
 10
648.25054466199992
 20
4682.23434421
 30
9.0
  0
VERTEX
  5
F7B
  8
DISTRICTS
 10
648.18237161299999
 20
4682.1527446299979
 30
9.0
  0
VERTEX
  5
F7C
  8
DISTRICTS
 10
648.15032679699993
 20
4682.1089211799999
 30
9.0
  0
VERTEX
  5
F7D
  8
DISTRICTS
 10
648.12058762900006
 20
4682.0525059700003
 30
9.0
  0
VERTEX
  5
F7E
  8
DISTRICTS
 10
648.07333526100001
 20
4681.9522673000001
 30
9.0
  0
VERTEX
  5
F7F
  8
DISTRICTS
 10
648.05010893199994
 20
4681.9068332400002
 30
9.0
  0
VERTEX
  5
F80
  8
DISTRICTS
 10
648.03163616899985
 20
4681.8520286399998
 30
9.0
  0
VERTEX
  5
F81
  8
DISTRICTS
 10
647.98715669299986
 20
4681.7517899799977
 30
9.0
  0
VERTEX
  5
F82
  8
DISTRICTS
 10
647.94989106800006
 20
4681.696731359998
 30
9.0
  0
VERTEX
  5
F83
  8
DISTRICTS
 10
647.92875141499997
 20
4681.6515513099994
 30
9.0
  0
VERTEX
  5
F84
  8
DISTRICTS
 10
647.84967320299995
 20
4681.5549047699978
 30
9.0
  0
VERTEX
  5
F85
  8
DISTRICTS
 10
647.74945533799996
 20
4681.4600921299998
 30
9.0
  0
VERTEX
  5
F86
  8
DISTRICTS
 10
647.73859536999976
 20
4681.4510739899988
 30
9.0
  0
VERTEX
  5
F87
  8
DISTRICTS
 10
647.64923747300008
 20
4681.3879890400003
 30
9.0
  0
VERTEX
  5
F88
  8
DISTRICTS
 10
647.56895070600001
 20
4681.3508353200004
 30
9.0
  0
VERTEX
  5
F89
  8
DISTRICTS
 10
647.54901960799987
 20
4681.3396716899988
 30
9.0
  0
VERTEX
  5
F8A
  8
DISTRICTS
 10
647.44880174299976
 20
4681.3056218700003
 30
9.0
  0
VERTEX
  5
F8B
  8
DISTRICTS
 10
647.348583878
 20
4681.2946410100003
 30
9.0
  0
VERTEX
  5
F8C
  8
DISTRICTS
 10
647.2483660129999
 20
4681.3051511900012
 30
9.0
  0
VERTEX
  5
F8D
  8
DISTRICTS
 10
647.14814814800002
 20
4681.3415147899977
 30
9.0
  0
SEQEND
  5
F8E
  8
DISTRICTS
  0
POLYLINE
  5
34
  8
DISTRICTS
 66
     1
 10
0.0
 20
0.0
 30
7.0
 70
     1
  0
VERTEX
  5
F8F
  8
DISTRICTS
 10
639.95988417399985
 20
4674.8353221999978
 30
7.0
  0
VERTEX
  5
F90
  8
DISTRICTS
 10
639.93246187399996
 20
4674.8379048799989
 30
7.0
  0
VERTEX
  5
F91
  8
DISTRICTS
 10
639.83224400899985
 20
4674.8541614199994
 30
7.0
  0
VERTEX
  5
F92
  8
DISTRICTS
 10
639.73202614399986
 20
4674.8779849299999
 30
7.0
  0
VERTEX
  5
F93
  8
DISTRICTS
 10
639.63180827899976
 20
4674.9105050500002
 30
7.0
  0
VERTEX
  5
F94
  8
DISTRICTS
 10
639.57154669099975
 20
4674.9355608599981
 30
7.0
  0
VERTEX
  5
F95
  8
DISTRICTS
 10
639.53159041399999
 20
4674.9508515199996
 30
7.0
  0
VERTEX
  5
F96
  8
DISTRICTS
 10
639.43137254899989
 20
4674.998904449998
 30
7.0
  0
VERTEX
  5
F97
  8
DISTRICTS
 10
639.36912391400006
 20
4675.0357995200002
 30
7.0
  0
VERTEX
  5
F98
  8
DISTRICTS
 10
639.33115468400001
 20
4675.0576476200004
 30
7.0
  0
VERTEX
  5
F99
  8
DISTRICTS
 10
639.23093681900002
 20
4675.1276471900001
 30
7.0
  0
VERTEX
  5
F9A
  8
DISTRICTS
 10
639.22041684199996
 20
4675.1360381900004
 30
7.0
  0
VERTEX
  5
F9B
  8
DISTRICTS
 10
639.13071895400003
 20
4675.2096236300004
 30
7.0
  0
VERTEX
  5
F9C
  8
DISTRICTS
 10
639.10239219300001
 20
4675.2362768499988
 30
7.0
  0
VERTEX
  5
F9D
  8
DISTRICTS
 10
639.03050108900004
 20
4675.308648629999
 30
7.0
  0
VERTEX
  5
F9E
  8
DISTRICTS
 10
639.00547874099993
 20
4675.3365155099991
 30
7.0
  0
VERTEX
  5
F9F
  8
DISTRICTS
 10
638.93028322400005
 20
4675.43002961
 30
7.0
  0
VERTEX
  5
FA0
  8
DISTRICTS
 10
638.85696039300001
 20
4675.5369928399978
 30
7.0
  0
VERTEX
  5
FA1
  8
DISTRICTS
 10
638.83006535899995
 20
4675.5844741899991
 30
7.0
  0
VERTEX
  5
FA2
  8
DISTRICTS
 10
638.80054723900003
 20
4675.6372314999999
 30
7.0
  0
VERTEX
  5
FA3
  8
DISTRICTS
 10
638.75427284499995
 20
4675.7374701700001
 30
7.0
  0
VERTEX
  5
FA4
  8
DISTRICTS
 10
638.72984749499994
 20
4675.8052658500001
 30
7.0
  0
VERTEX
  5
FA5
  8
DISTRICTS
 10
638.71764652599995
 20
4675.8377088300003
 30
7.0
  0
VERTEX
  5
FA6
  8
DISTRICTS
 10
638.68800183999986
 20
4675.9379474899997
 30
7.0
  0
VERTEX
  5
FA7
  8
DISTRICTS
 10
638.6674963449999
 20
4676.0381861599999
 30
7.0
  0
VERTEX
  5
FA8
  8
DISTRICTS
 10
638.65529057900005
 20
4676.1384248200002
 30
7.0
  0
VERTEX
  5
FA9
  8
DISTRICTS
 10
638.65086385899986
 20
4676.2386634799977
 30
7.0
  0
VERTEX
  5
FAA
  8
DISTRICTS
 10
638.65409260199999
 20
4676.3389021499988
 30
7.0
  0
VERTEX
  5
FAB
  8
DISTRICTS
 10
638.665333949
 20
4676.43914081
 30
7.0
  0
VERTEX
  5
FAC
  8
DISTRICTS
 10
638.68549561299994
 20
4676.5393794700003
 30
7.0
  0
VERTEX
  5
FAD
  8
DISTRICTS
 10
638.71607199699974
 20
4676.6396181399996
 30
7.0
  0
VERTEX
  5
FAE
  8
DISTRICTS
 10
638.72984749499994
 20
4676.6735206599978
 30
7.0
  0
VERTEX
  5
FAF
  8
DISTRICTS
 10
638.75504516199999
 20
4676.7398568000008
 30
7.0
  0
VERTEX
  5
FB0
  8
DISTRICTS
 10
638.80631392199984
 20
4676.8400954700001
 30
7.0
  0
VERTEX
  5
FB1
  8
DISTRICTS
 10
638.83006535899995
 20
4676.8774653500004
 30
7.0
  0
VERTEX
  5
FB2
  8
DISTRICTS
 10
638.87052421500016
 20
4676.9403341300012
 30
7.0
  0
VERTEX
  5
FB3
  8
DISTRICTS
 10
638.93028322400005
 20
4677.0150987799998
 30
7.0
  0
VERTEX
  5
FB4
  8
DISTRICTS
 10
638.95213136199993
 20
4677.0405727899997
 30
7.0
  0
VERTEX
  5
FB5
  8
DISTRICTS
 10
639.03050108900004
 20
4677.1191524200003
 30
7.0
  0
VERTEX
  5
FB6
  8
DISTRICTS
 10
639.05521400299995
 20
4677.1408114599999
 30
7.0
  0
VERTEX
  5
FB7
  8
DISTRICTS
 10
639.13071895400003
 20
4677.2015225300001
 30
7.0
  0
VERTEX
  5
FB8
  8
DISTRICTS
 10
639.19069769600003
 20
4677.2410501200002
 30
7.0
  0
VERTEX
  5
FB9
  8
DISTRICTS
 10
639.23093681900002
 20
4677.26682549
 30
7.0
  0
VERTEX
  5
FBA
  8
DISTRICTS
 10
639.33115468400001
 20
4677.3191772700002
 30
7.0
  0
VERTEX
  5
FBB
  8
DISTRICTS
 10
639.38634739099984
 20
4677.3412887799996
 30
7.0
  0
VERTEX
  5
FBC
  8
DISTRICTS
 10
639.43137254899989
 20
4677.3602391100003
 30
7.0
  0
VERTEX
  5
FBD
  8
DISTRICTS
 10
639.53159041399999
 20
4677.3926546499997
 30
7.0
  0
VERTEX
  5
FBE
  8
DISTRICTS
 10
639.63180827899976
 20
4677.4151621700003
 30
7.0
  0
VERTEX
  5
FBF
  8
DISTRICTS
 10
639.73202614399986
 20
4677.4293075200003
 30
7.0
  0
VERTEX
  5
FC0
  8
DISTRICTS
 10
639.83224400899985
 20
4677.4361355800002
 30
7.0
  0
VERTEX
  5
FC1
  8
DISTRICTS
 10
639.93246187399996
 20
4677.4362134200001
 30
7.0
  0
VERTEX
  5
FC2
  8
DISTRICTS
 10
640.03267973899995
 20
4677.4296857999989
 30
7.0
  0
VERTEX
  5
FC3
  8
DISTRICTS
 10
640.13289760300006
 20
4677.4163393299978
 30
7.0
  0
VERTEX
  5
FC4
  8
DISTRICTS
 10
640.23311546800005
 20
4677.395657609999
 30
7.0
  0
VERTEX
  5
FC5
  8
DISTRICTS
 10
640.33333333300004
 20
4677.3668663199978
 30
7.0
  0
VERTEX
  5
FC6
  8
DISTRICTS
 10
640.40267750999999
 20
4677.3412887799996
 30
7.0
  0
VERTEX
  5
FC7
  8
DISTRICTS
 10
640.43355119800003
 20
4677.330389339998
 30
7.0
  0
VERTEX
  5
FC8
  8
DISTRICTS
 10
640.53376906300002
 20
4677.2870973299978
 30
7.0
  0
VERTEX
  5
FC9
  8
DISTRICTS
 10
640.61935876799976
 20
4677.2410501200002
 30
7.0
  0
VERTEX
  5
FCA
  8
DISTRICTS
 10
640.6339869279999
 20
4677.2331040199988
 30
7.0
  0
VERTEX
  5
FCB
  8
DISTRICTS
 10
640.734204793
 20
4677.1705142199999
 30
7.0
  0
VERTEX
  5
FCC
  8
DISTRICTS
 10
640.77557807000005
 20
4677.1408114599999
 30
7.0
  0
VERTEX
  5
FCD
  8
DISTRICTS
 10
640.83442265799977
 20
4677.0956773099979
 30
7.0
  0
VERTEX
  5
FCE
  8
DISTRICTS
 10
640.89880430299991
 20
4677.0405727899997
 30
7.0
  0
VERTEX
  5
FCF
  8
DISTRICTS
 10
640.93464052299987
 20
4677.0064674799996
 30
7.0
  0
VERTEX
  5
FD0
  8
DISTRICTS
 10
640.99989831000016
 20
4676.9403341300012
 30
7.0
  0
VERTEX
  5
FD1
  8
DISTRICTS
 10
641.03485838799998
 20
4676.8993033999986
 30
7.0
  0
VERTEX
  5
FD2
  8
DISTRICTS
 10
641.08444629199994
 20
4676.8400954700001
 30
7.0
  0
VERTEX
  5
FD3
  8
DISTRICTS
 10
641.13507625299997
 20
4676.7673703299997
 30
7.0
  0
VERTEX
  5
FD4
  8
DISTRICTS
 10
641.15472486999977
 20
4676.7398568000008
 30
7.0
  0
VERTEX
  5
FD5
  8
DISTRICTS
 10
641.21441484699994
 20
4676.6396181399996
 30
7.0
  0
VERTEX
  5
FD6
  8
DISTRICTS
 10
641.23529411799996
 20
4676.5954334199996
 30
7.0
  0
VERTEX
  5
FD7
  8
DISTRICTS
 10
641.26425152900003
 20
4676.5393794700003
 30
7.0
  0
VERTEX
  5
FD8
  8
DISTRICTS
 10
641.30496082800005
 20
4676.43914081
 30
7.0
  0
VERTEX
  5
FD9
  8
DISTRICTS
 10
641.33515776299998
 20
4676.3389021499988
 30
7.0
  0
VERTEX
  5
FDA
  8
DISTRICTS
 10
641.36080839199985
 20
4676.2386634799977
 30
7.0
  0
VERTEX
  5
FDB
  8
DISTRICTS
 10
641.37746891199993
 20
4676.1384248200002
 30
7.0
  0
VERTEX
  5
FDC
  8
DISTRICTS
 10
641.38574208800003
 20
4676.0381861599999
 30
7.0
  0
VERTEX
  5
FDD
  8
DISTRICTS
 10
641.38581046699994
 20
4675.9379474899997
 30
7.0
  0
VERTEX
  5
FDE
  8
DISTRICTS
 10
641.37734203800005
 20
4675.8377088300003
 30
7.0
  0
VERTEX
  5
FDF
  8
DISTRICTS
 10
641.35944891600002
 20
4675.7374701700001
 30
7.0
  0
VERTEX
  5
FE0
  8
DISTRICTS
 10
641.33551198300006
 20
4675.6529628300004
 30
7.0
  0
VERTEX
  5
FE1
  8
DISTRICTS
 10
641.33136169800002
 20
4675.6372314999999
 30
7.0
  0
VERTEX
  5
FE2
  8
DISTRICTS
 10
641.29543152400004
 20
4675.5369928399978
 30
7.0
  0
VERTEX
  5
FE3
  8
DISTRICTS
 10
641.24478450900006
 20
4675.4367541800002
 30
7.0
  0
VERTEX
  5
FE4
  8
DISTRICTS
 10
641.23529411799996
 20
4675.4212651500002
 30
7.0
  0
VERTEX
  5
FE5
  8
DISTRICTS
 10
641.18257974300002
 20
4675.3365155099991
 30
7.0
  0
VERTEX
  5
FE6
  8
DISTRICTS
 10
641.13507625299997
 20
4675.2758152799997
 30
7.0
  0
VERTEX
  5
FE7
  8
DISTRICTS
 10
641.10221063099993
 20
4675.2362768499988
 30
7.0
  0
VERTEX
  5
FE8
  8
DISTRICTS
 10
641.03485838799998
 20
4675.1676182899992
 30
7.0
  0
VERTEX
  5
FE9
  8
DISTRICTS
 10
641.00025840800004
 20
4675.1360381900004
 30
7.0
  0
VERTEX
  5
FEA
  8
DISTRICTS
 10
640.93464052299987
 20
4675.0824821699998
 30
7.0
  0
VERTEX
  5
FEB
  8
DISTRICTS
 10
640.86707546299999
 20
4675.0357995200002
 30
7.0
  0
VERTEX
  5
FEC
  8
DISTRICTS
 10
640.83442265799977
 20
4675.0146650300003
 30
7.0
  0
VERTEX
  5
FED
  8
DISTRICTS
 10
640.734204793
 20
4674.9595663700002
 30
7.0
  0
VERTEX
  5
FEE
  8
DISTRICTS
 10
640.67934395899999
 20
4674.9355608599981
 30
7.0
  0
VERTEX
  5
FEF
  8
DISTRICTS
 10
640.6339869279999
 20
4674.9157547100003
 30
7.0
  0
VERTEX
  5
FF0
  8
DISTRICTS
 10
640.53376906300002
 20
4674.88064975
 30
7.0
  0
VERTEX
  5
FF1
  8
DISTRICTS
 10
640.43355119800003
 20
4674.85530079
 30
7.0
  0
VERTEX
  5
FF2
  8
DISTRICTS
 10
640.33333333300004
 20
4674.8382641099988
 30
7.0
  0
VERTEX
  5
FF3
  8
DISTRICTS
 10
640.30438647300002
 20
4674.8353221999978
 30
7.0
  0
VERTEX
  5
FF4
  8
DISTRICTS
 10
640.23311546800005
 20
4674.8273448899999
 30
7.0
  0
VERTEX
  5
FF5
  8
DISTRICTS
 10
640.13289760300006
 20
4674.8235942499987
 30
7.0
  0
VERTEX
  5
FF6
  8
DISTRICTS
 10
640.03267973899995
 20
4674.8272359800003
 30
7.0
  0
SEQEND
  5
FF7
  8
DISTRICTS
  0
POLYLINE
  5
35
  8
DISTRICTS
 66
     1
 10
0.0
 20
0.0
 30
8.0
 70
     1
  0
VERTEX
  5
FF8
  8
DISTRICTS
 10
631.62839985100004
 20
4673.4319809099998
 30
8.0
  0
VERTEX
  5
FF9
  8
DISTRICTS
 10
631.61437908499988
 20
4673.4332997399997
 30
8.0
  0
VERTEX
  5
FFA
  8
DISTRICTS
 10
631.51416122000001
 20
4673.4449926500001
 30
8.0
  0
VERTEX
  5
FFB
  8
DISTRICTS
 10
631.41394335500001
 20
4673.4591709099986
 30
8.0
  0
VERTEX
  5
FFC
  8
DISTRICTS
 10
631.3137254899998
 20
4673.4762193200004
 30
8.0
  0
VERTEX
  5
FFD
  8
DISTRICTS
 10
631.21350762500003
 20
4673.4967807800003
 30
8.0
  0
VERTEX
  5
FFE
  8
DISTRICTS
 10
631.11328976000004
 20
4673.5216862899988
 30
8.0
  0
VERTEX
  5
FFF
  8
DISTRICTS
 10
631.07773555499989
 20
4673.5322195700001
 30
8.0
  0
VERTEX
  5
1000
  8
DISTRICTS
 10
631.01307189500005
 20
4673.5498170800001
 30
8.0
  0
VERTEX
  5
1001
  8
DISTRICTS
 10
630.91285403099994
 20
4673.5826932999998
 30
8.0
  0
VERTEX
  5
1002
  8
DISTRICTS
 10
630.81263616599995
 20
4673.62277636
 30
8.0
  0
VERTEX
  5
1003
  8
DISTRICTS
 10
630.791806748
 20
4673.6324582300012
 30
8.0
  0
VERTEX
  5
1004
  8
DISTRICTS
 10
630.71241830099984
 20
4673.6675663200003
 30
8.0
  0
VERTEX
  5
1005
  8
DISTRICTS
 10
630.61220043599985
 20
4673.7213773100002
 30
8.0
  0
VERTEX
  5
1006
  8
DISTRICTS
 10
630.59376152300001
 20
4673.7326968999987
 30
8.0
  0
VERTEX
  5
1007
  8
DISTRICTS
 10
630.51198257099998
 20
4673.7823489599978
 30
8.0
  0
VERTEX
  5
1008
  8
DISTRICTS
 10
630.44156469799987
 20
4673.8329355599999
 30
8.0
  0
VERTEX
  5
1009
  8
DISTRICTS
 10
630.41176470599987
 20
4673.8547226299988
 30
8.0
  0
VERTEX
  5
100A
  8
DISTRICTS
 10
630.31877579099989
 20
4673.9331742200002
 30
8.0
  0
VERTEX
  5
100B
  8
DISTRICTS
 10
630.21724042599999
 20
4674.0334128900004
 30
8.0
  0
VERTEX
  5
100C
  8
DISTRICTS
 10
630.13179301199978
 20
4674.1336515499997
 30
8.0
  0
VERTEX
  5
100D
  8
DISTRICTS
 10
630.1111111109999
 20
4674.1615628199997
 30
8.0
  0
VERTEX
  5
100E
  8
DISTRICTS
 10
630.05976895599986
 20
4674.23389021
 30
8.0
  0
VERTEX
  5
100F
  8
DISTRICTS
 10
630.01089324600002
 20
4674.3162588499999
 30
8.0
  0
VERTEX
  5
1010
  8
DISTRICTS
 10
630.00038952900002
 20
4674.3341288800002
 30
8.0
  0
VERTEX
  5
1011
  8
DISTRICTS
 10
629.94959378199985
 20
4674.4343675399987
 30
8.0
  0
VERTEX
  5
1012
  8
DISTRICTS
 10
629.91067538100003
 20
4674.5332417600002
 30
8.0
  0
VERTEX
  5
1013
  8
DISTRICTS
 10
629.87629903499999
 20
4674.6348448700001
 30
8.0
  0
VERTEX
  5
1014
  8
DISTRICTS
 10
629.85151198999995
 20
4674.7350835300003
 30
8.0
  0
VERTEX
  5
1015
  8
DISTRICTS
 10
629.83476243400003
 20
4674.8353221999978
 30
8.0
  0
VERTEX
  5
1016
  8
DISTRICTS
 10
629.82531491700001
 20
4674.9355608599981
 30
8.0
  0
VERTEX
  5
1017
  8
DISTRICTS
 10
629.82273197400002
 20
4675.0357995200002
 30
8.0
  0
VERTEX
  5
1018
  8
DISTRICTS
 10
629.82689917000005
 20
4675.1360381900004
 30
8.0
  0
VERTEX
  5
1019
  8
DISTRICTS
 10
629.83803182700001
 20
4675.2362768499988
 30
8.0
  0
VERTEX
  5
101A
  8
DISTRICTS
 10
629.85666262300003
 20
4675.3365155099991
 30
8.0
  0
VERTEX
  5
101B
  8
DISTRICTS
 10
629.883611352
 20
4675.4367541800002
 30
8.0
  0
VERTEX
  5
101C
  8
DISTRICTS
 10
629.91067538100003
 20
4675.51277011
 30
8.0
  0
VERTEX
  5
101D
  8
DISTRICTS
 10
629.91893131500001
 20
4675.5369928399978
 30
8.0
  0
VERTEX
  5
101E
  8
DISTRICTS
 10
629.96137079399978
 20
4675.6372314999999
 30
8.0
  0
VERTEX
  5
101F
  8
DISTRICTS
 10
630.01089324600002
 20
4675.7292424899997
 30
8.0
  0
VERTEX
  5
1020
  8
DISTRICTS
 10
630.07844715699991
 20
4675.8377088300003
 30
8.0
  0
VERTEX
  5
1021
  8
DISTRICTS
 10
630.1111111109999
 20
4675.8820976200004
 30
8.0
  0
VERTEX
  5
1022
  8
DISTRICTS
 10
630.15492513299989
 20
4675.9379474899997
 30
8.0
  0
VERTEX
  5
1023
  8
DISTRICTS
 10
630.211328976
 20
4676.0017673799994
 30
8.0
  0
VERTEX
  5
1024
  8
DISTRICTS
 10
630.24693590599975
 20
4676.0381861599999
 30
8.0
  0
VERTEX
  5
1025
  8
DISTRICTS
 10
630.31154684099977
 20
4676.0994693800003
 30
8.0
  0
VERTEX
  5
1026
  8
DISTRICTS
 10
630.358689239
 20
4676.1384248200002
 30
8.0
  0
VERTEX
  5
1027
  8
DISTRICTS
 10
630.41176470599987
 20
4676.1807600299999
 30
8.0
  0
VERTEX
  5
1028
  8
DISTRICTS
 10
630.49804602199993
 20
4676.2386634799977
 30
8.0
  0
VERTEX
  5
1029
  8
DISTRICTS
 10
630.51198257099998
 20
4676.2480154699997
 30
8.0
  0
VERTEX
  5
102A
  8
DISTRICTS
 10
630.61220043599985
 20
4676.3060051100001
 30
8.0
  0
VERTEX
  5
102B
  8
DISTRICTS
 10
630.68343720899986
 20
4676.3389021499988
 30
8.0
  0
VERTEX
  5
102C
  8
DISTRICTS
 10
630.71241830099984
 20
4676.3529684100004
 30
8.0
  0
VERTEX
  5
102D
  8
DISTRICTS
 10
630.81263616599995
 20
4676.3930325600004
 30
8.0
  0
VERTEX
  5
102E
  8
DISTRICTS
 10
630.91285403099994
 20
4676.4237312799978
 30
8.0
  0
VERTEX
  5
102F
  8
DISTRICTS
 10
630.97991398299996
 20
4676.43914081
 30
8.0
  0
VERTEX
  5
1030
  8
DISTRICTS
 10
631.01307189500005
 20
4676.4476192299999
 30
8.0
  0
VERTEX
  5
1031
  8
DISTRICTS
 10
631.11328976000004
 20
4676.4660513899998
 30
8.0
  0
VERTEX
  5
1032
  8
DISTRICTS
 10
631.21350762500003
 20
4676.4775708699999
 30
8.0
  0
VERTEX
  5
1033
  8
DISTRICTS
 10
631.3137254899998
 20
4676.4827226799998
 30
8.0
  0
VERTEX
  5
1034
  8
DISTRICTS
 10
631.41394335500001
 20
4676.4818242199999
 30
8.0
  0
VERTEX
  5
1035
  8
DISTRICTS
 10
631.51416122000001
 20
4676.4749981499999
 30
8.0
  0
VERTEX
  5
1036
  8
DISTRICTS
 10
631.61437908499988
 20
4676.4622112699999
 30
8.0
  0
VERTEX
  5
1037
  8
DISTRICTS
 10
631.71459694999999
 20
4676.4433172500003
 30
8.0
  0
VERTEX
  5
1038
  8
DISTRICTS
 10
631.73196504299995
 20
4676.43914081
 30
8.0
  0
VERTEX
  5
1039
  8
DISTRICTS
 10
631.81481481499975
 20
4676.4202985100001
 30
8.0
  0
VERTEX
  5
103A
  8
DISTRICTS
 10
631.91503267999985
 20
4676.3915097299996
 30
8.0
  0
VERTEX
  5
103B
  8
DISTRICTS
 10
632.01525054499984
 20
4676.3561804499986
 30
8.0
  0
VERTEX
  5
103C
  8
DISTRICTS
 10
632.05812523700001
 20
4676.3389021499988
 30
8.0
  0
VERTEX
  5
103D
  8
DISTRICTS
 10
632.11546840999995
 20
4676.3161991699999
 30
8.0
  0
VERTEX
  5
103E
  8
DISTRICTS
 10
632.21568627500005
 20
4676.2709671999992
 30
8.0
  0
VERTEX
  5
103F
  8
DISTRICTS
 10
632.27963273599994
 20
4676.2386634799977
 30
8.0
  0
VERTEX
  5
1040
  8
DISTRICTS
 10
632.31590413900005
 20
4676.2203221899999
 30
8.0
  0
VERTEX
  5
1041
  8
DISTRICTS
 10
632.41612200400004
 20
4676.1654912599988
 30
8.0
  0
VERTEX
  5
1042
  8
DISTRICTS
 10
632.46233642799996
 20
4676.1384248200002
 30
8.0
  0
VERTEX
  5
1043
  8
DISTRICTS
 10
632.51633986900003
 20
4676.106469469998
 30
8.0
  0
VERTEX
  5
1044
  8
DISTRICTS
 10
632.61655773400003
 20
4676.0434813499978
 30
8.0
  0
VERTEX
  5
1045
  8
DISTRICTS
 10
632.71677559900002
 20
4675.9791941399999
 30
8.0
  0
VERTEX
  5
1046
  8
DISTRICTS
 10
632.77979074799987
 20
4675.9379474899997
 30
8.0
  0
VERTEX
  5
1047
  8
DISTRICTS
 10
632.81699346399989
 20
4675.9130990399999
 30
8.0
  0
VERTEX
  5
1048
  8
DISTRICTS
 10
632.917211329
 20
4675.8478088499996
 30
8.0
  0
VERTEX
  5
1049
  8
DISTRICTS
 10
632.934632609
 20
4675.8377088300003
 30
8.0
  0
VERTEX
  5
104A
  8
DISTRICTS
 10
633.01742919399976
 20
4675.7867001799978
 30
8.0
  0
VERTEX
  5
104B
  8
DISTRICTS
 10
633.11605869699997
 20
4675.7374701700001
 30
8.0
  0
VERTEX
  5
104C
  8
DISTRICTS
 10
633.21786492399985
 20
4675.7164920100004
 30
8.0
  0
VERTEX
  5
104D
  8
DISTRICTS
 10
633.23240067899985
 20
4675.7374701700001
 30
8.0
  0
VERTEX
  5
104E
  8
DISTRICTS
 10
633.31808278899985
 20
4675.8156097700003
 30
8.0
  0
VERTEX
  5
104F
  8
DISTRICTS
 10
633.32305213599989
 20
4675.8377088300003
 30
8.0
  0
VERTEX
  5
1050
  8
DISTRICTS
 10
633.41830065399995
 20
4675.9165844500003
 30
8.0
  0
VERTEX
  5
1051
  8
DISTRICTS
 10
633.51851851900005
 20
4675.9278625400002
 30
8.0
  0
VERTEX
  5
1052
  8
DISTRICTS
 10
633.61873638300005
 20
4675.8727323700023
 30
8.0
  0
VERTEX
  5
1053
  8
DISTRICTS
 10
633.64789063199987
 20
4675.8377088300003
 30
8.0
  0
VERTEX
  5
1054
  8
DISTRICTS
 10
633.67797771800008
 20
4675.7374701700001
 30
8.0
  0
VERTEX
  5
1055
  8
DISTRICTS
 10
633.62914347699984
 20
4675.6372314999999
 30
8.0
  0
VERTEX
  5
1056
  8
DISTRICTS
 10
633.61873638300005
 20
4675.6208766199998
 30
8.0
  0
VERTEX
  5
1057
  8
DISTRICTS
 10
633.51851851900005
 20
4675.5476017399988
 30
8.0
  0
VERTEX
  5
1058
  8
DISTRICTS
 10
633.442567478
 20
4675.5369928399978
 30
8.0
  0
VERTEX
  5
1059
  8
DISTRICTS
 10
633.41830065399995
 20
4675.5056166599989
 30
8.0
  0
VERTEX
  5
105A
  8
DISTRICTS
 10
633.38693889000001
 20
4675.4367541800002
 30
8.0
  0
VERTEX
  5
105B
  8
DISTRICTS
 10
633.40317209900002
 20
4675.3365155099991
 30
8.0
  0
VERTEX
  5
105C
  8
DISTRICTS
 10
633.41830065399995
 20
4675.2849585299982
 30
8.0
  0
VERTEX
  5
105D
  8
DISTRICTS
 10
633.43097881400001
 20
4675.2362768499988
 30
8.0
  0
VERTEX
  5
105E
  8
DISTRICTS
 10
633.46160892199975
 20
4675.1360381900004
 30
8.0
  0
VERTEX
  5
105F
  8
DISTRICTS
 10
633.48915042800002
 20
4675.0357995200002
 30
8.0
  0
VERTEX
  5
1060
  8
DISTRICTS
 10
633.51089537400003
 20
4674.9355608599981
 30
8.0
  0
VERTEX
  5
1061
  8
DISTRICTS
 10
633.51851851900005
 20
4674.8862842899989
 30
8.0
  0
VERTEX
  5
1062
  8
DISTRICTS
 10
633.52723454699992
 20
4674.8353221999978
 30
8.0
  0
VERTEX
  5
1063
  8
DISTRICTS
 10
633.53699538800004
 20
4674.7350835300003
 30
8.0
  0
VERTEX
  5
1064
  8
DISTRICTS
 10
633.53831438099985
 20
4674.6348448700001
 30
8.0
  0
VERTEX
  5
1065
  8
DISTRICTS
 10
633.530579031
 20
4674.5346062099989
 30
8.0
  0
VERTEX
  5
1066
  8
DISTRICTS
 10
633.51851851900005
 20
4674.4655949799999
 30
8.0
  0
VERTEX
  5
1067
  8
DISTRICTS
 10
633.51382629599993
 20
4674.4343675399987
 30
8.0
  0
VERTEX
  5
1068
  8
DISTRICTS
 10
633.48936707600001
 20
4674.3341288800002
 30
8.0
  0
VERTEX
  5
1069
  8
DISTRICTS
 10
633.45251357699976
 20
4674.23389021
 30
8.0
  0
VERTEX
  5
106A
  8
DISTRICTS
 10
633.41830065399995
 20
4674.1657728600003
 30
8.0
  0
VERTEX
  5
106B
  8
DISTRICTS
 10
633.40266930199994
 20
4674.1336515499997
 30
8.0
  0
VERTEX
  5
106C
  8
DISTRICTS
 10
633.33949799799996
 20
4674.0334128900004
 30
8.0
  0
VERTEX
  5
106D
  8
DISTRICTS
 10
633.31808278899985
 20
4674.0056583300002
 30
8.0
  0
VERTEX
  5
106E
  8
DISTRICTS
 10
633.25932287199998
 20
4673.9331742200002
 30
8.0
  0
VERTEX
  5
106F
  8
DISTRICTS
 10
633.21786492399985
 20
4673.8901329800001
 30
8.0
  0
VERTEX
  5
1070
  8
DISTRICTS
 10
633.15705030300001
 20
4673.8329355599999
 30
8.0
  0
VERTEX
  5
1071
  8
DISTRICTS
 10
633.11764705899986
 20
4673.79969033
 30
8.0
  0
VERTEX
  5
1072
  8
DISTRICTS
 10
633.026096048
 20
4673.7326968999987
 30
8.0
  0
VERTEX
  5
1073
  8
DISTRICTS
 10
633.01742919399976
 20
4673.7267044700002
 30
8.0
  0
VERTEX
  5
1074
  8
DISTRICTS
 10
632.917211329
 20
4673.66424517
 30
8.0
  0
VERTEX
  5
1075
  8
DISTRICTS
 10
632.85540400699995
 20
4673.6324582300012
 30
8.0
  0
VERTEX
  5
1076
  8
DISTRICTS
 10
632.81699346399989
 20
4673.6125552000003
 30
8.0
  0
VERTEX
  5
1077
  8
DISTRICTS
 10
632.71677559900002
 20
4673.5675684400003
 30
8.0
  0
VERTEX
  5
1078
  8
DISTRICTS
 10
632.62055639100004
 20
4673.5322195700001
 30
8.0
  0
VERTEX
  5
1079
  8
DISTRICTS
 10
632.51633986900003
 20
4673.4966413000002
 30
8.0
  0
VERTEX
  5
107A
  8
DISTRICTS
 10
632.41612200400004
 20
4673.4688625400004
 30
8.0
  0
VERTEX
  5
107B
  8
DISTRICTS
 10
632.31590413900005
 20
4673.4469808900003
 30
8.0
  0
VERTEX
  5
107C
  8
DISTRICTS
 10
632.22243943000001
 20
4673.4319809099998
 30
8.0
  0
VERTEX
  5
107D
  8
DISTRICTS
 10
632.11546840999995
 20
4673.4186478499996
 30
8.0
  0
VERTEX
  5
107E
  8
DISTRICTS
 10
632.01525054499984
 20
4673.4125462199981
 30
8.0
  0
VERTEX
  5
107F
  8
DISTRICTS
 10
631.91503267999985
 20
4673.4118734200001
 30
8.0
  0
VERTEX
  5
1080
  8
DISTRICTS
 10
631.81481481499975
 20
4673.4157176099998
 30
8.0
  0
VERTEX
  5
1081
  8
DISTRICTS
 10
631.71459694999999
 20
4673.42313552
 30
8.0
  0
SEQEND
  5
1082
  8
DISTRICTS
  0
POLYLINE
  5
36
  8
DISTRICTS
 66
     1
 10
0.0
 20
0.0
 30
6.0
 70
     1
  0
VERTEX
  5
1083
  8
DISTRICTS
 10
636.44146892000003
 20
4679.1455847300003
 30
6.0
  0
VERTEX
  5
1084
  8
DISTRICTS
 10
636.42483660100004
 20
4679.1494241399987
 30
6.0
  0
VERTEX
  5
1085
  8
DISTRICTS
 10
636.32461873599993
 20
4679.1926142499979
 30
6.0
  0
VERTEX
  5
1086
  8
DISTRICTS
 10
636.25061001400002
 20
4679.2458233899997
 30
6.0
  0
VERTEX
  5
1087
  8
DISTRICTS
 10
636.22440087099994
 20
4679.26759571
 30
6.0
  0
VERTEX
  5
1088
  8
DISTRICTS
 10
636.15068476199986
 20
4679.34606205
 30
6.0
  0
VERTEX
  5
1089
  8
DISTRICTS
 10
636.12418300699994
 20
4679.3885928299997
 30
6.0
  0
VERTEX
  5
108A
  8
DISTRICTS
 10
636.08775952500002
 20
4679.4463007200002
 30
6.0
  0
VERTEX
  5
108B
  8
DISTRICTS
 10
636.05012175100001
 20
4679.5465393799977
 30
6.0
  0
VERTEX
  5
108C
  8
DISTRICTS
 10
636.03414592099978
 20
4679.6467780399998
 30
6.0
  0
VERTEX
  5
108D
  8
DISTRICTS
 10
636.03445896000017
 20
4679.74701671
 30
6.0
  0
VERTEX
  5
108E
  8
DISTRICTS
 10
636.05153800399978
 20
4679.8472553700003
 30
6.0
  0
VERTEX
  5
108F
  8
DISTRICTS
 10
636.09183644400002
 20
4679.9474940299979
 30
6.0
  0
VERTEX
  5
1090
  8
DISTRICTS
 10
636.12418300699994
 20
4679.9961197100001
 30
6.0
  0
VERTEX
  5
1091
  8
DISTRICTS
 10
636.15913322400002
 20
4680.0477326999999
 30
6.0
  0
VERTEX
  5
1092
  8
DISTRICTS
 10
636.22440087099994
 20
4680.11252668
 30
6.0
  0
VERTEX
  5
1093
  8
DISTRICTS
 10
636.27023552000003
 20
4680.1479713600002
 30
6.0
  0
VERTEX
  5
1094
  8
DISTRICTS
 10
636.32461873599993
 20
4680.1835503999982
 30
6.0
  0
VERTEX
  5
1095
  8
DISTRICTS
 10
636.42483660100004
 20
4680.2273065500003
 30
6.0
  0
VERTEX
  5
1096
  8
DISTRICTS
 10
636.52386659599995
 20
4680.2482100200004
 30
6.0
  0
VERTEX
  5
1097
  8
DISTRICTS
 10
636.62527233100002
 20
4680.25589029
 30
6.0
  0
VERTEX
  5
1098
  8
DISTRICTS
 10
636.68708786299999
 20
4680.2482100200004
 30
6.0
  0
VERTEX
  5
1099
  8
DISTRICTS
 10
636.7254901959999
 20
4680.2448880799984
 30
6.0
  0
VERTEX
  5
109A
  8
DISTRICTS
 10
636.825708061
 20
4680.2193745499999
 30
6.0
  0
VERTEX
  5
109B
  8
DISTRICTS
 10
636.92592592599976
 20
4680.1681625900001
 30
6.0
  0
VERTEX
  5
109C
  8
DISTRICTS
 10
636.95346721999999
 20
4680.1479713600002
 30
6.0
  0
VERTEX
  5
109D
  8
DISTRICTS
 10
637.02614379099987
 20
4680.0901147100003
 30
6.0
  0
VERTEX
  5
109E
  8
DISTRICTS
 10
637.06632186699994
 20
4680.0477326999999
 30
6.0
  0
VERTEX
  5
109F
  8
DISTRICTS
 10
637.12636165599997
 20
4679.9595332899989
 30
6.0
  0
VERTEX
  5
10A0
  8
DISTRICTS
 10
637.13418119399978
 20
4679.9474940299979
 30
6.0
  0
VERTEX
  5
10A1
  8
DISTRICTS
 10
637.18043914899999
 20
4679.8472553700003
 30
6.0
  0
VERTEX
  5
10A2
  8
DISTRICTS
 10
637.201964793
 20
4679.74701671
 30
6.0
  0
VERTEX
  5
10A3
  8
DISTRICTS
 10
637.20500678099995
 20
4679.6467780399998
 30
6.0
  0
VERTEX
  5
10A4
  8
DISTRICTS
 10
637.19032689000005
 20
4679.5465393799977
 30
6.0
  0
VERTEX
  5
10A5
  8
DISTRICTS
 10
637.15305714400006
 20
4679.4463007200002
 30
6.0
  0
VERTEX
  5
10A6
  8
DISTRICTS
 10
637.12636165599997
 20
4679.40075531
 30
6.0
  0
VERTEX
  5
10A7
  8
DISTRICTS
 10
637.09156522900003
 20
4679.34606205
 30
6.0
  0
VERTEX
  5
10A8
  8
DISTRICTS
 10
637.02614379099987
 20
4679.2738526999983
 30
6.0
  0
VERTEX
  5
10A9
  8
DISTRICTS
 10
636.99136372999976
 20
4679.2458233899997
 30
6.0
  0
VERTEX
  5
10AA
  8
DISTRICTS
 10
636.92592592599976
 20
4679.1971671899992
 30
6.0
  0
VERTEX
  5
10AB
  8
DISTRICTS
 10
636.825708061
 20
4679.1521641299978
 30
6.0
  0
VERTEX
  5
10AC
  8
DISTRICTS
 10
636.79850359900001
 20
4679.1455847300003
 30
6.0
  0
VERTEX
  5
10AD
  8
DISTRICTS
 10
636.7254901959999
 20
4679.1236950399998
 30
6.0
  0
VERTEX
  5
10AE
  8
DISTRICTS
 10
636.62527233100002
 20
4679.113533079998
 30
6.0
  0
VERTEX
  5
10AF
  8
DISTRICTS
 10
636.52505446600003
 20
4679.12192375
 30
6.0
  0
SEQEND
  5
10B0
  8
DISTRICTS
  0
POLYLINE
  5
37
  8
DISTRICTS
 66
     1
 10
0.0
 20
0.0
 30
4.0
 70
     1
  0
VERTEX
  5
10B1
  8
DISTRICTS
 10
632.97781860999999
 20
4679.8472553700003
 30
4.0
  0
VERTEX
  5
10B2
  8
DISTRICTS
 10
632.917211329
 20
4679.8659430400003
 30
4.0
  0
VERTEX
  5
10B3
  8
DISTRICTS
 10
632.81699346399989
 20
4679.9054540899997
 30
4.0
  0
VERTEX
  5
10B4
  8
DISTRICTS
 10
632.73171050500002
 20
4679.9474940299979
 30
4.0
  0
VERTEX
  5
10B5
  8
DISTRICTS
 10
632.71677559900002
 20
4679.954614889999
 30
4.0
  0
VERTEX
  5
10B6
  8
DISTRICTS
 10
632.61655773400003
 20
4680.0097301599999
 30
4.0
  0
VERTEX
  5
10B7
  8
DISTRICTS
 10
632.55641898800002
 20
4680.0477326999999
 30
4.0
  0
VERTEX
  5
10B8
  8
DISTRICTS
 10
632.51633986900003
 20
4680.0735455699987
 30
4.0
  0
VERTEX
  5
10B9
  8
DISTRICTS
 10
632.41612200400004
 20
4680.1429024600002
 30
4.0
  0
VERTEX
  5
10BA
  8
DISTRICTS
 10
632.31590413900005
 20
4680.2113938700004
 30
4.0
  0
VERTEX
  5
10BB
  8
DISTRICTS
 10
632.24056416899975
 20
4680.2482100200004
 30
4.0
  0
VERTEX
  5
10BC
  8
DISTRICTS
 10
632.21568627500005
 20
4680.2627892800001
 30
4.0
  0
VERTEX
  5
10BD
  8
DISTRICTS
 10
632.11546840999995
 20
4680.2519474000001
 30
4.0
  0
VERTEX
  5
10BE
  8
DISTRICTS
 10
632.01525054499984
 20
4680.1887452700003
 30
4.0
  0
VERTEX
  5
10BF
  8
DISTRICTS
 10
631.91503267999985
 20
4680.1648338100003
 30
4.0
  0
VERTEX
  5
10C0
  8
DISTRICTS
 10
631.81481481499975
 20
4680.1834330499978
 30
4.0
  0
VERTEX
  5
10C1
  8
DISTRICTS
 10
631.75506434099975
 20
4680.2482100200004
 30
4.0
  0
VERTEX
  5
10C2
  8
DISTRICTS
 10
631.73266697899987
 20
4680.3484486899997
 30
4.0
  0
VERTEX
  5
10C3
  8
DISTRICTS
 10
631.79828425300002
 20
4680.44868735
 30
4.0
  0
VERTEX
  5
10C4
  8
DISTRICTS
 10
631.81481481499975
 20
4680.4709455599977
 30
4.0
  0
VERTEX
  5
10C5
  8
DISTRICTS
 10
631.91503267999985
 20
4680.5307658800002
 30
4.0
  0
VERTEX
  5
10C6
  8
DISTRICTS
 10
631.97828516100003
 20
4680.5489260100003
 30
4.0
  0
VERTEX
  5
10C7
  8
DISTRICTS
 10
632.01525054499984
 20
4680.6118831200001
 30
4.0
  0
VERTEX
  5
10C8
  8
DISTRICTS
 10
632.02935795899998
 20
4680.6491646799996
 30
4.0
  0
VERTEX
  5
10C9
  8
DISTRICTS
 10
632.0341665069999
 20
4680.7494033399998
 30
4.0
  0
VERTEX
  5
10CA
  8
DISTRICTS
 10
632.03080769400003
 20
4680.8496420000001
 30
4.0
  0
VERTEX
  5
10CB
  8
DISTRICTS
 10
632.02694967199989
 20
4680.9498806700003
 30
4.0
  0
VERTEX
  5
10CC
  8
DISTRICTS
 10
632.02534426099999
 20
4681.0501193299997
 30
4.0
  0
VERTEX
  5
10CD
  8
DISTRICTS
 10
632.02723154800003
 20
4681.1503579999999
 30
4.0
  0
VERTEX
  5
10CE
  8
DISTRICTS
 10
632.03328133599985
 20
4681.2505966599992
 30
4.0
  0
VERTEX
  5
10CF
  8
DISTRICTS
 10
632.04395237199992
 20
4681.3508353200004
 30
4.0
  0
VERTEX
  5
10D0
  8
DISTRICTS
 10
632.05963952599996
 20
4681.4510739899988
 30
4.0
  0
VERTEX
  5
10D1
  8
DISTRICTS
 10
632.08073234199992
 20
4681.5513126499991
 30
4.0
  0
VERTEX
  5
10D2
  8
DISTRICTS
 10
632.10764080599995
 20
4681.6515513099994
 30
4.0
  0
VERTEX
  5
10D3
  8
DISTRICTS
 10
632.11546840999995
 20
4681.6759377899989
 30
4.0
  0
VERTEX
  5
10D4
  8
DISTRICTS
 10
632.13799637099999
 20
4681.7517899799977
 30
4.0
  0
VERTEX
  5
10D5
  8
DISTRICTS
 10
632.17384939600004
 20
4681.8520286399998
 30
4.0
  0
VERTEX
  5
10D6
  8
DISTRICTS
 10
632.21568627500005
 20
4681.9499547200003
 30
4.0
  0
VERTEX
  5
10D7
  8
DISTRICTS
 10
632.26227297399987
 20
4682.0525059700003
 30
4.0
  0
VERTEX
  5
10D8
  8
DISTRICTS
 10
632.31590413900005
 20
4682.1521473700004
 30
4.0
  0
VERTEX
  5
10D9
  8
DISTRICTS
 10
632.37380694000001
 20
4682.25298329
 30
4.0
  0
VERTEX
  5
10DA
  8
DISTRICTS
 10
632.41612200400004
 20
4682.3173329199999
 30
4.0
  0
VERTEX
  5
10DB
  8
DISTRICTS
 10
632.43953715500004
 20
4682.3532219600002
 30
4.0
  0
VERTEX
  5
10DC
  8
DISTRICTS
 10
632.51298239100004
 20
4682.4534606200004
 30
4.0
  0
VERTEX
  5
10DD
  8
DISTRICTS
 10
632.59340876399995
 20
4682.553699279998
 30
4.0
  0
VERTEX
  5
10DE
  8
DISTRICTS
 10
632.61655773400003
 20
4682.5801414599991
 30
4.0
  0
VERTEX
  5
10DF
  8
DISTRICTS
 10
632.68359611800008
 20
4682.6539379499991
 30
4.0
  0
VERTEX
  5
10E0
  8
DISTRICTS
 10
632.71677559900002
 20
4682.6881555999998
 30
4.0
  0
VERTEX
  5
10E1
  8
DISTRICTS
 10
632.78435347300001
 20
4682.7541766100003
 30
4.0
  0
VERTEX
  5
10E2
  8
DISTRICTS
 10
632.81699346399989
 20
4682.7847558200001
 30
4.0
  0
VERTEX
  5
10E3
  8
DISTRICTS
 10
632.89646717699975
 20
4682.8544152699988
 30
4.0
  0
VERTEX
  5
10E4
  8
DISTRICTS
 10
632.917211329
 20
4682.8722611999992
 30
4.0
  0
VERTEX
  5
10E5
  8
DISTRICTS
 10
633.01742919399976
 20
4682.9527597300003
 30
4.0
  0
VERTEX
  5
10E6
  8
DISTRICTS
 10
633.11764705899986
 20
4683.0300587600004
 30
4.0
  0
VERTEX
  5
10E7
  8
DISTRICTS
 10
633.15188066899998
 20
4683.054892600001
 30
4.0
  0
VERTEX
  5
10E8
  8
DISTRICTS
 10
633.21786492399985
 20
4683.1044369099991
 30
4.0
  0
VERTEX
  5
10E9
  8
DISTRICTS
 10
633.28799821799976
 20
4683.1551312600004
 30
4.0
  0
VERTEX
  5
10EA
  8
DISTRICTS
 10
633.31808278899985
 20
4683.1785634999987
 30
4.0
  0
VERTEX
  5
10EB
  8
DISTRICTS
 10
633.41354494300003
 20
4683.2553699299997
 30
4.0
  0
VERTEX
  5
10EC
  8
DISTRICTS
 10
633.48754268300002
 20
4683.35560859
 30
4.0
  0
VERTEX
  5
10ED
  8
DISTRICTS
 10
633.51071623300004
 20
4683.4558472600002
 30
4.0
  0
VERTEX
  5
10EE
  8
DISTRICTS
 10
633.51851851900005
 20
4683.4733154799987
 30
4.0
  0
VERTEX
  5
10EF
  8
DISTRICTS
 10
633.52609817300004
 20
4683.5560859200023
 30
4.0
  0
VERTEX
  5
10F0
  8
DISTRICTS
 10
633.61873638300005
 20
4683.6509437599998
 30
4.0
  0
VERTEX
  5
10F1
  8
DISTRICTS
 10
633.71895424800005
 20
4683.6530816200002
 30
4.0
  0
VERTEX
  5
10F2
  8
DISTRICTS
 10
633.81917211300004
 20
4683.6015655900001
 30
4.0
  0
VERTEX
  5
10F3
  8
DISTRICTS
 10
633.86637451699994
 20
4683.5560859200023
 30
4.0
  0
VERTEX
  5
10F4
  8
DISTRICTS
 10
633.89296496199995
 20
4683.4558472600002
 30
4.0
  0
VERTEX
  5
10F5
  8
DISTRICTS
 10
633.91938997800003
 20
4683.4109381099988
 30
4.0
  0
VERTEX
  5
10F6
  8
DISTRICTS
 10
633.99638345799997
 20
4683.35560859
 30
4.0
  0
VERTEX
  5
10F7
  8
DISTRICTS
 10
634.0196078429999
 20
4683.3449228799991
 30
4.0
  0
VERTEX
  5
10F8
  8
DISTRICTS
 10
634.11982570800001
 20
4683.2968174500002
 30
4.0
  0
VERTEX
  5
10F9
  8
DISTRICTS
 10
634.19013817799976
 20
4683.2553699299997
 30
4.0
  0
VERTEX
  5
10FA
  8
DISTRICTS
 10
634.22004357299977
 20
4683.2388833699997
 30
4.0
  0
VERTEX
  5
10FB
  8
DISTRICTS
 10
634.32026143799987
 20
4683.1668626600012
 30
4.0
  0
VERTEX
  5
10FC
  8
DISTRICTS
 10
634.33449634799979
 20
4683.1551312600004
 30
4.0
  0
VERTEX
  5
10FD
  8
DISTRICTS
 10
634.42047930299998
 20
4683.0750335000002
 30
4.0
  0
VERTEX
  5
10FE
  8
DISTRICTS
 10
634.44040870799995
 20
4683.054892600001
 30
4.0
  0
VERTEX
  5
10FF
  8
DISTRICTS
 10
634.52069716799997
 20
4682.9577810000001
 30
4.0
  0
VERTEX
  5
1100
  8
DISTRICTS
 10
634.59536973599995
 20
4682.8544152699988
 30
4.0
  0
VERTEX
  5
1101
  8
DISTRICTS
 10
634.62091503299996
 20
4682.8110951199988
 30
4.0
  0
VERTEX
  5
1102
  8
DISTRICTS
 10
634.65680434599994
 20
4682.7541766100003
 30
4.0
  0
VERTEX
  5
1103
  8
DISTRICTS
 10
634.70995923400005
 20
4682.6539379499991
 30
4.0
  0
VERTEX
  5
1104
  8
DISTRICTS
 10
634.72113289800006
 20
4682.6295359799997
 30
4.0
  0
VERTEX
  5
1105
  8
DISTRICTS
 10
634.75871042599999
 20
4682.553699279998
 30
4.0
  0
VERTEX
  5
1106
  8
DISTRICTS
 10
634.80039876399985
 20
4682.4534606200004
 30
4.0
  0
VERTEX
  5
1107
  8
DISTRICTS
 10
634.82135076300005
 20
4682.3935073000002
 30
4.0
  0
VERTEX
  5
1108
  8
DISTRICTS
 10
634.836788888
 20
4682.3532219600002
 30
4.0
  0
VERTEX
  5
1109
  8
DISTRICTS
 10
634.86932429900003
 20
4682.25298329
 30
4.0
  0
VERTEX
  5
110A
  8
DISTRICTS
 10
634.89583424399996
 20
4682.1527446299979
 30
4.0
  0
VERTEX
  5
110B
  8
DISTRICTS
 10
634.917158277
 20
4682.0525059700003
 30
4.0
  0
VERTEX
  5
110C
  8
DISTRICTS
 10
634.92156862699994
 20
4682.0264519599978
 30
4.0
  0
VERTEX
  5
110D
  8
DISTRICTS
 10
634.93580023100003
 20
4681.9522673000001
 30
4.0
  0
VERTEX
  5
110E
  8
DISTRICTS
 10
634.95047876399985
 20
4681.8520286399998
 30
4.0
  0
VERTEX
  5
110F
  8
DISTRICTS
 10
634.96096035999994
 20
4681.7517899799977
 30
4.0
  0
VERTEX
  5
1110
  8
DISTRICTS
 10
634.96752312199988
 20
4681.6515513099994
 30
4.0
  0
VERTEX
  5
1111
  8
DISTRICTS
 10
634.97031103400002
 20
4681.5513126499991
 30
4.0
  0
VERTEX
  5
1112
  8
DISTRICTS
 10
634.96933698600003
 20
4681.4510739899988
 30
4.0
  0
VERTEX
  5
1113
  8
DISTRICTS
 10
634.96447888900002
 20
4681.3508353200004
 30
4.0
  0
VERTEX
  5
1114
  8
DISTRICTS
 10
634.95546610199995
 20
4681.2505966599992
 30
4.0
  0
VERTEX
  5
1115
  8
DISTRICTS
 10
634.94185391500002
 20
4681.1503579999999
 30
4.0
  0
VERTEX
  5
1116
  8
DISTRICTS
 10
634.92298347999997
 20
4681.0501193299997
 30
4.0
  0
VERTEX
  5
1117
  8
DISTRICTS
 10
634.90085389099977
 20
4680.9498806700003
 30
4.0
  0
VERTEX
  5
1118
  8
DISTRICTS
 10
634.87235939399989
 20
4680.8496420000001
 30
4.0
  0
VERTEX
  5
1119
  8
DISTRICTS
 10
634.83578859800002
 20
4680.7494033399998
 30
4.0
  0
VERTEX
  5
111A
  8
DISTRICTS
 10
634.82135076300005
 20
4680.7163232599987
 30
4.0
  0
VERTEX
  5
111B
  8
DISTRICTS
 10
634.79302017099985
 20
4680.6491646799996
 30
4.0
  0
VERTEX
  5
111C
  8
DISTRICTS
 10
634.74054038999975
 20
4680.5489260100003
 30
4.0
  0
VERTEX
  5
111D
  8
DISTRICTS
 10
634.72113289800006
 20
4680.5174543200001
 30
4.0
  0
VERTEX
  5
111E
  8
DISTRICTS
 10
634.678733749
 20
4680.44868735
 30
4.0
  0
VERTEX
  5
111F
  8
DISTRICTS
 10
634.62091503299996
 20
4680.3709335699987
 30
4.0
  0
VERTEX
  5
1120
  8
DISTRICTS
 10
634.60375032800005
 20
4680.3484486899997
 30
4.0
  0
VERTEX
  5
1121
  8
DISTRICTS
 10
634.52069716799997
 20
4680.2547894099998
 30
4.0
  0
VERTEX
  5
1122
  8
DISTRICTS
 10
634.42047930299998
 20
4680.158894109999
 30
4.0
  0
VERTEX
  5
1123
  8
DISTRICTS
 10
634.40782318399999
 20
4680.1479713600002
 30
4.0
  0
VERTEX
  5
1124
  8
DISTRICTS
 10
634.32026143799987
 20
4680.0779929199998
 30
4.0
  0
VERTEX
  5
1125
  8
DISTRICTS
 10
634.27681784100002
 20
4680.0477326999999
 30
4.0
  0
VERTEX
  5
1126
  8
DISTRICTS
 10
634.22004357299977
 20
4680.0097854699998
 30
4.0
  0
VERTEX
  5
1127
  8
DISTRICTS
 10
634.11982570800001
 20
4679.9532371300002
 30
4.0
  0
VERTEX
  5
1128
  8
DISTRICTS
 10
634.10803255099995
 20
4679.9474940299979
 30
4.0
  0
VERTEX
  5
1129
  8
DISTRICTS
 10
634.0196078429999
 20
4679.9039140499999
 30
4.0
  0
VERTEX
  5
112A
  8
DISTRICTS
 10
633.91938997800003
 20
4679.864756699998
 30
4.0
  0
VERTEX
  5
112B
  8
DISTRICTS
 10
633.86243842199997
 20
4679.8472553700003
 30
4.0
  0
VERTEX
  5
112C
  8
DISTRICTS
 10
633.81917211300004
 20
4679.83308743
 30
4.0
  0
VERTEX
  5
112D
  8
DISTRICTS
 10
633.71895424800005
 20
4679.8077413499987
 30
4.0
  0
VERTEX
  5
112E
  8
DISTRICTS
 10
633.61873638300005
 20
4679.7903258300003
 30
4.0
  0
VERTEX
  5
112F
  8
DISTRICTS
 10
633.51851851900005
 20
4679.7801638600013
 30
4.0
  0
VERTEX
  5
1130
  8
DISTRICTS
 10
633.41830065399995
 20
4679.7768432599987
 30
4.0
  0
VERTEX
  5
1131
  8
DISTRICTS
 10
633.31808278899985
 20
4679.780240529999
 30
4.0
  0
VERTEX
  5
1132
  8
DISTRICTS
 10
633.21786492399985
 20
4679.7905333000008
 30
4.0
  0
VERTEX
  5
1133
  8
DISTRICTS
 10
633.11764705899986
 20
4679.8081965800002
 30
4.0
  0
VERTEX
  5
1134
  8
DISTRICTS
 10
633.01742919399976
 20
4679.8339763499989
 30
4.0
  0
SEQEND
  5
1135
  8
DISTRICTS
  0
POLYLINE
  5
38
  8
DISTRICTS
 66
     1
 10
0.0
 20
0.0
 30
5.0
 70
     1
  0
VERTEX
  5
1136
  8
DISTRICTS
 10
627.78278657500005
 20
4679.8472553700003
 30
5.0
  0
VERTEX
  5
1137
  8
DISTRICTS
 10
627.70588235299988
 20
4679.8680705699999
 30
5.0
  0
VERTEX
  5
1138
  8
DISTRICTS
 10
627.605664488
 20
4679.8794759100001
 30
5.0
  0
VERTEX
  5
1139
  8
DISTRICTS
 10
627.50544662300001
 20
4679.8734527599981
 30
5.0
  0
VERTEX
  5
113A
  8
DISTRICTS
 10
627.40522875799991
 20
4679.8700827199991
 30
5.0
  0
VERTEX
  5
113B
  8
DISTRICTS
 10
627.30501089300003
 20
4679.8814828799987
 30
5.0
  0
VERTEX
  5
113C
  8
DISTRICTS
 10
627.20479302800004
 20
4679.9201432999998
 30
5.0
  0
VERTEX
  5
113D
  8
DISTRICTS
 10
627.1663916
 20
4679.9474940299979
 30
5.0
  0
VERTEX
  5
113E
  8
DISTRICTS
 10
627.10457516300005
 20
4679.9946754499988
 30
5.0
  0
VERTEX
  5
113F
  8
DISTRICTS
 10
627.05851643899985
 20
4680.0477326999999
 30
5.0
  0
VERTEX
  5
1140
  8
DISTRICTS
 10
627.01122572199995
 20
4680.1479713600002
 30
5.0
  0
VERTEX
  5
1141
  8
DISTRICTS
 10
627.00435729799995
 20
4680.1941592699995
 30
5.0
  0
VERTEX
  5
1142
  8
DISTRICTS
 10
626.991540891
 20
4680.2482100200004
 30
5.0
  0
VERTEX
  5
1143
  8
DISTRICTS
 10
626.99491869199994
 20
4680.3484486899997
 30
5.0
  0
VERTEX
  5
1144
  8
DISTRICTS
 10
627.00435729799995
 20
4680.4026013800003
 30
5.0
  0
VERTEX
  5
1145
  8
DISTRICTS
 10
627.01223598199999
 20
4680.44868735
 30
5.0
  0
VERTEX
  5
1146
  8
DISTRICTS
 10
627.02951015400004
 20
4680.5489260100003
 30
5.0
  0
VERTEX
  5
1147
  8
DISTRICTS
 10
627.03404163000005
 20
4680.6491646799996
 30
5.0
  0
VERTEX
  5
1148
  8
DISTRICTS
 10
627.02615307099995
 20
4680.7494033399998
 30
5.0
  0
VERTEX
  5
1149
  8
DISTRICTS
 10
627.01578866900002
 20
4680.8496420000001
 30
5.0
  0
VERTEX
  5
114A
  8
DISTRICTS
 10
627.01049486300008
 20
4680.9498806700003
 30
5.0
  0
VERTEX
  5
114B
  8
DISTRICTS
 10
627.01384304999999
 20
4681.0501193299997
 30
5.0
  0
VERTEX
  5
114C
  8
DISTRICTS
 10
627.02872106300003
 20
4681.1503579999999
 30
5.0
  0
VERTEX
  5
114D
  8
DISTRICTS
 10
627.06029320300001
 20
4681.2505966599992
 30
5.0
  0
VERTEX
  5
114E
  8
DISTRICTS
 10
627.10457516300005
 20
4681.3316130399999
 30
5.0
  0
VERTEX
  5
114F
  8
DISTRICTS
 10
627.11436725700003
 20
4681.3508353200004
 30
5.0
  0
VERTEX
  5
1150
  8
DISTRICTS
 10
627.19405644999995
 20
4681.4510739899988
 30
5.0
  0
VERTEX
  5
1151
  8
DISTRICTS
 10
627.20479302800004
 20
4681.461654329999
 30
5.0
  0
VERTEX
  5
1152
  8
DISTRICTS
 10
627.30501089300003
 20
4681.5411020700003
 30
5.0
  0
VERTEX
  5
1153
  8
DISTRICTS
 10
627.32484092799996
 20
4681.5513126499991
 30
5.0
  0
VERTEX
  5
1154
  8
DISTRICTS
 10
627.40522875799991
 20
4681.59392063
 30
5.0
  0
VERTEX
  5
1155
  8
DISTRICTS
 10
627.50544662300001
 20
4681.6231499200003
 30
5.0
  0
VERTEX
  5
1156
  8
DISTRICTS
 10
627.605664488
 20
4681.6335086600002
 30
5.0
  0
VERTEX
  5
1157
  8
DISTRICTS
 10
627.70588235299988
 20
4681.6282715999996
 30
5.0
  0
VERTEX
  5
1158
  8
DISTRICTS
 10
627.80610021799998
 20
4681.6060455400002
 30
5.0
  0
VERTEX
  5
1159
  8
DISTRICTS
 10
627.90631808299975
 20
4681.5619447099998
 30
5.0
  0
VERTEX
  5
115A
  8
DISTRICTS
 10
627.92450241899985
 20
4681.5513126499991
 30
5.0
  0
VERTEX
  5
115B
  8
DISTRICTS
 10
628.00653594799996
 20
4681.4978955899978
 30
5.0
  0
VERTEX
  5
115C
  8
DISTRICTS
 10
628.06131237599993
 20
4681.4510739899988
 30
5.0
  0
VERTEX
  5
115D
  8
DISTRICTS
 10
628.10675381300007
 20
4681.3989308700002
 30
5.0
  0
VERTEX
  5
115E
  8
DISTRICTS
 10
628.14762940399987
 20
4681.3508353200004
 30
5.0
  0
VERTEX
  5
115F
  8
DISTRICTS
 10
628.20404499099993
 20
4681.2505966599992
 30
5.0
  0
VERTEX
  5
1160
  8
DISTRICTS
 10
628.24992445500004
 20
4681.1503579999999
 30
5.0
  0
VERTEX
  5
1161
  8
DISTRICTS
 10
628.28016579400003
 20
4681.0501193299997
 30
5.0
  0
VERTEX
  5
1162
  8
DISTRICTS
 10
628.30270885200002
 20
4680.9498806700003
 30
5.0
  0
VERTEX
  5
1163
  8
DISTRICTS
 10
628.30718954199995
 20
4680.9293611700004
 30
5.0
  0
VERTEX
  5
1164
  8
DISTRICTS
 10
628.33417112500001
 20
4680.8496420000001
 30
5.0
  0
VERTEX
  5
1165
  8
DISTRICTS
 10
628.40231972499976
 20
4680.7494033399998
 30
5.0
  0
VERTEX
  5
1166
  8
DISTRICTS
 10
628.50762527199993
 20
4680.6974154400004
 30
5.0
  0
VERTEX
  5
1167
  8
DISTRICTS
 10
628.5697157999997
 20
4680.6491646799996
 30
5.0
  0
VERTEX
  5
1168
  8
DISTRICTS
 10
628.60784313699992
 20
4680.6302337500001
 30
5.0
  0
VERTEX
  5
1169
  8
DISTRICTS
 10
628.67639477099988
 20
4680.5489260100003
 30
5.0
  0
VERTEX
  5
116A
  8
DISTRICTS
 10
628.70197088400005
 20
4680.44868735
 30
5.0
  0
VERTEX
  5
116B
  8
DISTRICTS
 10
628.67161488500005
 20
4680.3484486899997
 30
5.0
  0
VERTEX
  5
116C
  8
DISTRICTS
 10
628.60784313699992
 20
4680.2774554400003
 30
5.0
  0
VERTEX
  5
116D
  8
DISTRICTS
 10
628.54308097000001
 20
4680.2482100200004
 30
5.0
  0
VERTEX
  5
116E
  8
DISTRICTS
 10
628.50762527199993
 20
4680.224694569999
 30
5.0
  0
VERTEX
  5
116F
  8
DISTRICTS
 10
628.40740740699994
 20
4680.1876033500002
 30
5.0
  0
VERTEX
  5
1170
  8
DISTRICTS
 10
628.33756274899986
 20
4680.1479713600002
 30
5.0
  0
VERTEX
  5
1171
  8
DISTRICTS
 10
628.30718954199995
 20
4680.1182252799999
 30
5.0
  0
VERTEX
  5
1172
  8
DISTRICTS
 10
628.27297815300005
 20
4680.0477326999999
 30
5.0
  0
VERTEX
  5
1173
  8
DISTRICTS
 10
628.20697167799995
 20
4679.9623044099999
 30
5.0
  0
VERTEX
  5
1174
  8
DISTRICTS
 10
628.19853986500004
 20
4679.9474940299979
 30
5.0
  0
VERTEX
  5
1175
  8
DISTRICTS
 10
628.10675381300007
 20
4679.8688318799987
 30
5.0
  0
VERTEX
  5
1176
  8
DISTRICTS
 10
628.04891947900001
 20
4679.8472553700003
 30
5.0
  0
VERTEX
  5
1177
  8
DISTRICTS
 10
628.00653594799996
 20
4679.8292967699999
 30
5.0
  0
VERTEX
  5
1178
  8
DISTRICTS
 10
627.90631808299975
 20
4679.8204119399979
 30
5.0
  0
VERTEX
  5
1179
  8
DISTRICTS
 10
627.80610021799998
 20
4679.8411292099991
 30
5.0
  0
SEQEND
  5
117A
  8
DISTRICTS
  0
POLYLINE
  5
39
  8
DISTRICTS
 66
     1
 10
0.0
 20
0.0
 30
3.0
 70
     1
  0
VERTEX
  5
117B
  8
DISTRICTS
 10
636.65027893000001
 20
4683.75656325
 30
3.0
  0
VERTEX
  5
117C
  8
DISTRICTS
 10
636.62527233100002
 20
4683.7617099899999
 30
3.0
  0
VERTEX
  5
117D
  8
DISTRICTS
 10
636.52505446600003
 20
4683.7925183899979
 30
3.0
  0
VERTEX
  5
117E
  8
DISTRICTS
 10
636.42483660100004
 20
4683.8399932100001
 30
3.0
  0
VERTEX
  5
117F
  8
DISTRICTS
 10
636.39629268099998
 20
4683.8568019100003
 30
3.0
  0
VERTEX
  5
1180
  8
DISTRICTS
 10
636.32461873599993
 20
4683.9041948999984
 30
3.0
  0
VERTEX
  5
1181
  8
DISTRICTS
 10
636.26196477099995
 20
4683.9570405699988
 30
3.0
  0
VERTEX
  5
1182
  8
DISTRICTS
 10
636.22440087099994
 20
4683.99622163
 30
3.0
  0
VERTEX
  5
1183
  8
DISTRICTS
 10
636.17248451599994
 20
4684.0572792399998
 30
3.0
  0
VERTEX
  5
1184
  8
DISTRICTS
 10
636.12418300699994
 20
4684.1361948200001
 30
3.0
  0
VERTEX
  5
1185
  8
DISTRICTS
 10
636.11146711399999
 20
4684.1575179000001
 30
3.0
  0
VERTEX
  5
1186
  8
DISTRICTS
 10
636.06591436199994
 20
4684.2577565600004
 30
3.0
  0
VERTEX
  5
1187
  8
DISTRICTS
 10
636.03756227600002
 20
4684.3579952299997
 30
3.0
  0
VERTEX
  5
1188
  8
DISTRICTS
 10
636.02396514199995
 20
4684.4402900699988
 30
3.0
  0
VERTEX
  5
1189
  8
DISTRICTS
 10
636.02056144100004
 20
4684.45823389
 30
3.0
  0
VERTEX
  5
118A
  8
DISTRICTS
 10
636.01164407099975
 20
4684.5584725500003
 30
3.0
  0
VERTEX
  5
118B
  8
DISTRICTS
 10
636.01308405400005
 20
4684.6587112200004
 30
3.0
  0
VERTEX
  5
118C
  8
DISTRICTS
 10
636.02396514199995
 20
4684.7529415899999
 30
3.0
  0
VERTEX
  5
118D
  8
DISTRICTS
 10
636.04219654899975
 20
4684.8591885400001
 30
3.0
  0
VERTEX
  5
118E
  8
DISTRICTS
 10
636.07047161499975
 20
4684.9594272100003
 30
3.0
  0
VERTEX
  5
118F
  8
DISTRICTS
 10
636.11245848700003
 20
4685.0596658699988
 30
3.0
  0
VERTEX
  5
1190
  8
DISTRICTS
 10
636.12418300699994
 20
4685.08134453
 30
3.0
  0
VERTEX
  5
1191
  8
DISTRICTS
 10
636.16373267300003
 20
4685.1599045299981
 30
3.0
  0
VERTEX
  5
1192
  8
DISTRICTS
 10
636.22440087099994
 20
4685.2469368599986
 30
3.0
  0
VERTEX
  5
1193
  8
DISTRICTS
 10
636.23357636499986
 20
4685.2601431999992
 30
3.0
  0
VERTEX
  5
1194
  8
DISTRICTS
 10
636.32262712699992
 20
4685.3603818600004
 30
3.0
  0
VERTEX
  5
1195
  8
DISTRICTS
 10
636.42483660100004
 20
4685.4492518400002
 30
3.0
  0
VERTEX
  5
1196
  8
DISTRICTS
 10
636.44044196300001
 20
4685.4606205299979
 30
3.0
  0
VERTEX
  5
1197
  8
DISTRICTS
 10
636.52505446600003
 20
4685.5168238300002
 30
3.0
  0
VERTEX
  5
1198
  8
DISTRICTS
 10
636.61511898499998
 20
4685.56085919
 30
3.0
  0
VERTEX
  5
1199
  8
DISTRICTS
 10
636.62527233100002
 20
4685.5657477900004
 30
3.0
  0
VERTEX
  5
119A
  8
DISTRICTS
 10
636.7254901959999
 20
4685.6047340599989
 30
3.0
  0
VERTEX
  5
119B
  8
DISTRICTS
 10
636.825708061
 20
4685.6294481599989
 30
3.0
  0
VERTEX
  5
119C
  8
DISTRICTS
 10
636.92592592599976
 20
4685.64209596
 30
3.0
  0
VERTEX
  5
119D
  8
DISTRICTS
 10
637.02614379099987
 20
4685.6439389699999
 30
3.0
  0
VERTEX
  5
119E
  8
DISTRICTS
 10
637.12636165599997
 20
4685.6350145599981
 30
3.0
  0
VERTEX
  5
119F
  8
DISTRICTS
 10
637.22657952099985
 20
4685.6137445699997
 30
3.0
  0
VERTEX
  5
11A0
  8
DISTRICTS
 10
637.32679738599995
 20
4685.5766570100004
 30
3.0
  0
VERTEX
  5
11A1
  8
DISTRICTS
 10
637.35658097199985
 20
4685.56085919
 30
3.0
  0
VERTEX
  5
11A2
  8
DISTRICTS
 10
637.42701525099994
 20
4685.5268818799996
 30
3.0
  0
VERTEX
  5
11A3
  8
DISTRICTS
 10
637.51956015500002
 20
4685.4606205299979
 30
3.0
  0
VERTEX
  5
11A4
  8
DISTRICTS
 10
637.62691864299995
 20
4685.3603818600004
 30
3.0
  0
VERTEX
  5
11A5
  8
DISTRICTS
 10
637.70693824300008
 20
4685.2601431999992
 30
3.0
  0
VERTEX
  5
11A6
  8
DISTRICTS
 10
637.72766884500004
 20
4685.2267474299979
 30
3.0
  0
VERTEX
  5
11A7
  8
DISTRICTS
 10
637.76752716700003
 20
4685.1599045299981
 30
3.0
  0
VERTEX
  5
11A8
  8
DISTRICTS
 10
637.81184619299995
 20
4685.0596658699988
 30
3.0
  0
VERTEX
  5
11A9
  8
DISTRICTS
 10
637.82788671000003
 20
4685.0079892900003
 30
3.0
  0
VERTEX
  5
11AA
  8
DISTRICTS
 10
637.84429714199996
 20
4684.9594272100003
 30
3.0
  0
VERTEX
  5
11AB
  8
DISTRICTS
 10
637.86690132199976
 20
4684.8591885400001
 30
3.0
  0
VERTEX
  5
11AC
  8
DISTRICTS
 10
637.87813704899975
 20
4684.7589498799989
 30
3.0
  0
VERTEX
  5
11AD
  8
DISTRICTS
 10
637.87891233000005
 20
4684.6587112200004
 30
3.0
  0
VERTEX
  5
11AE
  8
DISTRICTS
 10
637.86913576099994
 20
4684.5584725500003
 30
3.0
  0
VERTEX
  5
11AF
  8
DISTRICTS
 10
637.84769000499989
 20
4684.45823389
 30
3.0
  0
VERTEX
  5
11B0
  8
DISTRICTS
 10
637.82788671000003
 20
4684.3992382400002
 30
3.0
  0
VERTEX
  5
11B1
  8
DISTRICTS
 10
637.81526336800005
 20
4684.3579952299997
 30
3.0
  0
VERTEX
  5
11B2
  8
DISTRICTS
 10
637.77109711699995
 20
4684.2577565600004
 30
3.0
  0
VERTEX
  5
11B3
  8
DISTRICTS
 10
637.72766884500004
 20
4684.1857888200002
 30
3.0
  0
VERTEX
  5
11B4
  8
DISTRICTS
 10
637.70968107199985
 20
4684.1575179000001
 30
3.0
  0
VERTEX
  5
11B5
  8
DISTRICTS
 10
637.62942485400004
 20
4684.0572792399998
 30
3.0
  0
VERTEX
  5
11B6
  8
DISTRICTS
 10
637.52723311499994
 20
4683.95974415
 30
3.0
  0
VERTEX
  5
11B7
  8
DISTRICTS
 10
637.42701525099994
 20
4683.8852738200003
 30
3.0
  0
VERTEX
  5
11B8
  8
DISTRICTS
 10
637.37313600599975
 20
4683.8568019100003
 30
3.0
  0
VERTEX
  5
11B9
  8
DISTRICTS
 10
637.32679738599995
 20
4683.8297676299999
 30
3.0
  0
VERTEX
  5
11BA
  8
DISTRICTS
 10
637.22657952099985
 20
4683.7873723700013
 30
3.0
  0
VERTEX
  5
11BB
  8
DISTRICTS
 10
637.12636165599997
 20
4683.7596248999998
 30
3.0
  0
VERTEX
  5
11BC
  8
DISTRICTS
 10
637.10803706399975
 20
4683.75656325
 30
3.0
  0
VERTEX
  5
11BD
  8
DISTRICTS
 10
637.02614379099987
 20
4683.7388631699978
 30
3.0
  0
VERTEX
  5
11BE
  8
DISTRICTS
 10
636.92592592599976
 20
4683.7287462599988
 30
3.0
  0
VERTEX
  5
11BF
  8
DISTRICTS
 10
636.825708061
 20
4683.7291342500002
 30
3.0
  0
VERTEX
  5
11C0
  8
DISTRICTS
 10
636.7254901959999
 20
4683.7401147699993
 30
3.0
  0
SEQEND
  5
11C1
  8
DISTRICTS
  0
POLYLINE
  5
3A
  8
DISTRICTS
 66
     1
 10
0.0
 20
0.0
 30
1.0
 70
     1
  0
VERTEX
  5
11C2
  8
DISTRICTS
 10
638.83006535899995
 20
4693.6773261600001
 30
1.0
  0
VERTEX
  5
11C3
  8
DISTRICTS
 10
638.72984749499994
 20
4693.7170164400004
 30
1.0
  0
VERTEX
  5
11C4
  8
DISTRICTS
 10
638.62962962999995
 20
4693.7568967099996
 30
1.0
  0
VERTEX
  5
11C5
  8
DISTRICTS
 10
638.57113058200002
 20
4693.7804295899978
 30
1.0
  0
VERTEX
  5
11C6
  8
DISTRICTS
 10
638.52941176499985
 20
4693.7975164099998
 30
1.0
  0
VERTEX
  5
11C7
  8
DISTRICTS
 10
638.42919389999975
 20
4693.8389785899999
 30
1.0
  0
VERTEX
  5
11C8
  8
DISTRICTS
 10
638.32777642999974
 20
4693.8806682599989
 30
1.0
  0
VERTEX
  5
11C9
  8
DISTRICTS
 10
638.22875816999988
 20
4693.9222362500004
 30
1.0
  0
VERTEX
  5
11CA
  8
DISTRICTS
 10
638.128540305
 20
4693.9633139400003
 30
1.0
  0
VERTEX
  5
11CB
  8
DISTRICTS
 10
638.08495940999978
 20
4693.9809069200001
 30
1.0
  0
VERTEX
  5
11CC
  8
DISTRICTS
 10
638.02832244000001
 20
4694.0038517000003
 30
1.0
  0
VERTEX
  5
11CD
  8
DISTRICTS
 10
637.92810457499979
 20
4694.0432656000003
 30
1.0
  0
VERTEX
  5
11CE
  8
DISTRICTS
 10
637.82581981700002
 20
4694.0811455800003
 30
1.0
  0
VERTEX
  5
11CF
  8
DISTRICTS
 10
637.72766884500004
 20
4694.116746679998
 30
1.0
  0
VERTEX
  5
11D0
  8
DISTRICTS
 10
637.62745098000005
 20
4694.15032367
 30
1.0
  0
VERTEX
  5
11D1
  8
DISTRICTS
 10
637.52545916899999
 20
4694.1813842499996
 30
1.0
  0
VERTEX
  5
11D2
  8
DISTRICTS
 10
637.42701525099994
 20
4694.2101888999996
 30
1.0
  0
VERTEX
  5
11D3
  8
DISTRICTS
 10
637.32679738599995
 20
4694.2364526900001
 30
1.0
  0
VERTEX
  5
11D4
  8
DISTRICTS
 10
637.22657952099985
 20
4694.2596783099989
 30
1.0
  0
VERTEX
  5
11D5
  8
DISTRICTS
 10
637.11689913099997
 20
4694.2816229099999
 30
1.0
  0
VERTEX
  5
11D6
  8
DISTRICTS
 10
637.02614379099987
 20
4694.2987784300003
 30
1.0
  0
VERTEX
  5
11D7
  8
DISTRICTS
 10
636.92592592599976
 20
4694.31487483
 30
1.0
  0
VERTEX
  5
11D8
  8
DISTRICTS
 10
636.825708061
 20
4694.3277718199997
 30
1.0
  0
VERTEX
  5
11D9
  8
DISTRICTS
 10
636.7254901959999
 20
4694.3366786300003
 30
1.0
  0
VERTEX
  5
11DA
  8
DISTRICTS
 10
636.62527233100002
 20
4694.34086665
 30
1.0
  0
VERTEX
  5
11DB
  8
DISTRICTS
 10
636.52505446600003
 20
4694.3405571599988
 30
1.0
  0
VERTEX
  5
11DC
  8
DISTRICTS
 10
636.42483660100004
 20
4694.33681935
 30
1.0
  0
VERTEX
  5
11DD
  8
DISTRICTS
 10
636.32461873599993
 20
4694.33067243
 30
1.0
  0
VERTEX
  5
11DE
  8
DISTRICTS
 10
636.22440087099994
 20
4694.3226921900014
 30
1.0
  0
VERTEX
  5
11DF
  8
DISTRICTS
 10
636.12418300699994
 20
4694.313145199998
 30
1.0
  0
VERTEX
  5
11E0
  8
DISTRICTS
 10
636.02396514199995
 20
4694.3021700299978
 30
1.0
  0
VERTEX
  5
11E1
  8
DISTRICTS
 10
635.92374727699985
 20
4694.2898668400012
 30
1.0
  0
VERTEX
  5
11E2
  8
DISTRICTS
 10
635.86248639300004
 20
4694.2816229099999
 30
1.0
  0
VERTEX
  5
11E3
  8
DISTRICTS
 10
635.82352941199986
 20
4694.2766208000003
 30
1.0
  0
VERTEX
  5
11E4
  8
DISTRICTS
 10
635.72331154699975
 20
4694.262714559999
 30
1.0
  0
VERTEX
  5
11E5
  8
DISTRICTS
 10
635.62309368199999
 20
4694.2477516999979
 30
1.0
  0
VERTEX
  5
11E6
  8
DISTRICTS
 10
635.52287581699989
 20
4694.2317895400001
 30
1.0
  0
VERTEX
  5
11E7
  8
DISTRICTS
 10
635.42265795200001
 20
4694.21485674
 30
1.0
  0
VERTEX
  5
11E8
  8
DISTRICTS
 10
635.32244008700002
 20
4694.1969488499999
 30
1.0
  0
VERTEX
  5
11E9
  8
DISTRICTS
 10
635.23987484600002
 20
4694.1813842499996
 30
1.0
  0
VERTEX
  5
11EA
  8
DISTRICTS
 10
635.22222222199991
 20
4694.1782106600003
 30
1.0
  0
VERTEX
  5
11EB
  8
DISTRICTS
 10
635.12200435699992
 20
4694.1593147599988
 30
1.0
  0
VERTEX
  5
11EC
  8
DISTRICTS
 10
635.02178649199993
 20
4694.1393252300004
 30
1.0
  0
VERTEX
  5
11ED
  8
DISTRICTS
 10
634.92156862699994
 20
4694.1181189199979
 30
1.0
  0
VERTEX
  5
11EE
  8
DISTRICTS
 10
634.82135076300005
 20
4694.0955435200003
 30
1.0
  0
VERTEX
  5
11EF
  8
DISTRICTS
 10
634.76129015200002
 20
4694.0811455800003
 30
1.0
  0
VERTEX
  5
11F0
  8
DISTRICTS
 10
634.72113289800006
 20
4694.0720214200001
 30
1.0
  0
VERTEX
  5
11F1
  8
DISTRICTS
 10
634.62091503299996
 20
4694.0477767299999
 30
1.0
  0
VERTEX
  5
11F2
  8
DISTRICTS
 10
634.52069716799997
 20
4694.0217058300004
 30
1.0
  0
VERTEX
  5
11F3
  8
DISTRICTS
 10
634.42047930299998
 20
4693.9935428899998
 30
1.0
  0
VERTEX
  5
11F4
  8
DISTRICTS
 10
634.37861682400001
 20
4693.9809069200001
 30
1.0
  0
VERTEX
  5
11F5
  8
DISTRICTS
 10
634.32026143799987
 20
4693.9642181099989
 30
1.0
  0
VERTEX
  5
11F6
  8
DISTRICTS
 10
634.22004357299977
 20
4693.93320141
 30
1.0
  0
VERTEX
  5
11F7
  8
DISTRICTS
 10
634.11982570800001
 20
4693.8991837399999
 30
1.0
  0
VERTEX
  5
11F8
  8
DISTRICTS
 10
634.06959296900004
 20
4693.8806682599989
 30
1.0
  0
VERTEX
  5
11F9
  8
DISTRICTS
 10
634.0196078429999
 20
4693.8630721700001
 30
1.0
  0
VERTEX
  5
11FA
  8
DISTRICTS
 10
633.91938997800003
 20
4693.8244339100002
 30
1.0
  0
VERTEX
  5
11FB
  8
DISTRICTS
 10
633.81752450699992
 20
4693.7804295899978
 30
1.0
  0
VERTEX
  5
11FC
  8
DISTRICTS
 10
633.71895424800005
 20
4693.7359479699999
 30
1.0
  0
VERTEX
  5
11FD
  8
DISTRICTS
 10
633.61102461400003
 20
4693.6801909300002
 30
1.0
  0
VERTEX
  5
11FE
  8
DISTRICTS
 10
633.51851851900005
 20
4693.628713619999
 30
1.0
  0
VERTEX
  5
11FF
  8
DISTRICTS
 10
633.44170995299999
 20
4693.5799522699999
 30
1.0
  0
VERTEX
  5
1200
  8
DISTRICTS
 10
633.41830065399995
 20
4693.5644803699997
 30
1.0
  0
VERTEX
  5
1201
  8
DISTRICTS
 10
633.31808278899985
 20
4693.4906504600003
 30
1.0
  0
VERTEX
  5
1202
  8
DISTRICTS
 10
633.30461830900003
 20
4693.4797136000007
 30
1.0
  0
VERTEX
  5
1203
  8
DISTRICTS
 10
633.21786492399985
 20
4693.4047557100002
 30
1.0
  0
VERTEX
  5
1204
  8
DISTRICTS
 10
633.19150993400001
 20
4693.3794749400013
 30
1.0
  0
VERTEX
  5
1205
  8
DISTRICTS
 10
633.11764705899986
 20
4693.3045905899999
 30
1.0
  0
VERTEX
  5
1206
  8
DISTRICTS
 10
633.09437221899975
 20
4693.2792362800001
 30
1.0
  0
VERTEX
  5
1207
  8
DISTRICTS
 10
633.01742919399976
 20
4693.1914295400002
 30
1.0
  0
VERTEX
  5
1208
  8
DISTRICTS
 10
633.00698352699976
 20
4693.1789976099999
 30
1.0
  0
VERTEX
  5
1209
  8
DISTRICTS
 10
632.92520641300007
 20
4693.0787589499996
 30
1.0
  0
VERTEX
  5
120A
  8
DISTRICTS
 10
632.917211329
 20
4693.0686669799989
 30
1.0
  0
VERTEX
  5
120B
  8
DISTRICTS
 10
632.84653234500001
 20
4692.9785202900002
 30
1.0
  0
VERTEX
  5
120C
  8
DISTRICTS
 10
632.81699346399989
 20
4692.9399424499979
 30
1.0
  0
VERTEX
  5
120D
  8
DISTRICTS
 10
632.77023870800008
 20
4692.8782816199991
 30
1.0
  0
VERTEX
  5
120E
  8
DISTRICTS
 10
632.71677559900002
 20
4692.8070769100004
 30
1.0
  0
VERTEX
  5
120F
  8
DISTRICTS
 10
632.69535935299996
 20
4692.7780429599989
 30
1.0
  0
VERTEX
  5
1210
  8
DISTRICTS
 10
632.61655773400003
 20
4692.6720532099989
 30
1.0
  0
VERTEX
  5
1211
  8
DISTRICTS
 10
632.54637111800002
 20
4692.5775656300002
 30
1.0
  0
VERTEX
  5
1212
  8
DISTRICTS
 10
632.51633986900003
 20
4692.5391167300004
 30
1.0
  0
VERTEX
  5
1213
  8
DISTRICTS
 10
632.47214423699995
 20
4692.4773269699981
 30
1.0
  0
VERTEX
  5
1214
  8
DISTRICTS
 10
632.41612200400004
 20
4692.4017890499999
 30
1.0
  0
VERTEX
  5
1215
  8
DISTRICTS
 10
632.40030442
 20
4692.3770883099978
 30
1.0
  0
VERTEX
  5
1216
  8
DISTRICTS
 10
632.33843760900004
 20
4692.2768496400004
 30
1.0
  0
VERTEX
  5
1217
  8
DISTRICTS
 10
632.31590413900005
 20
4692.2263814400003
 30
1.0
  0
VERTEX
  5
1218
  8
DISTRICTS
 10
632.29474963400003
 20
4692.1766109800001
 30
1.0
  0
VERTEX
  5
1219
  8
DISTRICTS
 10
632.27058376299999
 20
4692.076372319998
 30
1.0
  0
VERTEX
  5
121A
  8
DISTRICTS
 10
632.26984828299987
 20
4691.9761336499978
 30
1.0
  0
VERTEX
  5
121B
  8
DISTRICTS
 10
632.28693988599991
 20
4691.8758949900002
 30
1.0
  0
VERTEX
  5
121C
  8
DISTRICTS
 10
632.31590413900005
 20
4691.7707266400002
 30
1.0
  0
VERTEX
  5
121D
  8
DISTRICTS
 10
632.34414292600002
 20
4691.6754176599989
 30
1.0
  0
VERTEX
  5
121E
  8
DISTRICTS
 10
632.37757417599994
 20
4691.5751789999986
 30
1.0
  0
VERTEX
  5
121F
  8
DISTRICTS
 10
632.41612200400004
 20
4691.47225067
 30
1.0
  0
VERTEX
  5
1220
  8
DISTRICTS
 10
632.45402617299999
 20
4691.3747016699999
 30
1.0
  0
VERTEX
  5
1221
  8
DISTRICTS
 10
632.49755848300003
 20
4691.2744630099996
 30
1.0
  0
VERTEX
  5
1222
  8
DISTRICTS
 10
632.51633986900003
 20
4691.2324439699978
 30
1.0
  0
VERTEX
  5
1223
  8
DISTRICTS
 10
632.54314189000002
 20
4691.1742243400004
 30
1.0
  0
VERTEX
  5
1224
  8
DISTRICTS
 10
632.58957541999985
 20
4691.0739856800001
 30
1.0
  0
VERTEX
  5
1225
  8
DISTRICTS
 10
632.61655773400003
 20
4691.01340127
 30
1.0
  0
VERTEX
  5
1226
  8
DISTRICTS
 10
632.63448571799995
 20
4690.9737470199998
 30
1.0
  0
VERTEX
  5
1227
  8
DISTRICTS
 10
632.67440504699994
 20
4690.8735083499996
 30
1.0
  0
VERTEX
  5
1228
  8
DISTRICTS
 10
632.70748823400004
 20
4690.7732696900011
 30
1.0
  0
VERTEX
  5
1229
  8
DISTRICTS
 10
632.71677559900002
 20
4690.7390888600003
 30
1.0
  0
VERTEX
  5
122A
  8
DISTRICTS
 10
632.73153219300002
 20
4690.6730310299999
 30
1.0
  0
VERTEX
  5
122B
  8
DISTRICTS
 10
632.75044358000002
 20
4690.5727923599998
 30
1.0
  0
VERTEX
  5
122C
  8
DISTRICTS
 10
632.77656304799996
 20
4690.4725537000004
 30
1.0
  0
VERTEX
  5
122D
  8
DISTRICTS
 10
632.81699346399989
 20
4690.38646711
 30
1.0
  0
VERTEX
  5
122E
  8
DISTRICTS
 10
632.82249278400002
 20
4690.3723150400001
 30
1.0
  0
VERTEX
  5
122F
  8
DISTRICTS
 10
632.89477860299996
 20
4690.2720763699999
 30
1.0
  0
VERTEX
  5
1230
  8
DISTRICTS
 10
632.917211329
 20
4690.2463897300004
 30
1.0
  0
VERTEX
  5
1231
  8
DISTRICTS
 10
633.01742919399976
 20
4690.1669881999997
 30
1.0
  0
VERTEX
  5
1232
  8
DISTRICTS
 10
633.11764705899986
 20
4690.0938043300002
 30
1.0
  0
VERTEX
  5
1233
  8
DISTRICTS
 10
633.152271294
 20
4690.0715990500003
 30
1.0
  0
VERTEX
  5
1234
  8
DISTRICTS
 10
633.21786492399985
 20
4690.015825399998
 30
1.0
  0
VERTEX
  5
1235
  8
DISTRICTS
 10
633.27151705999995
 20
4689.9713603800001
 30
1.0
  0
VERTEX
  5
1236
  8
DISTRICTS
 10
633.31808278899985
 20
4689.9256353099991
 30
1.0
  0
VERTEX
  5
1237
  8
DISTRICTS
 10
633.37513578999994
 20
4689.871121719998
 30
1.0
  0
VERTEX
  5
1238
  8
DISTRICTS
 10
633.41830065399995
 20
4689.8249180900002
 30
1.0
  0
VERTEX
  5
1239
  8
DISTRICTS
 10
633.47112331199992
 20
4689.7708830499978
 30
1.0
  0
VERTEX
  5
123A
  8
DISTRICTS
 10
633.51851851900005
 20
4689.7178675399991
 30
1.0
  0
VERTEX
  5
123B
  8
DISTRICTS
 10
633.56362380899998
 20
4689.6706443900002
 30
1.0
  0
VERTEX
  5
123C
  8
DISTRICTS
 10
633.61873638300005
 20
4689.6080365600001
 30
1.0
  0
VERTEX
  5
123D
  8
DISTRICTS
 10
633.65495651399999
 20
4689.5704057299999
 30
1.0
  0
VERTEX
  5
123E
  8
DISTRICTS
 10
633.71895424800005
 20
4689.4982578500003
 30
1.0
  0
VERTEX
  5
123F
  8
DISTRICTS
 10
633.74694385400005
 20
4689.4701670599998
 30
1.0
  0
VERTEX
  5
1240
  8
DISTRICTS
 10
633.81917211300004
 20
4689.3913573399986
 30
1.0
  0
VERTEX
  5
1241
  8
DISTRICTS
 10
633.8419664139999
 20
4689.3699283999977
 30
1.0
  0
VERTEX
  5
1242
  8
DISTRICTS
 10
633.91938997800003
 20
4689.29088581
 30
1.0
  0
VERTEX
  5
1243
  8
DISTRICTS
 10
633.94447967300005
 20
4689.2696897400001
 30
1.0
  0
VERTEX
  5
1244
  8
DISTRICTS
 10
634.0196078429999
 20
4689.2013389900003
 30
1.0
  0
VERTEX
  5
1245
  8
DISTRICTS
 10
634.06411687100001
 20
4689.169451069999
 30
1.0
  0
VERTEX
  5
1246
  8
DISTRICTS
 10
634.11982570800001
 20
4689.127212479998
 30
1.0
  0
VERTEX
  5
1247
  8
DISTRICTS
 10
634.22298864000004
 20
4689.0692124099978
 30
1.0
  0
VERTEX
  5
1248
  8
DISTRICTS
 10
634.32026143799987
 20
4689.0216871700004
 30
1.0
  0
VERTEX
  5
1249
  8
DISTRICTS
 10
634.42047930299998
 20
4688.9841470800002
 30
1.0
  0
VERTEX
  5
124A
  8
DISTRICTS
 10
634.46732927599976
 20
4688.9689737500003
 30
1.0
  0
VERTEX
  5
124B
  8
DISTRICTS
 10
634.52069716799997
 20
4688.9512042899978
 30
1.0
  0
VERTEX
  5
124C
  8
DISTRICTS
 10
634.62091503299996
 20
4688.9214570599997
 30
1.0
  0
VERTEX
  5
124D
  8
DISTRICTS
 10
634.72113289800006
 20
4688.89516886
 30
1.0
  0
VERTEX
  5
124E
  8
DISTRICTS
 10
634.82135076300005
 20
4688.8713001200003
 30
1.0
  0
VERTEX
  5
124F
  8
DISTRICTS
 10
634.83258540400004
 20
4688.8687350800001
 30
1.0
  0
VERTEX
  5
1250
  8
DISTRICTS
 10
634.92156862699994
 20
4688.8472822499998
 30
1.0
  0
VERTEX
  5
1251
  8
DISTRICTS
 10
635.02178649199993
 20
4688.824702689998
 30
1.0
  0
VERTEX
  5
1252
  8
DISTRICTS
 10
635.12200435699992
 20
4688.8035060399998
 30
1.0
  0
VERTEX
  5
1253
  8
DISTRICTS
 10
635.22222222199991
 20
4688.78345171
 30
1.0
  0
VERTEX
  5
1254
  8
DISTRICTS
 10
635.30034430399985
 20
4688.768496419998
 30
1.0
  0
VERTEX
  5
1255
  8
DISTRICTS
 10
635.32244008700002
 20
4688.7639495200001
 30
1.0
  0
VERTEX
  5
1256
  8
DISTRICTS
 10
635.42265795200001
 20
4688.7439144299979
 30
1.0
  0
VERTEX
  5
1257
  8
DISTRICTS
 10
635.52287581699989
 20
4688.7245589599988
 30
1.0
  0
VERTEX
  5
1258
  8
DISTRICTS
 10
635.62309368199999
 20
4688.7056763999999
 30
1.0
  0
VERTEX
  5
1259
  8
DISTRICTS
 10
635.72331154699975
 20
4688.6870498300004
 30
1.0
  0
VERTEX
  5
125A
  8
DISTRICTS
 10
635.82455013699985
 20
4688.6682577600004
 30
1.0
  0
VERTEX
  5
125B
  8
DISTRICTS
 10
635.92374727699985
 20
4688.6481243099997
 30
1.0
  0
VERTEX
  5
125C
  8
DISTRICTS
 10
636.02396514199995
 20
4688.6273954799999
 30
1.0
  0
VERTEX
  5
125D
  8
DISTRICTS
 10
636.12418300699994
 20
4688.6060203799989
 30
1.0
  0
VERTEX
  5
125E
  8
DISTRICTS
 10
636.22440087099994
 20
4688.5837402300003
 30
1.0
  0
VERTEX
  5
125F
  8
DISTRICTS
 10
636.29143741500002
 20
4688.5680190900002
 30
1.0
  0
VERTEX
  5
1260
  8
DISTRICTS
 10
636.32461873599993
 20
4688.5597600000001
 30
1.0
  0
VERTEX
  5
1261
  8
DISTRICTS
 10
636.42483660100004
 20
4688.5333179299996
 30
1.0
  0
VERTEX
  5
1262
  8
DISTRICTS
 10
637.00820848416515
 20
4690.3907045999331
 30
1.0
  0
VERTEX
  5
1263
  8
DISTRICTS
 10
637.43088504847492
 20
4691.4083044841464
 30
1.0
  0
VERTEX
  5
1264
  8
DISTRICTS
 10
637.91618044732343
 20
4692.2380397283096
 30
1.0
  0
VERTEX
  5
1265
  8
DISTRICTS
 10
638.57367745154431
 20
4693.2556395093343
 30
1.0
  0
SEQEND
  5
1266
  8
DISTRICTS
  0
POLYLINE
  5
3B
  8
DISTRICTS
 66
     1
 10
0.0
 20
0.0
 30
2.0
 70
     1
  0
VERTEX
  5
1267
  8
DISTRICTS
 10
638.83006535899995
 20
4693.6773261600001
 30
2.0
  0
VERTEX
  5
1268
  8
DISTRICTS
 10
638.57367745154431
 20
4693.2556395093343
 30
2.0
  0
VERTEX
  5
1269
  8
DISTRICTS
 10
637.91618044732343
 20
4692.2380397283096
 30
2.0
  0
VERTEX
  5
126A
  8
DISTRICTS
 10
637.43088504847492
 20
4691.4083044841464
 30
2.0
  0
VERTEX
  5
126B
  8
DISTRICTS
 10
637.00820848416515
 20
4690.3907045999331
 30
2.0
  0
VERTEX
  5
126C
  8
DISTRICTS
 10
636.42483660100004
 20
4688.5333179299996
 30
2.0
  0
VERTEX
  5
126D
  8
DISTRICTS
 10
636.52505446600003
 20
4688.5054069500002
 30
2.0
  0
VERTEX
  5
126E
  8
DISTRICTS
 10
636.62527233100002
 20
4688.4759054599999
 30
2.0
  0
VERTEX
  5
126F
  8
DISTRICTS
 10
636.65094690499996
 20
4688.467780429999
 30
2.0
  0
VERTEX
  5
1270
  8
DISTRICTS
 10
636.7254901959999
 20
4688.4434176100003
 30
2.0
  0
VERTEX
  5
1271
  8
DISTRICTS
 10
636.825708061
 20
4688.40900822
 30
2.0
  0
VERTEX
  5
1272
  8
DISTRICTS
 10
636.92592592599976
 20
4688.3733920300001
 30
2.0
  0
VERTEX
  5
1273
  8
DISTRICTS
 10
636.94140794199996
 20
4688.3675417699988
 30
2.0
  0
VERTEX
  5
1274
  8
DISTRICTS
 10
637.02614379099987
 20
4688.3351972399978
 30
2.0
  0
VERTEX
  5
1275
  8
DISTRICTS
 10
637.12636165599997
 20
4688.2963809499979
 30
2.0
  0
VERTEX
  5
1276
  8
DISTRICTS
 10
637.20088717800002
 20
4688.2673031000004
 30
2.0
  0
VERTEX
  5
1277
  8
DISTRICTS
 10
637.22657952099985
 20
4688.2572317499989
 30
2.0
  0
VERTEX
  5
1278
  8
DISTRICTS
 10
637.32679738599995
 20
4688.2169628600004
 30
2.0
  0
VERTEX
  5
1279
  8
DISTRICTS
 10
637.42701525099994
 20
4688.1776503299998
 30
2.0
  0
VERTEX
  5
127A
  8
DISTRICTS
 10
637.45337909499995
 20
4688.1670644400001
 30
2.0
  0
VERTEX
  5
127B
  8
DISTRICTS
 10
637.52723311499994
 20
4688.1366321699988
 30
2.0
  0
VERTEX
  5
127C
  8
DISTRICTS
 10
637.62745098000005
 20
4688.0925048500003
 30
2.0
  0
VERTEX
  5
127D
  8
DISTRICTS
 10
637.67420832499988
 20
4688.0668257799998
 30
2.0
  0
VERTEX
  5
127E
  8
DISTRICTS
 10
637.72766884500004
 20
4688.034546079999
 30
2.0
  0
VERTEX
  5
127F
  8
DISTRICTS
 10
637.776869175
 20
4687.9665871099996
 30
2.0
  0
VERTEX
  5
1280
  8
DISTRICTS
 10
637.82788671000003
 20
4687.9215396700001
 30
2.0
  0
VERTEX
  5
1281
  8
DISTRICTS
 10
637.87801103000004
 20
4687.8663484500003
 30
2.0
  0
VERTEX
  5
1282
  8
DISTRICTS
 10
637.92810457499979
 20
4687.8387859100003
 30
2.0
  0
VERTEX
  5
1283
  8
DISTRICTS
 10
638.03587323199974
 20
4687.8663484500003
 30
2.0
  0
VERTEX
  5
1284
  8
DISTRICTS
 10
638.128540305
 20
4687.9457515300001
 30
2.0
  0
VERTEX
  5
1285
  8
DISTRICTS
 10
638.16417370399995
 20
4687.9665871099996
 30
2.0
  0
VERTEX
  5
1286
  8
DISTRICTS
 10
638.22875816999988
 20
4688.0103709300001
 30
2.0
  0
VERTEX
  5
1287
  8
DISTRICTS
 10
638.32897603499998
 20
4688.0397657000003
 30
2.0
  0
VERTEX
  5
1288
  8
DISTRICTS
 10
638.42919389999975
 20
4688.0620491
 30
2.0
  0
VERTEX
  5
1289
  8
DISTRICTS
 10
638.45212205999985
 20
4688.0668257799998
 30
2.0
  0
VERTEX
  5
128A
  8
DISTRICTS
 10
638.52941176499985
 20
4688.0815077300003
 30
2.0
  0
VERTEX
  5
128B
  8
DISTRICTS
 10
638.62962962999995
 20
4688.1008957099984
 30
2.0
  0
VERTEX
  5
128C
  8
DISTRICTS
 10
638.72984749499994
 20
4688.1203297800012
 30
2.0
  0
VERTEX
  5
128D
  8
DISTRICTS
 10
638.83006535899995
 20
4688.1379495899992
 30
2.0
  0
VERTEX
  5
128E
  8
DISTRICTS
 10
638.93028322400005
 20
4688.1499789099998
 30
2.0
  0
VERTEX
  5
128F
  8
DISTRICTS
 10
639.03050108900004
 20
4688.1488976299988
 30
2.0
  0
VERTEX
  5
1290
  8
DISTRICTS
 10
639.13071895400003
 20
4688.1151665300004
 30
2.0
  0
VERTEX
  5
1291
  8
DISTRICTS
 10
639.16666341300004
 20
4688.0668257799998
 30
2.0
  0
VERTEX
  5
1292
  8
DISTRICTS
 10
639.23093681900002
 20
4688.0101886999992
 30
2.0
  0
VERTEX
  5
1293
  8
DISTRICTS
 10
639.25503263500002
 20
4687.9665871099996
 30
2.0
  0
VERTEX
  5
1294
  8
DISTRICTS
 10
639.33115468400001
 20
4687.9122883399978
 30
2.0
  0
VERTEX
  5
1295
  8
DISTRICTS
 10
639.43137254899989
 20
4687.8798420000003
 30
2.0
  0
VERTEX
  5
1296
  8
DISTRICTS
 10
639.53159041399999
 20
4687.9033756500003
 30
2.0
  0
VERTEX
  5
1297
  8
DISTRICTS
 10
639.60391291400003
 20
4687.9665871099996
 30
2.0
  0
VERTEX
  5
1298
  8
DISTRICTS
 10
639.63180827899976
 20
4688.0404848799999
 30
2.0
  0
VERTEX
  5
1299
  8
DISTRICTS
 10
639.64643882600001
 20
4688.0668257799998
 30
2.0
  0
VERTEX
  5
129A
  8
DISTRICTS
 10
639.64387628600002
 20
4688.1670644400001
 30
2.0
  0
VERTEX
  5
129B
  8
DISTRICTS
 10
639.63180827899976
 20
4688.2342979900004
 30
2.0
  0
VERTEX
  5
129C
  8
DISTRICTS
 10
639.62372302000006
 20
4688.2673031000004
 30
2.0
  0
VERTEX
  5
129D
  8
DISTRICTS
 10
639.62030839900001
 20
4688.3675417699988
 30
2.0
  0
VERTEX
  5
129E
  8
DISTRICTS
 10
639.63180827899976
 20
4688.3936458699991
 30
2.0
  0
VERTEX
  5
129F
  8
DISTRICTS
 10
639.66933818300004
 20
4688.467780429999
 30
2.0
  0
VERTEX
  5
12A0
  8
DISTRICTS
 10
639.73202614399986
 20
4688.5333522999999
 30
2.0
  0
VERTEX
  5
12A1
  8
DISTRICTS
 10
639.76744312899996
 20
4688.5680190900002
 30
2.0
  0
VERTEX
  5
12A2
  8
DISTRICTS
 10
639.83224400899985
 20
4688.618573929999
 30
2.0
  0
VERTEX
  5
12A3
  8
DISTRICTS
 10
639.89617807399975
 20
4688.6682577600004
 30
2.0
  0
VERTEX
  5
12A4
  8
DISTRICTS
 10
639.93246187399996
 20
4688.6928875100002
 30
2.0
  0
VERTEX
  5
12A5
  8
DISTRICTS
 10
640.03874540899994
 20
4688.768496419998
 30
2.0
  0
VERTEX
  5
12A6
  8
DISTRICTS
 10
640.13289760300006
 20
4688.8332277700001
 30
2.0
  0
VERTEX
  5
12A7
  8
DISTRICTS
 10
640.18019667099986
 20
4688.8687350800001
 30
2.0
  0
VERTEX
  5
12A8
  8
DISTRICTS
 10
640.23311546800005
 20
4688.9063693500002
 30
2.0
  0
VERTEX
  5
12A9
  8
DISTRICTS
 10
640.31213744599995
 20
4688.9689737500003
 30
2.0
  0
VERTEX
  5
12AA
  8
DISTRICTS
 10
640.33333333300004
 20
4688.9853070700001
 30
2.0
  0
VERTEX
  5
12AB
  8
DISTRICTS
 10
640.43355119800003
 20
4689.0717221900004
 30
2.0
  0
VERTEX
  5
12AC
  8
DISTRICTS
 10
640.53571757099985
 20
4689.169451069999
 30
2.0
  0
VERTEX
  5
12AD
  8
DISTRICTS
 10
640.6339869279999
 20
4689.2756073799992
 30
2.0
  0
VERTEX
  5
12AE
  8
DISTRICTS
 10
640.71212166199984
 20
4689.3699283999977
 30
2.0
  0
VERTEX
  5
12AF
  8
DISTRICTS
 10
640.734204793
 20
4689.3991874699996
 30
2.0
  0
VERTEX
  5
12B0
  8
DISTRICTS
 10
640.78677557699984
 20
4689.4701670599998
 30
2.0
  0
VERTEX
  5
12B1
  8
DISTRICTS
 10
640.83442265799977
 20
4689.5415706800004
 30
2.0
  0
VERTEX
  5
12B2
  8
DISTRICTS
 10
640.85371014400005
 20
4689.5704057299999
 30
2.0
  0
VERTEX
  5
12B3
  8
DISTRICTS
 10
640.91542154800004
 20
4689.6706443900002
 30
2.0
  0
VERTEX
  5
12B4
  8
DISTRICTS
 10
640.93464052299987
 20
4689.7047881799999
 30
2.0
  0
VERTEX
  5
12B5
  8
DISTRICTS
 10
640.97283652699991
 20
4689.7708830499978
 30
2.0
  0
VERTEX
  5
12B6
  8
DISTRICTS
 10
641.02569606999987
 20
4689.871121719998
 30
2.0
  0
VERTEX
  5
12B7
  8
DISTRICTS
 10
641.03485838799998
 20
4689.8895821699998
 30
2.0
  0
VERTEX
  5
12B8
  8
DISTRICTS
 10
641.07679788099995
 20
4689.9713603800001
 30
2.0
  0
VERTEX
  5
12B9
  8
DISTRICTS
 10
641.12422653600004
 20
4690.0715990500003
 30
2.0
  0
VERTEX
  5
12BA
  8
DISTRICTS
 10
641.13507625299997
 20
4690.0956640300001
 30
2.0
  0
VERTEX
  5
12BB
  8
DISTRICTS
 10
641.17040037100003
 20
4690.1718377099987
 30
2.0
  0
VERTEX
  5
12BC
  8
DISTRICTS
 10
641.21369684399986
 20
4690.2720763699999
 30
2.0
  0
VERTEX
  5
12BD
  8
DISTRICTS
 10
641.23529411799996
 20
4690.3252627800002
 30
2.0
  0
VERTEX
  5
12BE
  8
DISTRICTS
 10
641.25483480699995
 20
4690.3723150400001
 30
2.0
  0
VERTEX
  5
12BF
  8
DISTRICTS
 10
641.29382090399997
 20
4690.4725537000004
 30
2.0
  0
VERTEX
  5
12C0
  8
DISTRICTS
 10
641.32892132500001
 20
4690.5727923599998
 30
2.0
  0
VERTEX
  5
12C1
  8
DISTRICTS
 10
641.33551198300006
 20
4690.5931354100003
 30
2.0
  0
VERTEX
  5
12C2
  8
DISTRICTS
 10
641.36202380400005
 20
4690.6730310299999
 30
2.0
  0
VERTEX
  5
12C3
  8
DISTRICTS
 10
641.39122258299994
 20
4690.7732696900011
 30
2.0
  0
VERTEX
  5
12C4
  8
DISTRICTS
 10
641.41572412899995
 20
4690.8735083499996
 30
2.0
  0
VERTEX
  5
12C5
  8
DISTRICTS
 10
641.43572984699995
 20
4690.9764702199991
 30
2.0
  0
VERTEX
  5
12C6
  8
DISTRICTS
 10
641.45162392899999
 20
4691.0739856800001
 30
2.0
  0
VERTEX
  5
12C7
  8
DISTRICTS
 10
641.46248457199977
 20
4691.1742243400004
 30
2.0
  0
VERTEX
  5
12C8
  8
DISTRICTS
 10
641.46764416600001
 20
4691.2744630099996
 30
2.0
  0
VERTEX
  5
12C9
  8
DISTRICTS
 10
641.46685474900005
 20
4691.3747016699999
 30
2.0
  0
VERTEX
  5
12CA
  8
DISTRICTS
 10
641.45976753299999
 20
4691.4749403300002
 30
2.0
  0
VERTEX
  5
12CB
  8
DISTRICTS
 10
641.445886374
 20
4691.5751789999986
 30
2.0
  0
VERTEX
  5
12CC
  8
DISTRICTS
 10
641.43572984699995
 20
4691.62342489
 30
2.0
  0
VERTEX
  5
12CD
  8
DISTRICTS
 10
641.42602493899994
 20
4691.6754176599989
 30
2.0
  0
VERTEX
  5
12CE
  8
DISTRICTS
 10
641.40008345299998
 20
4691.7756563199991
 30
2.0
  0
VERTEX
  5
12CF
  8
DISTRICTS
 10
641.36558176800008
 20
4691.8758949900002
 30
2.0
  0
VERTEX
  5
12D0
  8
DISTRICTS
 10
641.33551198300006
 20
4691.9455080499984
 30
2.0
  0
VERTEX
  5
12D1
  8
DISTRICTS
 10
641.32296844699999
 20
4691.9761336499978
 30
2.0
  0
VERTEX
  5
12D2
  8
DISTRICTS
 10
641.27339332199995
 20
4692.076372319998
 30
2.0
  0
VERTEX
  5
12D3
  8
DISTRICTS
 10
641.23529411799996
 20
4692.1407339799989
 30
2.0
  0
VERTEX
  5
12D4
  8
DISTRICTS
 10
641.214126276
 20
4692.1766109800001
 30
2.0
  0
VERTEX
  5
12D5
  8
DISTRICTS
 10
641.14575119899996
 20
4692.2768496400004
 30
2.0
  0
VERTEX
  5
12D6
  8
DISTRICTS
 10
641.13507625299997
 20
4692.2910734899979
 30
2.0
  0
VERTEX
  5
12D7
  8
DISTRICTS
 10
641.06836996599975
 20
4692.3770883099978
 30
2.0
  0
VERTEX
  5
12D8
  8
DISTRICTS
 10
641.03485838799998
 20
4692.4164714699991
 30
2.0
  0
VERTEX
  5
12D9
  8
DISTRICTS
 10
640.98033953799995
 20
4692.4773269699981
 30
2.0
  0
VERTEX
  5
12DA
  8
DISTRICTS
 10
640.93464052299987
 20
4692.5252801899987
 30
2.0
  0
VERTEX
  5
12DB
  8
DISTRICTS
 10
640.88153712099995
 20
4692.5775656300002
 30
2.0
  0
VERTEX
  5
12DC
  8
DISTRICTS
 10
640.83442265799977
 20
4692.6222378999992
 30
2.0
  0
VERTEX
  5
12DD
  8
DISTRICTS
 10
640.77155245699998
 20
4692.6778043000004
 30
2.0
  0
VERTEX
  5
12DE
  8
DISTRICTS
 10
640.734204793
 20
4692.7101433999997
 30
2.0
  0
VERTEX
  5
12DF
  8
DISTRICTS
 10
640.64981686199985
 20
4692.7780429599989
 30
2.0
  0
VERTEX
  5
12E0
  8
DISTRICTS
 10
640.6339869279999
 20
4692.7906688200001
 30
2.0
  0
VERTEX
  5
12E1
  8
DISTRICTS
 10
640.53376906300002
 20
4692.8656784200002
 30
2.0
  0
VERTEX
  5
12E2
  8
DISTRICTS
 10
640.51572225199993
 20
4692.8782816199991
 30
2.0
  0
VERTEX
  5
12E3
  8
DISTRICTS
 10
640.43355119800003
 20
4692.9360430699999
 30
2.0
  0
VERTEX
  5
12E4
  8
DISTRICTS
 10
640.36800527599985
 20
4692.9785202900002
 30
2.0
  0
VERTEX
  5
12E5
  8
DISTRICTS
 10
640.33333333300004
 20
4693.0012529899996
 30
2.0
  0
VERTEX
  5
12E6
  8
DISTRICTS
 10
640.23311546800005
 20
4693.0625731700002
 30
2.0
  0
VERTEX
  5
12E7
  8
DISTRICTS
 10
640.20475625099994
 20
4693.0787589499996
 30
2.0
  0
VERTEX
  5
12E8
  8
DISTRICTS
 10
640.13289760300006
 20
4693.1206733299987
 30
2.0
  0
VERTEX
  5
12E9
  8
DISTRICTS
 10
640.03267973899995
 20
4693.1743893999992
 30
2.0
  0
VERTEX
  5
12EA
  8
DISTRICTS
 10
640.02354299800004
 20
4693.1789976099999
 30
2.0
  0
VERTEX
  5
12EB
  8
DISTRICTS
 10
639.93246187399996
 20
4693.2263944200004
 30
2.0
  0
VERTEX
  5
12EC
  8
DISTRICTS
 10
639.83224400899985
 20
4693.2742320099997
 30
2.0
  0
VERTEX
  5
12ED
  8
DISTRICTS
 10
639.82111694699995
 20
4693.2792362800001
 30
2.0
  0
VERTEX
  5
12EE
  8
DISTRICTS
 10
639.73202614399986
 20
4693.3209163499987
 30
2.0
  0
VERTEX
  5
12EF
  8
DISTRICTS
 10
639.63180827899976
 20
4693.3643977600004
 30
2.0
  0
VERTEX
  5
12F0
  8
DISTRICTS
 10
639.59496637400002
 20
4693.3794749400013
 30
2.0
  0
VERTEX
  5
12F1
  8
DISTRICTS
 10
639.53159041399999
 20
4693.4065947600002
 30
2.0
  0
VERTEX
  5
12F2
  8
DISTRICTS
 10
639.43137254899989
 20
4693.4471658299999
 30
2.0
  0
VERTEX
  5
12F3
  8
DISTRICTS
 10
639.34671538299995
 20
4693.4797136000007
 30
2.0
  0
VERTEX
  5
12F4
  8
DISTRICTS
 10
639.33115468400001
 20
4693.4859751200001
 30
2.0
  0
VERTEX
  5
12F5
  8
DISTRICTS
 10
639.23093681900002
 20
4693.5250537499996
 30
2.0
  0
VERTEX
  5
12F6
  8
DISTRICTS
 10
639.13071895400003
 20
4693.5628351100004
 30
2.0
  0
VERTEX
  5
12F7
  8
DISTRICTS
 10
639.08454938900002
 20
4693.5799522699999
 30
2.0
  0
VERTEX
  5
12F8
  8
DISTRICTS
 10
639.03050108900004
 20
4693.6008398100003
 30
2.0
  0
VERTEX
  5
12F9
  8
DISTRICTS
 10
638.93028322400005
 20
4693.6391937199996
 30
2.0
  0
SEQEND
  5
12FA
  8
DISTRICTS
  0
ENDSEC
  0
EOF
