  0
SECTION
  2
HEADER
  9
$ACADVER
  1
AC1009
  9
$INSBASE
 10
0.0
 20
0.0
 30
0.0
  9
$EXTMIN
 10
542324.6511083926307037
 20
818795.5032096062786877
 30
1.0
  9
$EXTMAX
 10
554991.3297215177444741
 20
827318.9987608947558329
 30
4.0
  9
$LIMMIN
 10
0.0
 20
0.0
  9
$LIMMAX
 10
12.0
 20
9.0
  9
$ORTHOMODE
 70
     0
  9
$REGENMODE
 70
     1
  9
$FILLMODE
 70
     1
  9
$QTEXTMODE
 70
     0
  9
$MIRRTEXT
 70
     1
  9
$DRAGMODE
 70
     2
  9
$LTSCALE
 40
1.0
  9
$OSMODE
 70
    37
  9
$ATTMODE
 70
     1
  9
$TEXTSIZE
 40
0.03
  9
$TRACEWID
 40
0.05
  9
$TEXTSTYLE
  7
STANDARD
  9
$CLAYER
  8
SOILS
  9
$CELTYPE
  6
BYLAYER
  9
$CECOLOR
 62
   256
  9
$DIMSCALE
 40
1.0
  9
$DIMASZ
 40
0.18
  9
$DIMEXO
 40
0.0625
  9
$DIMDLI
 40
0.38
  9
$DIMRND
 40
0.0
  9
$DIMDLE
 40
0.0
  9
$DIMEXE
 40
0.18
  9
$DIMTP
 40
0.0
  9
$DIMTM
 40
0.0
  9
$DIMTXT
 40
0.18
  9
$DIMCEN
 40
0.09
  9
$DIMTSZ
 40
0.0
  9
$DIMTOL
 70
     0
  9
$DIMLIM
 70
     0
  9
$DIMTIH
 70
     1
  9
$DIMTOH
 70
     1
  9
$DIMSE1
 70
     0
  9
$DIMSE2
 70
     0
  9
$DIMTAD
 70
     0
  9
$DIMZIN
 70
     0
  9
$DIMBLK
  1

  9
$DIMASO
 70
     1
  9
$DIMSHO
 70
     1
  9
$DIMPOST
  1

  9
$DIMAPOST
  1

  9
$DIMALT
 70
     0
  9
$DIMALTD
 70
     2
  9
$DIMALTF
 40
25.3999999999999986
  9
$DIMLFAC
 40
1.0
  9
$DIMTOFL
 70
     0
  9
$DIMTVP
 40
0.0
  9
$DIMTIX
 70
     0
  9
$DIMSOXD
 70
     0
  9
$DIMSAH
 70
     0
  9
$DIMBLK1
  1

  9
$DIMBLK2
  1

  9
$DIMSTYLE
  2
STANDARD
  9
$DIMCLRD
 70
     0
  9
$DIMCLRE
 70
     0
  9
$DIMCLRT
 70
     0
  9
$DIMTFAC
 40
1.0
  9
$DIMGAP
 40
0.09
  9
$LUNITS
 70
     2
  9
$LUPREC
 70
     4
  9
$SKETCHINC
 40
0.1
  9
$FILLETRAD
 40
0.5
  9
$AUNITS
 70
     0
  9
$AUPREC
 70
     0
  9
$MENU
  1
.
  9
$ELEVATION
 40
0.0
  9
$PELEVATION
 40
0.0
  9
$THICKNESS
 40
0.0
  9
$LIMCHECK
 70
     0
  9
$BLIPMODE
 70
     0
  9
$CHAMFERA
 40
0.5
  9
$CHAMFERB
 40
0.5
  9
$SKPOLY
 70
     0
  9
$TDCREATE
 40
2455441.5028656600043178
  9
$TDUPDATE
 40
2456945.483019283041358
  9
$TDINDWG
 40
9.7266378241000009
  9
$TDUSRTIMER
 40
9.7266375115999999
  9
$USRTIMER
 70
     1
  9
$ANGBASE
 50
0.0
  9
$ANGDIR
 70
     0
  9
$PDMODE
 70
    34
  9
$PDSIZE
 40
0.01
  9
$PLINEWID
 40
0.0
  9
$COORDS
 70
     1
  9
$SPLFRAME
 70
     0
  9
$SPLINETYPE
 70
     6
  9
$SPLINESEGS
 70
     8
  9
$ATTDIA
 70
     1
  9
$ATTREQ
 70
     1
  9
$HANDLING
 70
     1
  9
$HANDSEED
  5
EF6
  9
$SURFTAB1
 70
     6
  9
$SURFTAB2
 70
     6
  9
$SURFTYPE
 70
     6
  9
$SURFU
 70
     6
  9
$SURFV
 70
     6
  9
$UCSNAME
  2

  9
$UCSORG
 10
0.0
 20
0.0
 30
0.0
  9
$UCSXDIR
 10
1.0
 20
0.0
 30
0.0
  9
$UCSYDIR
 10
0.0
 20
1.0
 30
0.0
  9
$PUCSNAME
  2

  9
$PUCSORG
 10
0.0
 20
0.0
 30
0.0
  9
$PUCSXDIR
 10
1.0
 20
0.0
 30
0.0
  9
$PUCSYDIR
 10
0.0
 20
1.0
 30
0.0
  9
$USERI1
 70
     0
  9
$USERI2
 70
     0
  9
$USERI3
 70
     0
  9
$USERI4
 70
     0
  9
$USERI5
 70
     0
  9
$USERR1
 40
0.0
  9
$USERR2
 40
0.0
  9
$USERR3
 40
0.0
  9
$USERR4
 40
0.0
  9
$USERR5
 40
0.0
  9
$WORLDVIEW
 70
     1
  9
$SHADEDGE
 70
     3
  9
$SHADEDIF
 70
    70
  9
$TILEMODE
 70
     1
  9
$MAXACTVP
 70
    64
  9
$PLIMCHECK
 70
     0
  9
$PEXTMIN
 10
0.0
 20
0.0
 30
0.0
  9
$PEXTMAX
 10
0.0
 20
0.0
 30
0.0
  9
$PLIMMIN
 10
0.0
 20
0.0
  9
$PLIMMAX
 10
12.0
 20
9.0
  9
$UNITMODE
 70
     0
  9
$VISRETAIN
 70
     1
  9
$PLINEGEN
 70
     0
  9
$PSLTSCALE
 70
     1
  0
ENDSEC
  0
SECTION
  2
TABLES
  0
TABLE
  2
VPORT
 70
     1
  0
VPORT
  2
*ACTIVE
 70
     0
 10
0.0
 20
0.0
 11
1.0
 21
1.0
 12
548416.4953672216506675
 22
824629.4906971589662135
 13
0.0
 23
0.0
 14
0.05
 24
0.05
 15
0.5
 25
0.5
 16
0.0
 26
0.0
 36
1.0
 17
0.0
 27
0.0
 37
0.0
 40
10627.8270313995108154
 41
1.563269876819708
 42
50.0
 43
0.0
 44
0.0
 50
0.0
 51
0.0
 71
     0
 72
   100
 73
     1
 74
     2
 75
     0
 76
     0
 77
     0
 78
     0
  0
ENDTAB
  0
TABLE
  2
LTYPE
 70
     1
  0
LTYPE
  2
CONTINUOUS
 70
     0
  3
Solid line
 72
    65
 73
     0
 40
0.0
  0
ENDTAB
  0
TABLE
  2
LAYER
 70
     2
  0
LAYER
  2
0
 70
     0
 62
    -7
  6
CONTINUOUS
  0
LAYER
  2
SOILS
 70
     0
 62
     3
  6
CONTINUOUS
  0
ENDTAB
  0
TABLE
  2
STYLE
 70
     3
  0
STYLE
  2
STANDARD
 70
     0
 40
0.0
 41
1.0
 50
0.0
 71
     0
 42
0.03
  3
txt
  4

  0
STYLE
  2
ANNOTATIVE
 70
     0
 40
0.0
 41
1.0
 50
0.0
 71
     0
 42
0.2
  3
txt
  4

  0
STYLE
  2
LEGEND
 70
     0
 40
0.0
 41
1.0
 50
0.0
 71
     0
 42
0.03
  3
txt
  4

  0
ENDTAB
  0
TABLE
  2
VIEW
 70
     0
  0
ENDTAB
  0
TABLE
  2
UCS
 70
     0
  0
ENDTAB
  0
TABLE
  2
APPID
 70
    10
  0
APPID
  2
ACAD
 70
     0
  0
APPID
  2
ACADANNOTATIVE
 70
     0
  0
APPID
  2
ACAD_NAV_VCDISPLAY
 70
     0
  0
APPID
  2
ADE_PROJECTION
 70
     0
  0
APPID
  2
ACMAPDMDISPLAYSTYLEREGAPP
 70
     0
  0
APPID
  2
ADE
 70
     0
  0
APPID
  2
DCO15
 70
     0
  0
APPID
  2
MAPGWS
 70
     0
  0
APPID
  2
ACAD_MLEADERVER
 70
     0
  0
APPID
  2
MAPMANAGEMENTAPPNAME
 70
     0
  0
ENDTAB
  0
TABLE
  2
DIMSTYLE
 70
     2
  0
DIMSTYLE
  2
STANDARD
 70
     0
  3

  4

  5

  6

  7

 40
1.0
 41
0.18
 42
0.0625
 43
0.38
 44
0.18
 45
0.0
 46
0.0
 47
0.0
 48
0.0
140
0.18
141
0.09
142
0.0
143
25.3999999999999986
144
1.0
145
0.0
146
1.0
147
0.09
 71
     0
 72
     0
 73
     1
 74
     1
 75
     0
 76
     0
 77
     0
 78
     0
170
     0
171
     2
172
     0
173
     0
174
     0
175
     0
176
     0
177
     0
178
     0
  0
DIMSTYLE
  2
ANNOTATIVE
 70
     0
  3

  4

  5

  6

  7

 40
1.0
 41
0.18
 42
0.0625
 43
0.38
 44
0.18
 45
0.0
 46
0.0
 47
0.0
 48
0.0
140
0.18
141
0.09
142
0.0
143
25.3999999999999986
144
1.0
145
0.0
146
1.0
147
0.09
 71
     0
 72
     0
 73
     1
 74
     1
 75
     0
 76
     0
 77
     0
 78
     0
170
     0
171
     2
172
     0
173
     0
174
     0
175
     0
176
     0
177
     0
178
     0
  0
ENDTAB
  0
ENDSEC
  0
SECTION
  2
BLOCKS
  0
BLOCK
  8
0
  2
$MODEL_SPACE
 70
     0
 10
0.0
 20
0.0
 30
0.0
  3
$MODEL_SPACE
  1

  0
ENDBLK
  5
A35
  8
0
  0
BLOCK
 67
     1
  8
0
  2
$PAPER_SPACE
 70
     0
 10
0.0
 20
0.0
 30
0.0
  3
$PAPER_SPACE
  1

  0
ENDBLK
  5
A31
 67
     1
  8
0
  0
ENDSEC
  0
SECTION
  2
ENTITIES
  0
POLYLINE
  5
5B
  8
SOILS
 66
     1
 10
0.0
 20
0.0
 30
1.0
 70
     1
  0
VERTEX
  5
A93
  8
SOILS
 10
554169.6534676600713283
 20
822413.6741863054921851
 30
1.0
  0
VERTEX
  5
A94
  8
SOILS
 10
554171.3522223535692319
 20
822407.8859022588003427
 30
1.0
  0
VERTEX
  5
A95
  8
SOILS
 10
554174.9748263177461922
 20
822368.0712326220236719
 30
1.0
  0
VERTEX
  5
A96
  8
SOILS
 10
554161.6951803062111139
 20
822317.3980167205445468
 30
1.0
  0
VERTEX
  5
A97
  8
SOILS
 10
554167.7320447822567075
 20
822282.4102425581077114
 30
1.0
  0
VERTEX
  5
A98
  8
SOILS
 10
554181.0092644013930112
 20
822197.955320178414695
 30
1.0
  0
VERTEX
  5
A99
  8
SOILS
 10
554189.6957494595553726
 20
822055.7941930847009644
 30
1.0
  0
VERTEX
  5
A9A
  8
SOILS
 10
554220.5715936952037737
 20
821950.4332226030528545
 30
1.0
  0
VERTEX
  5
A9B
  8
SOILS
 10
554255.5310564653482288
 20
821932.4327608465682715
 30
1.0
  0
VERTEX
  5
A9C
  8
SOILS
 10
554384.7801307871704921
 20
821919.7250857829349115
 30
1.0
  0
VERTEX
  5
A9D
  8
SOILS
 10
554454.8883149403845891
 20
821938.3974807856138796
 30
1.0
  0
VERTEX
  5
A9E
  8
SOILS
 10
554505.6435927182901651
 20
821942.0222456861520186
 30
1.0
  0
VERTEX
  5
A9F
  8
SOILS
 10
554602.4954747231677175
 20
821924.4207442958140746
 30
1.0
  0
VERTEX
  5
AA0
  8
SOILS
 10
554688.4698392654536292
 20
821888.7032926233951002
 30
1.0
  0
VERTEX
  5
AA1
  8
SOILS
 10
554767.7109646920580417
 20
821834.8659535594051704
 30
1.0
  0
VERTEX
  5
AA2
  8
SOILS
 10
554790.4680997085524723
 20
821804.5134689074475318
 30
1.0
  0
VERTEX
  5
AA3
  8
SOILS
 10
554903.99415079690516
 20
821597.3086785345803946
 30
1.0
  0
VERTEX
  5
AA4
  8
SOILS
 10
554991.3297215177444741
 20
821417.7292687360895798
 30
1.0
  0
VERTEX
  5
AA5
  8
SOILS
 10
554979.7024487806484103
 20
821067.0234218842815608
 30
1.0
  0
VERTEX
  5
AA6
  8
SOILS
 10
554905.9837926260661334
 20
820927.8439985750010237
 30
1.0
  0
VERTEX
  5
AA7
  8
SOILS
 10
554934.1250925430795178
 20
820576.3743526021717116
 30
1.0
  0
VERTEX
  5
AA8
  8
SOILS
 10
554900.0876589134568349
 20
820490.3222763906233013
 30
1.0
  0
VERTEX
  5
AA9
  8
SOILS
 10
554797.9753580243559554
 20
820374.2523697812575847
 30
1.0
  0
VERTEX
  5
AAA
  8
SOILS
 10
554625.7864160836907104
 20
820258.1824631718918681
 30
1.0
  0
VERTEX
  5
AAB
  8
SOILS
 10
554471.6158646584954113
 20
820144.1139202383346856
 30
1.0
  0
VERTEX
  5
AAC
  8
SOILS
 10
554375.5113115353742614
 20
820122.100232174154371
 30
1.0
  0
VERTEX
  5
AAD
  8
SOILS
 10
554225.3443076924886554
 20
820076.0728047393495217
 30
1.0
  0
VERTEX
  5
AAE
  8
SOILS
 10
554115.6010527624748647
 20
820032.4909044292289764
 30
1.0
  0
VERTEX
  5
AAF
  8
SOILS
 10
554014.4341369153698906
 20
820123.4768370558740571
 30
1.0
  0
VERTEX
  5
AB0
  8
SOILS
 10
553785.6255315634189174
 20
820237.8005239927442744
 30
1.0
  0
VERTEX
  5
AB1
  8
SOILS
 10
553490.0812309697503224
 20
820256.8544428690802306
 30
1.0
  0
VERTEX
  5
AB2
  8
SOILS
 10
553289.8736378649482504
 20
820304.4892400611424819
 30
1.0
  0
VERTEX
  5
AB3
  8
SOILS
 10
553251.208687161677517
 20
820479.0864364429144189
 30
1.0
  0
VERTEX
  5
AB4
  8
SOILS
 10
553085.0241698670433834
 20
820811.221326302154921
 30
1.0
  0
VERTEX
  5
AB5
  8
SOILS
 10
552858.4088601410621777
 20
821134.2979090643348172
 30
1.0
  0
VERTEX
  5
AB6
  8
SOILS
 10
552610.6427083059679717
 20
821351.6952653611078858
 30
1.0
  0
VERTEX
  5
AB7
  8
SOILS
 10
552183.1972898639505729
 20
821695.5204053041525185
 30
1.0
  0
VERTEX
  5
AB8
  8
SOILS
 10
552018.4330669525079429
 20
821782.3832460354315117
 30
1.0
  0
VERTEX
  5
AB9
  8
SOILS
 10
551817.8917522940319031
 20
821878.7487158515723422
 30
1.0
  0
VERTEX
  5
ABA
  8
SOILS
 10
551505.1501461549196392
 20
821964.6061221932759508
 30
1.0
  0
VERTEX
  5
ABB
  8
SOILS
 10
551195.8453677046345547
 20
822002.3833387843333185
 30
1.0
  0
VERTEX
  5
ABC
  8
SOILS
 10
551017.1359941200353205
 20
822050.4635285341646522
 30
1.0
  0
VERTEX
  5
ABD
  8
SOILS
 10
550831.5531270503997803
 20
822201.5725867113796994
 30
1.0
  0
VERTEX
  5
ABE
  8
SOILS
 10
550776.5655029530171305
 20
822132.8866424568695948
 30
1.0
  0
VERTEX
  5
ABF
  8
SOILS
 10
550625.3497795237926766
 20
822053.8978209514170885
 30
1.0
  0
VERTEX
  5
AC0
  8
SOILS
 10
550453.5138994248118252
 20
822071.0692830381449312
 30
1.0
  0
VERTEX
  5
AC1
  8
SOILS
 10
550347.5514944129390642
 20
822161.3912023880984634
 30
1.0
  0
VERTEX
  5
AC2
  8
SOILS
 10
550322.1482073977822438
 20
822409.6565263629890978
 30
1.0
  0
VERTEX
  5
AC3
  8
SOILS
 10
549882.130651617073454
 20
822748.1166944423457608
 30
1.0
  0
VERTEX
  5
AC4
  8
SOILS
 10
549637.1365945829311386
 20
822876.8048840856645256
 30
1.0
  0
VERTEX
  5
AC5
  8
SOILS
 10
549294.7729302784428
 20
823021.1867226444883272
 30
1.0
  0
VERTEX
  5
AC6
  8
SOILS
 10
549106.3977317756507546
 20
823238.6520761857973412
 30
1.0
  0
VERTEX
  5
AC7
  8
SOILS
 10
548950.3614807066041976
 20
823322.8523254242027178
 30
1.0
  0
VERTEX
  5
AC8
  8
SOILS
 10
548753.7556392286205664
 20
823335.3264151102630422
 30
1.0
  0
VERTEX
  5
AC9
  8
SOILS
 10
548563.3914226378547028
 20
823350.9189792646793649
 30
1.0
  0
VERTEX
  5
ACA
  8
SOILS
 10
548388.6307825862895697
 20
823425.7636132857296616
 30
1.0
  0
VERTEX
  5
ACB
  8
SOILS
 10
547963.502045501023531
 20
823710.4756520594237372
 30
1.0
  0
VERTEX
  5
ACC
  8
SOILS
 10
547749.5232982735615224
 20
823848.8347953397314996
 30
1.0
  0
VERTEX
  5
ACD
  8
SOILS
 10
547516.6642590501578525
 20
823911.7253411690471694
 30
1.0
  0
VERTEX
  5
ACE
  8
SOILS
 10
547277.5114653753116727
 20
823899.1472895466722548
 30
1.0
  0
VERTEX
  5
ACF
  8
SOILS
 10
547069.8263107057427987
 20
823798.522397038876079
 30
1.0
  0
VERTEX
  5
AD0
  8
SOILS
 10
546969.1304487036541104
 20
823679.0304270980414003
 30
1.0
  0
VERTEX
  5
AD1
  8
SOILS
 10
546932.0553118585376069
 20
823514.955933490768075
 30
1.0
  0
VERTEX
  5
AD2
  8
SOILS
 10
546891.16299373365473
 20
823506.8825981358531862
 30
1.0
  0
VERTEX
  5
AD3
  8
SOILS
 10
546851.2970290227094665
 20
823424.3435016713337973
 30
1.0
  0
VERTEX
  5
AD4
  8
SOILS
 10
546596.8023224205244333
 20
823437.3852918179472908
 30
1.0
  0
VERTEX
  5
AD5
  8
SOILS
 10
546320.0445239811670035
 20
823404.4007780380779877
 30
1.0
  0
VERTEX
  5
AD6
  8
SOILS
 10
546169.6434464108897373
 20
823362.1647068829042837
 30
1.0
  0
VERTEX
  5
AD7
  8
SOILS
 10
545991.7435381072573364
 20
823241.7368877028347924
 30
1.0
  0
VERTEX
  5
AD8
  8
SOILS
 10
545819.5822529653087258
 20
823058.227765966556035
 30
1.0
  0
VERTEX
  5
AD9
  8
SOILS
 10
545713.4161864884663373
 20
822911.993889627745375
 30
1.0
  0
VERTEX
  5
ADA
  8
SOILS
 10
545635.9437214997597039
 20
822719.8828767136437818
 30
1.0
  0
VERTEX
  5
ADB
  8
SOILS
 10
545460.4040520614944398
 20
822630.795169688644819
 30
1.0
  0
VERTEX
  5
ADC
  8
SOILS
 10
545302.3249702566536143
 20
822572.3409904189174995
 30
1.0
  0
VERTEX
  5
ADD
  8
SOILS
 10
545352.2511651311069727
 20
822653.4137566400459036
 30
1.0
  0
VERTEX
  5
ADE
  8
SOILS
 10
545364.7327138491673395
 20
822746.9592761663952842
 30
1.0
  0
VERTEX
  5
ADF
  8
SOILS
 10
545328.5653123538941145
 20
822836.4933300899574533
 30
1.0
  0
VERTEX
  5
AE0
  8
SOILS
 10
545318.6648058439604938
 20
822920.5883941537467763
 30
1.0
  0
VERTEX
  5
AE1
  8
SOILS
 10
545343.416156682302244
 20
823002.2099743726430461
 30
1.0
  0
VERTEX
  5
AE2
  8
SOILS
 10
545378.0680140303447843
 20
823073.9381402370054275
 30
1.0
  0
VERTEX
  5
AE3
  8
SOILS
 10
545435.1648417304968461
 20
823121.5826632468961179
 30
1.0
  0
VERTEX
  5
AE4
  8
SOILS
 10
545537.256637800950557
 20
823147.0876648848643526
 30
1.0
  0
VERTEX
  5
AE5
  8
SOILS
 10
545598.1190709511283785
 20
823176.5164260903839022
 30
1.0
  0
VERTEX
  5
AE6
  8
SOILS
 10
545645.2384395038243383
 20
823280.4981821698602289
 30
1.0
  0
VERTEX
  5
AE7
  8
SOILS
 10
545667.5575796086341143
 20
823352.4051467722747475
 30
1.0
  0
VERTEX
  5
AE8
  8
SOILS
 10
545673.2245071545476094
 20
823482.6530365600483492
 30
1.0
  0
VERTEX
  5
AE9
  8
SOILS
 10
545690.225289793452248
 20
823525.1252481577685103
 30
1.0
  0
VERTEX
  5
AEA
  8
SOILS
 10
545746.8949035089462996
 20
823561.9344287388958037
 30
1.0
  0
VERTEX
  5
AEB
  8
SOILS
 10
545790.7689002682454884
 20
823613.2831857177661732
 30
1.0
  0
VERTEX
  5
AEC
  8
SOILS
 10
545822.7964189783670008
 20
823685.2944423469016328
 30
1.0
  0
VERTEX
  5
AED
  8
SOILS
 10
545898.8619873239658773
 20
823751.3046957950573415
 30
1.0
  0
VERTEX
  5
AEE
  8
SOILS
 10
546052.9947382301324978
 20
823827.3165633195312694
 30
1.0
  0
VERTEX
  5
AEF
  8
SOILS
 10
546171.0964037419762462
 20
823859.3216241577174515
 30
1.0
  0
VERTEX
  5
AF0
  8
SOILS
 10
546255.1687672020634636
 20
823871.3234568436164409
 30
1.0
  0
VERTEX
  5
AF1
  8
SOILS
 10
546329.3881487477337942
 20
823863.7432240180205554
 30
1.0
  0
VERTEX
  5
AF2
  8
SOILS
 10
546399.9682624709093943
 20
823806.8639502883888781
 30
1.0
  0
VERTEX
  5
AF3
  8
SOILS
 10
546461.4412429224466905
 20
823779.5619301595725119
 30
1.0
  0
VERTEX
  5
AF4
  8
SOILS
 10
546497.8696068798890337
 20
823775.0115500527899712
 30
1.0
  0
VERTEX
  5
AF5
  8
SOILS
 10
546536.5747541547752917
 20
823781.8370767945889384
 30
1.0
  0
VERTEX
  5
AF6
  8
SOILS
 10
546552.5122373788617551
 20
823806.8639502883888781
 30
1.0
  0
VERTEX
  5
AF7
  8
SOILS
 10
546568.4497206024825573
 20
823852.3673171695554629
 30
1.0
  0
VERTEX
  5
AF8
  8
SOILS
 10
546623.0921819750219584
 20
823861.4679905460216105
 30
1.0
  0
VERTEX
  5
AF9
  8
SOILS
 10
546686.8419457448180765
 20
823852.3673171695554629
 30
1.0
  0
VERTEX
  5
AFA
  8
SOILS
 10
546746.0381428794935346
 20
823854.6425506417872384
 30
1.0
  0
VERTEX
  5
AFB
  8
SOILS
 10
546791.5736401072936133
 20
823888.7700975120533258
 30
1.0
  0
VERTEX
  5
AFC
  8
SOILS
 10
546825.7252207465935498
 20
823966.1258646283531561
 30
1.0
  0
VERTEX
  5
AFD
  8
SOILS
 10
546923.6265651558060199
 20
824077.6091786157339811
 30
1.0
  0
VERTEX
  5
AFE
  8
SOILS
 10
547037.937932723085396
 20
824139.1339196878252551
 30
1.0
  0
VERTEX
  5
AFF
  8
SOILS
 10
547076.6158506030915305
 20
824152.0175019507296383
 30
1.0
  0
VERTEX
  5
B00
  8
SOILS
 10
547108.1312537371413782
 20
824215.0038076414493844
 30
1.0
  0
VERTEX
  5
B01
  8
SOILS
 10
547112.4287625845754519
 20
824272.2640381754608825
 30
1.0
  0
VERTEX
  5
B02
  8
SOILS
 10
547099.5362360423896462
 20
824333.8189119148300961
 30
1.0
  0
VERTEX
  5
B03
  8
SOILS
 10
547106.6987507878802717
 20
824385.3531541309785098
 30
1.0
  0
VERTEX
  5
B04
  8
SOILS
 10
547132.4841421258170158
 20
824406.8257622903911397
 30
1.0
  0
VERTEX
  5
B05
  8
SOILS
 10
547194.0822763185715303
 20
824421.1407765051117167
 30
1.0
  0
VERTEX
  5
B06
  8
SOILS
 10
547302.9536843391833827
 20
824436.8873963471269235
 30
1.0
  0
VERTEX
  5
B07
  8
SOILS
 10
547417.5549350294750184
 20
824452.6339293502969667
 30
1.0
  0
VERTEX
  5
B08
  8
SOILS
 10
547521.8967924027238041
 20
824542.8048506566556171
 30
1.0
  0
VERTEX
  5
B09
  8
SOILS
 10
547611.281593895284459
 20
824614.949403090053238
 30
1.0
  0
VERTEX
  5
B0A
  8
SOILS
 10
547748.7968032114440575
 20
824652.7394150157924742
 30
1.0
  0
VERTEX
  5
B0B
  8
SOILS
 10
547879.4361674983520061
 20
824666.4812138517154381
 30
1.0
  0
VERTEX
  5
B0C
  8
SOILS
 10
547975.6968140200478956
 20
824659.610357852652669
 30
1.0
  0
VERTEX
  5
B0D
  8
SOILS
 10
548078.8331364436307922
 20
824659.610357852652669
 30
1.0
  0
VERTEX
  5
B0E
  8
SOILS
 10
548372.5579722522525117
 20
824772.1738454651786014
 30
1.0
  0
VERTEX
  5
B0F
  8
SOILS
 10
548399.1514508500695229
 20
824798.7484265343518928
 30
1.0
  0
VERTEX
  5
B10
  8
SOILS
 10
548415.1073688820470124
 20
824830.6379064499633387
 30
1.0
  0
VERTEX
  5
B11
  8
SOILS
 10
548415.1073688820470124
 20
824869.6139471064088866
 30
1.0
  0
VERTEX
  5
B12
  8
SOILS
 10
548408.0158873401815072
 20
824906.8184127056738362
 30
1.0
  0
VERTEX
  5
B13
  8
SOILS
 10
548402.6971916208276525
 20
824929.849669985473156
 30
1.0
  0
VERTEX
  5
B14
  8
SOILS
 10
548388.5140594108961523
 20
824942.2512164105428383
 30
1.0
  0
VERTEX
  5
B15
  8
SOILS
 10
548356.6020542203914374
 20
824951.1093522085575387
 30
1.0
  0
VERTEX
  5
B16
  8
SOILS
 10
548324.6900490303523839
 20
824945.7944533622357994
 30
1.0
  0
VERTEX
  5
B17
  8
SOILS
 10
548253.7745571079431102
 20
824892.6452912234235555
 30
1.0
  0
VERTEX
  5
B18
  8
SOILS
 10
548191.7233325493289158
 20
824841.2677909802878276
 30
1.0
  0
VERTEX
  5
B19
  8
SOILS
 10
548133.7527964382898062
 20
824813.1126777009340003
 30
1.0
  0
VERTEX
  5
B1A
  8
SOILS
 10
548075.3454061229713261
 20
824814.5362074258737266
 30
1.0
  0
VERTEX
  5
B1B
  8
SOILS
 10
548015.5136309384834021
 20
824848.7017023516818881
 30
1.0
  0
VERTEX
  5
B1C
  8
SOILS
 10
547900.1237425560830161
 20
824948.3511276829522103
 30
1.0
  0
VERTEX
  5
B1D
  8
SOILS
 10
547836.0181362590519711
 20
824995.3287374809151515
 30
1.0
  0
VERTEX
  5
B1E
  8
SOILS
 10
547774.761807078961283
 20
825015.2585878121899441
 30
1.0
  0
VERTEX
  5
B1F
  8
SOILS
 10
547692.1368297163862735
 20
825028.0706158456159756
 30
1.0
  0
VERTEX
  5
B20
  8
SOILS
 10
547574.7194507368840277
 20
825037.5882836546516046
 30
1.0
  0
VERTEX
  5
B21
  8
SOILS
 10
547465.0697217516135424
 20
825080.9286981547484174
 30
1.0
  0
VERTEX
  5
B22
  8
SOILS
 10
547339.9225771537749097
 20
825074.4869070233544335
 30
1.0
  0
VERTEX
  5
B23
  8
SOILS
 10
547104.5550701647298411
 20
825073.5006049056537449
 30
1.0
  0
VERTEX
  5
B24
  8
SOILS
 10
546907.5728919052053243
 20
825125.4969971366226673
 30
1.0
  0
VERTEX
  5
B25
  8
SOILS
 10
546703.1574270911514759
 20
825188.6353555660462007
 30
1.0
  0
VERTEX
  5
B26
  8
SOILS
 10
546573.0748278225073591
 20
825281.4860001541674137
 30
1.0
  0
VERTEX
  5
B27
  8
SOILS
 10
546364.9428042945219204
 20
825270.3438602802343667
 30
1.0
  0
VERTEX
  5
B28
  8
SOILS
 10
546127.0774654214037582
 20
825322.3402525113197044
 30
1.0
  0
VERTEX
  5
B29
  8
SOILS
 10
545972.9873344377847388
 20
825448.4459860220085829
 30
1.0
  0
VERTEX
  5
B2A
  8
SOILS
 10
545839.781811089720577
 20
825681.391302929725498
 30
1.0
  0
VERTEX
  5
B2B
  8
SOILS
 10
545639.9735260673332959
 20
825925.4291754089063033
 30
1.0
  0
VERTEX
  5
B2C
  8
SOILS
 10
545495.6675424401182681
 20
826014.1702278414741158
 30
1.0
  0
VERTEX
  5
B2D
  8
SOILS
 10
545284.7587971388129517
 20
826136.1892074997304007
 30
1.0
  0
VERTEX
  5
B2E
  8
SOILS
 10
545129.9103021380724385
 20
826168.9354277470847592
 30
1.0
  0
VERTEX
  5
B2F
  8
SOILS
 10
544905.4431785696651787
 20
826149.4303004003595561
 30
1.0
  0
VERTEX
  5
B30
  8
SOILS
 10
544778.570434492547065
 20
826051.9046636659186333
 30
1.0
  0
VERTEX
  5
B31
  8
SOILS
 10
544647.0593913154443726
 20
826063.3272891750093549
 30
1.0
  0
VERTEX
  5
B32
  8
SOILS
 10
544447.5938075258163735
 20
826045.5497441776096821
 30
1.0
  0
VERTEX
  5
B33
  8
SOILS
 10
544348.2599518049973994
 20
825955.0446446635760367
 30
1.0
  0
VERTEX
  5
B34
  8
SOILS
 10
544357.8279130455339327
 20
825763.2930214323569089
 30
1.0
  0
VERTEX
  5
B35
  8
SOILS
 10
544266.4557143127312884
 20
825701.0463569695129991
 30
1.0
  0
VERTEX
  5
B36
  8
SOILS
 10
544074.0142387271625921
 20
825683.485479885712266
 30
1.0
  0
VERTEX
  5
B37
  8
SOILS
 10
543990.9507158922497183
 20
825651.0932967690750957
 30
1.0
  0
VERTEX
  5
B38
  8
SOILS
 10
543946.7019344184082001
 20
825607.1660333771724254
 30
1.0
  0
VERTEX
  5
B39
  8
SOILS
 10
543934.6063327755546197
 20
825576.9482652124715969
 30
1.0
  0
VERTEX
  5
B3A
  8
SOILS
 10
543931.5823478010715917
 20
825540.6870302519528195
 30
1.0
  0
VERTEX
  5
B3B
  8
SOILS
 10
543946.7019344184082001
 20
825492.3386011880356818
 30
1.0
  0
VERTEX
  5
B3C
  8
SOILS
 10
543982.988739347201772
 20
825462.1208330231020227
 30
1.0
  0
VERTEX
  5
B3D
  8
SOILS
 10
544025.3235142241464928
 20
825453.0555025736102834
 30
1.0
  0
VERTEX
  5
B3E
  8
SOILS
 10
544091.0261837264988571
 20
825454.7113230328541249
 30
1.0
  0
VERTEX
  5
B3F
  8
SOILS
 10
544129.0166016671573743
 20
825449.0609703140798956
 30
1.0
  0
VERTEX
  5
B40
  8
SOILS
 10
544160.8026074832305312
 20
825426.8264485443942249
 30
1.0
  0
VERTEX
  5
B41
  8
SOILS
 10
544218.4475747416727245
 20
825319.266199424630031
 30
1.0
  0
VERTEX
  5
B42
  8
SOILS
 10
544235.3145781792700291
 20
825211.3934215740300715
 30
1.0
  0
VERTEX
  5
B43
  8
SOILS
 10
544235.3145781792700291
 20
825090.0365790568757802
 30
1.0
  0
VERTEX
  5
B44
  8
SOILS
 10
544129.8370351741323248
 20
824929.5812547854147851
 30
1.0
  0
VERTEX
  5
B45
  8
SOILS
 10
544127.8283176384866238
 20
824704.231106779538095
 30
1.0
  0
VERTEX
  5
B46
  8
SOILS
 10
544035.7234518096083775
 20
824519.4298899269197136
 30
1.0
  0
VERTEX
  5
B47
  8
SOILS
 10
543952.5324074605014175
 20
824466.9251500472892076
 30
1.0
  0
VERTEX
  5
B48
  8
SOILS
 10
543703.973967825062573
 20
824354.8903337507508695
 30
1.0
  0
VERTEX
  5
B49
  8
SOILS
 10
543706.328759791678749
 20
824491.4905328903114423
 30
1.0
  0
VERTEX
  5
B4A
  8
SOILS
 10
543369.7614332858938724
 20
824462.4346694266423583
 30
1.0
  0
VERTEX
  5
B4B
  8
SOILS
 10
543395.4205337022431195
 20
824543.6480388360796496
 30
1.0
  0
VERTEX
  5
B4C
  8
SOILS
 10
543418.9419823483331129
 20
824618.4491702655795962
 30
1.0
  0
VERTEX
  5
B4D
  8
SOILS
 10
543409.221854095812887
 20
824709.5906158769503236
 30
1.0
  0
VERTEX
  5
B4E
  8
SOILS
 10
543204.4453261450398713
 20
824737.1713512191781774
 30
1.0
  0
VERTEX
  5
B4F
  8
SOILS
 10
543310.3261714553227648
 20
824921.1822208676021546
 30
1.0
  0
VERTEX
  5
B50
  8
SOILS
 10
543481.2290618719998747
 20
825205.8193571754964069
 30
1.0
  0
VERTEX
  5
B51
  8
SOILS
 10
543635.8553863151464611
 20
825531.1189415277913213
 30
1.0
  0
VERTEX
  5
B52
  8
SOILS
 10
543660.2699924357002601
 20
825856.4185258803190663
 30
1.0
  0
VERTEX
  5
B53
  8
SOILS
 10
543627.717184275155887
 20
826214.2481262107612565
 30
1.0
  0
VERTEX
  5
B54
  8
SOILS
 10
543580.6713531711138785
 20
826331.7797111349646002
 30
1.0
  0
VERTEX
  5
B55
  8
SOILS
 10
543615.8146149296080694
 20
826343.566914547351189
 30
1.0
  0
VERTEX
  5
B56
  8
SOILS
 10
543641.3087206569034606
 20
826356.4648832066450268
 30
1.0
  0
VERTEX
  5
B57
  8
SOILS
 10
543660.1375262580113485
 20
826382.6348458684515208
 30
1.0
  0
VERTEX
  5
B58
  8
SOILS
 10
543705.6906185706611723
 20
826436.344885079190135
 30
1.0
  0
VERTEX
  5
B59
  8
SOILS
 10
543714.5857733817538247
 20
826463.3783869530307129
 30
1.0
  0
VERTEX
  5
B5A
  8
SOILS
 10
543712.2952588858315721
 20
826488.1519883354194462
 30
1.0
  0
VERTEX
  5
B5B
  8
SOILS
 10
543677.1538166801910847
 20
826515.9243543077027425
 30
1.0
  0
VERTEX
  5
B5C
  8
SOILS
 10
543660.8096369731938466
 20
826533.0770252863876522
 30
1.0
  0
VERTEX
  5
B5D
  8
SOILS
 10
543657.5388599178986624
 20
826553.4974966277368367
 30
1.0
  0
VERTEX
  5
B5E
  8
SOILS
 10
543666.5286440351046622
 20
826568.1999735194258392
 30
1.0
  0
VERTEX
  5
B5F
  8
SOILS
 10
543691.0473399881739169
 20
826570.6514799767173827
 30
1.0
  0
VERTEX
  5
B60
  8
SOILS
 10
543762.1454922703560442
 20
826566.5673857082147151
 30
1.0
  0
VERTEX
  5
B61
  8
SOILS
 10
543813.6311141834594309
 20
826576.3681620561983436
 30
1.0
  0
VERTEX
  5
B62
  8
SOILS
 10
543875.7394823483191431
 20
826595.1560455857543275
 30
1.0
  0
VERTEX
  5
B63
  8
SOILS
 10
543904.3442232281668112
 20
826617.2104171084938571
 30
1.0
  0
VERTEX
  5
B64
  8
SOILS
 10
543909.2455360265448689
 20
826650.699465160141699
 30
1.0
  0
VERTEX
  5
B65
  8
SOILS
 10
543891.2683941840659827
 20
826711.1445852789329365
 30
1.0
  0
VERTEX
  5
B66
  8
SOILS
 10
543888.8153113925363868
 20
826815.6984484418062493
 30
1.0
  0
VERTEX
  5
B67
  8
SOILS
 10
543904.3442232281668112
 20
826939.0388827656861395
 30
1.0
  0
VERTEX
  5
B68
  8
SOILS
 10
543890.7418670172337443
 20
826955.9737003868212923
 30
1.0
  0
VERTEX
  5
B69
  8
SOILS
 10
543887.24786185414996
 20
827000.2071185463573784
 30
1.0
  0
VERTEX
  5
B6A
  8
SOILS
 10
543901.2214561139699072
 20
827025.8153870092937723
 30
1.0
  0
VERTEX
  5
B6B
  8
SOILS
 10
543939.6555129068437964
 20
827035.1279618572443724
 30
1.0
  0
VERTEX
  5
B6C
  8
SOILS
 10
544000.2158426736714318
 20
827040.9483211376937106
 30
1.0
  0
VERTEX
  5
B6D
  8
SOILS
 10
544059.6115040525328368
 20
827054.9171834095614031
 30
1.0
  0
VERTEX
  5
B6E
  8
SOILS
 10
544109.6898183299927041
 20
827056.0812552655115724
 30
1.0
  0
VERTEX
  5
B6F
  8
SOILS
 10
544153.1853298248024657
 20
827050.776657247566618
 30
1.0
  0
VERTEX
  5
B70
  8
SOILS
 10
544283.8975188087206334
 20
826985.4534592393320054
 30
1.0
  0
VERTEX
  5
B71
  8
SOILS
 10
544395.3247404064750299
 20
826956.7624345301883295
 30
1.0
  0
VERTEX
  5
B72
  8
SOILS
 10
544485.511322284815833
 20
826945.0364119444275275
 30
1.0
  0
VERTEX
  5
B73
  8
SOILS
 10
544577.1610188247868791
 20
826966.2889256273629144
 30
1.0
  0
VERTEX
  5
B74
  8
SOILS
 10
544678.3440113965189084
 20
826961.8924873888026923
 30
1.0
  0
VERTEX
  5
B75
  8
SOILS
 10
544795.9027267768979073
 20
826887.1661610279697925
 30
1.0
  0
VERTEX
  5
B76
  8
SOILS
 10
544905.0685505890287459
 20
826934.1975512244971469
 30
1.0
  0
VERTEX
  5
B77
  8
SOILS
 10
544976.588895162451081
 20
826957.3989337978418916
 30
1.0
  0
VERTEX
  5
B78
  8
SOILS
 10
545030.7172170270932838
 20
826995.2699805034790188
 30
1.0
  0
VERTEX
  5
B79
  8
SOILS
 10
545429.522775805555284
 20
826644.7160892488900572
 30
1.0
  0
VERTEX
  5
B7A
  8
SOILS
 10
545888.0811764632817358
 20
826252.3948401558445767
 30
1.0
  0
VERTEX
  5
B7B
  8
SOILS
 10
545983.8899165053153411
 20
826156.6535436145495623
 30
1.0
  0
VERTEX
  5
B7C
  8
SOILS
 10
546033.9416033732704818
 20
826095.0742684938013554
 30
1.0
  0
VERTEX
  5
B7D
  8
SOILS
 10
546065.5880796816200018
 20
826051.5910060463938862
 30
1.0
  0
VERTEX
  5
B7E
  8
SOILS
 10
546109.1020057466812432
 20
826051.5910060463938862
 30
1.0
  0
VERTEX
  5
B7F
  8
SOILS
 10
546144.7043550162343308
 20
826087.1682207762496546
 30
1.0
  0
VERTEX
  5
B80
  8
SOILS
 10
546176.3508313245838508
 20
826178.0877695298986509
 30
1.0
  0
VERTEX
  5
B81
  8
SOILS
 10
546219.8647573892958462
 20
826284.8193268812028691
 30
1.0
  0
VERTEX
  5
B82
  8
SOILS
 10
546287.1135829668492079
 20
826328.302589328144677
 30
1.0
  0
VERTEX
  5
B83
  8
SOILS
 10
546382.0531810196116567
 20
826340.1616609051125124
 30
1.0
  0
VERTEX
  5
B84
  8
SOILS
 10
546496.7716364966472611
 20
826340.1616609051125124
 30
1.0
  0
VERTEX
  5
B85
  8
SOILS
 10
546560.0647582402452826
 20
826284.8193268812028691
 30
1.0
  0
VERTEX
  5
B86
  8
SOILS
 10
546595.6669383832486346
 20
826174.1347456710645929
 30
1.0
  0
VERTEX
  5
B87
  8
SOILS
 10
546607.5343881398439407
 20
825964.6244811515789479
 30
1.0
  0
VERTEX
  5
B88
  8
SOILS
 10
546623.3577108571771532
 20
825889.5170278331497684
 30
1.0
  0
VERTEX
  5
B89
  8
SOILS
 10
546718.2971397825749591
 20
825786.738407502300106
 30
1.0
  0
VERTEX
  5
B8A
  8
SOILS
 10
546836.9716373474802822
 20
825711.6309541845694184
 30
1.0
  0
VERTEX
  5
B8B
  8
SOILS
 10
547018.9389184024184942
 20
825691.8658348902827129
 30
1.0
  0
VERTEX
  5
B8C
  8
SOILS
 10
547260.2436173671158031
 20
825691.8658348902827129
 30
1.0
  0
VERTEX
  5
B8D
  8
SOILS
 10
547734.218591085402295
 20
825878.8428560976171866
 30
1.0
  0
VERTEX
  5
B8E
  8
SOILS
 10
547904.3136868373258039
 20
825898.2685269874054939
 30
1.0
  0
VERTEX
  5
B8F
  8
SOILS
 10
548074.4089517156826332
 20
825859.4170983695657924
 30
1.0
  0
VERTEX
  5
B90
  8
SOILS
 10
548259.0836126067442819
 20
825786.570550310309045
 30
1.0
  0
VERTEX
  5
B91
  8
SOILS
 10
548417.3291860297322273
 20
825718.7103942376561463
 30
1.0
  0
VERTEX
  5
B92
  8
SOILS
 10
548547.7525755510432646
 20
825636.6697354818461463
 30
1.0
  0
VERTEX
  5
B93
  8
SOILS
 10
548653.9752906927606091
 20
825546.2133787949569523
 30
1.0
  0
VERTEX
  5
B94
  8
SOILS
 10
548761.1217757407575846
 20
825546.2133787949569523
 30
1.0
  0
VERTEX
  5
B95
  8
SOILS
 10
548859.0314073570771143
 20
825628.3624977850122377
 30
1.0
  0
VERTEX
  5
B96
  8
SOILS
 10
548875.7725805473746732
 20
825747.0839910637587309
 30
1.0
  0
VERTEX
  5
B97
  8
SOILS
 10
548744.9415957359597087
 20
825997.6754147399915382
 30
1.0
  0
VERTEX
  5
B98
  8
SOILS
 10
548732.979265913949348
 20
826147.7209011061349884
 30
1.0
  0
VERTEX
  5
B99
  8
SOILS
 10
548676.3067770447814837
 20
826234.2984801315469667
 30
1.0
  0
VERTEX
  5
B9A
  8
SOILS
 10
548624.8307053081225604
 20
826316.602170153404586
 30
1.0
  0
VERTEX
  5
B9B
  8
SOILS
 10
548602.3466666939202696
 20
826390.9393734462792054
 30
1.0
  0
VERTEX
  5
B9C
  8
SOILS
 10
548600.8505721143446863
 20
826491.1077406207332388
 30
1.0
  0
VERTEX
  5
B9D
  8
SOILS
 10
548627.7804436711594462
 20
826547.9197151655098423
 30
1.0
  0
VERTEX
  5
B9E
  8
SOILS
 10
548691.5317730796523392
 20
826813.1458989444654435
 30
1.0
  0
VERTEX
  5
B9F
  8
SOILS
 10
548711.7410742427455261
 20
826835.0086550820851699
 30
1.0
  0
VERTEX
  5
BA0
  8
SOILS
 10
548825.7184343311237171
 20
826940.4562419586582109
 30
1.0
  0
VERTEX
  5
BA1
  8
SOILS
 10
548922.371352153015323
 20
827008.3411854725563899
 30
1.0
  0
VERTEX
  5
BA2
  8
SOILS
 10
549003.3522009833250195
 20
827039.6726978633087128
 30
1.0
  0
VERTEX
  5
BA3
  8
SOILS
 10
549051.2419092492200434
 20
827055.3371416894951835
 30
1.0
  0
VERTEX
  5
BA4
  8
SOILS
 10
549223.7753989207558334
 20
826867.2680127967614681
 30
1.0
  0
VERTEX
  5
BA5
  8
SOILS
 10
549345.0804642816074193
 20
826779.9547493770951405
 30
1.0
  0
VERTEX
  5
BA6
  8
SOILS
 10
549396.9858520922716707
 20
826746.2544098157668486
 30
1.0
  0
VERTEX
  5
BA7
  8
SOILS
 10
549439.0874830354005098
 20
826729.9962628053035587
 30
1.0
  0
VERTEX
  5
BA8
  8
SOILS
 10
549342.0135604806710035
 20
826498.979747976292856
 30
1.0
  0
VERTEX
  5
BA9
  8
SOILS
 10
549319.2396387428743765
 20
826311.2270059720613062
 30
1.0
  0
VERTEX
  5
BAA
  8
SOILS
 10
549334.9800421346444637
 20
826208.8123747061472386
 30
1.0
  0
VERTEX
  5
BAB
  8
SOILS
 10
549385.0789816152537242
 20
826064.183770407224074
 30
1.0
  0
VERTEX
  5
BAC
  8
SOILS
 10
549468.5774299401091412
 20
825964.0563415199285373
 30
1.0
  0
VERTEX
  5
BAD
  8
SOILS
 10
549536.3952406318858266
 20
825860.4609572626650333
 30
1.0
  0
VERTEX
  5
BAE
  8
SOILS
 10
549626.1871196223655716
 20
825826.5097125612664968
 30
1.0
  0
VERTEX
  5
BAF
  8
SOILS
 10
549684.067020578077063
 20
825701.0452700218884274
 30
1.0
  0
VERTEX
  5
BB0
  8
SOILS
 10
549665.0123635811032727
 20
825574.1042450813110918
 30
1.0
  0
VERTEX
  5
BB1
  8
SOILS
 10
549566.5637252470478415
 20
825399.5604660443495959
 30
1.0
  0
VERTEX
  5
BB2
  8
SOILS
 10
549391.8967971786623821
 20
825136.1579695489490405
 30
1.0
  0
VERTEX
  5
BB3
  8
SOILS
 10
549261.5030153007246554
 20
825072.3469085396500304
 30
1.0
  0
VERTEX
  5
BB4
  8
SOILS
 10
548980.1330418549478054
 20
824984.9716100342338905
 30
1.0
  0
VERTEX
  5
BB5
  8
SOILS
 10
548816.6915648115100339
 20
824890.8233214163919911
 30
1.0
  0
VERTEX
  5
BB6
  8
SOILS
 10
548660.6082028631353751
 20
824746.6660943469032645
 30
1.0
  0
VERTEX
  5
BB7
  8
SOILS
 10
548580.2015881247352809
 20
824678.1323526694905013
 30
1.0
  0
VERTEX
  5
BB8
  8
SOILS
 10
548533.3597750407643616
 20
824627.9427138505270705
 30
1.0
  0
VERTEX
  5
BB9
  8
SOILS
 10
548478.510731399175711
 20
824507.9795584911480546
 30
1.0
  0
VERTEX
  5
BBA
  8
SOILS
 10
548481.8087314082076773
 20
824376.6106860928703099
 30
1.0
  0
VERTEX
  5
BBB
  8
SOILS
 10
548557.9076177089009434
 20
824222.0674432407831773
 30
1.0
  0
VERTEX
  5
BBC
  8
SOILS
 10
548631.5516303017502651
 20
824106.7731718030991033
 30
1.0
  0
VERTEX
  5
BBD
  8
SOILS
 10
548796.0230949363904074
 20
824052.8057384151034057
 30
1.0
  0
VERTEX
  5
BBE
  8
SOILS
 10
549097.963428178220056
 20
824033.1811224512057379
 30
1.0
  0
VERTEX
  5
BBF
  8
SOILS
 10
549392.5394785492680967
 20
824060.1648825641022995
 30
1.0
  0
VERTEX
  5
BC0
  8
SOILS
 10
549926.1043763045454398
 20
824013.2149739790474996
 30
1.0
  0
VERTEX
  5
BC1
  8
SOILS
 10
550124.0828798149013892
 20
823941.9929848216706887
 30
1.0
  0
VERTEX
  5
BC2
  8
SOILS
 10
550407.5945529749151319
 20
823786.4923514170804992
 30
1.0
  0
VERTEX
  5
BC3
  8
SOILS
 10
550656.9208681923337281
 20
823672.2983162810560316
 30
1.0
  0
VERTEX
  5
BC4
  8
SOILS
 10
550760.8069947590120137
 20
823661.9169880475383252
 30
1.0
  0
VERTEX
  5
BC5
  8
SOILS
 10
550875.0816368465311825
 20
823713.8234374041203409
 30
1.0
  0
VERTEX
  5
BC6
  8
SOILS
 10
550895.8588297814130783
 20
823890.3050583195872605
 30
1.0
  0
VERTEX
  5
BC7
  8
SOILS
 10
550947.8017311716685072
 20
824097.9305680301040411
 30
1.0
  0
VERTEX
  5
BC8
  8
SOILS
 10
551010.1333099759649485
 20
824160.2182497148169205
 30
1.0
  0
VERTEX
  5
BC9
  8
SOILS
 10
551103.6307591289514676
 20
824160.2182497148169205
 30
1.0
  0
VERTEX
  5
BCA
  8
SOILS
 10
551259.4597870860015973
 20
824139.4556891532847658
 30
1.0
  0
VERTEX
  5
BCB
  8
SOILS
 10
551290.6256574348080903
 20
824087.5493357020895928
 30
1.0
  0
VERTEX
  5
BCC
  8
SOILS
 10
551332.1800433043390512
 20
824004.4990934558445588
 30
1.0
  0
VERTEX
  5
BCD
  8
SOILS
 10
551415.2888150432845578
 20
823526.960488255484961
 30
1.0
  0
VERTEX
  5
BCE
  8
SOILS
 10
551451.8899209665833041
 20
823339.3659693180816248
 30
1.0
  0
VERTEX
  5
BCF
  8
SOILS
 10
551532.4981798495864496
 20
823253.7801196079235524
 30
1.0
  0
VERTEX
  5
BD0
  8
SOILS
 10
551519.2664256428834051
 20
823181.3558748795185238
 30
1.0
  0
VERTEX
  5
BD1
  8
SOILS
 10
551688.5776661081472412
 20
823089.0267347587505355
 30
1.0
  0
VERTEX
  5
BD2
  8
SOILS
 10
551736.5595772879896685
 20
823078.3125491529935971
 30
1.0
  0
VERTEX
  5
BD3
  8
SOILS
 10
551795.770832839072682
 20
823079.333572719944641
 30
1.0
  0
VERTEX
  5
BD4
  8
SOILS
 10
551907.0476181036792696
 20
823111.9853289524326101
 30
1.0
  0
VERTEX
  5
BD5
  8
SOILS
 10
552479.8072423449484631
 20
823276.2182184612611309
 30
1.0
  0
VERTEX
  5
BD6
  8
SOILS
 10
552524.9946921735536307
 20
822833.6933366510784253
 30
1.0
  0
VERTEX
  5
BD7
  8
SOILS
 10
552516.9354677895316854
 20
822638.6876529535511509
 30
1.0
  0
VERTEX
  5
BD8
  8
SOILS
 10
552625.6969817053759471
 20
822490.1534672873094678
 30
1.0
  0
VERTEX
  5
BD9
  8
SOILS
 10
552785.4164616951020434
 20
822460.2271991051966324
 30
1.0
  0
VERTEX
  5
BDA
  8
SOILS
 10
553088.2178341863909736
 20
822569.9569130445597693
 30
1.0
  0
VERTEX
  5
BDB
  8
SOILS
 10
553271.2298395241377875
 20
822673.0363238528370857
 30
1.0
  0
VERTEX
  5
BDC
  8
SOILS
 10
553460.8966208287747577
 20
822716.263102391269058
 30
1.0
  0
VERTEX
  5
BDD
  8
SOILS
 10
553637.2535264145117253
 20
822709.6128951662685722
 30
1.0
  0
VERTEX
  5
BDE
  8
SOILS
 10
553913.4349855737527832
 20
822559.9814583486877382
 30
1.0
  0
SEQEND
  5
BDF
  8
SOILS
  0
POLYLINE
  5
5C
  8
SOILS
 66
     1
 10
0.0
 20
0.0
 30
4.0
 70
     1
  0
VERTEX
  5
BE0
  8
SOILS
 10
550600.9972803451819345
 20
820637.2236100274603814
 30
4.0
  0
VERTEX
  5
BE1
  8
SOILS
 10
550395.2061424197163433
 20
820782.7103542840341106
 30
4.0
  0
VERTEX
  5
BE2
  8
SOILS
 10
550146.959501979756169
 20
821017.9473598143085837
 30
4.0
  0
VERTEX
  5
BE3
  8
SOILS
 10
549942.730639859684743
 20
821269.3907966754632071
 30
4.0
  0
VERTEX
  5
BE4
  8
SOILS
 10
550007.5739718631375581
 20
821503.3822521631373093
 30
4.0
  0
VERTEX
  5
BE5
  8
SOILS
 10
550063.8483219713671133
 20
821654.7830559219000861
 30
4.0
  0
VERTEX
  5
BE6
  8
SOILS
 10
550176.3968602940440178
 20
821767.2521285229595378
 30
4.0
  0
VERTEX
  5
BE7
  8
SOILS
 10
550275.9589852237841114
 20
821793.2065520245814696
 30
4.0
  0
VERTEX
  5
BE8
  8
SOILS
 10
550492.3983450119849294
 20
821788.8808147745439783
 30
4.0
  0
VERTEX
  5
BE9
  8
SOILS
 10
550756.4543380507966504
 20
821758.6006540227681398
 30
4.0
  0
VERTEX
  5
BEA
  8
SOILS
 10
550974.3957416142802685
 20
821704.5494622451951727
 30
4.0
  0
VERTEX
  5
BEB
  8
SOILS
 10
551107.1588945019757375
 20
821597.1188991379458457
 30
4.0
  0
VERTEX
  5
BEC
  8
SOILS
 10
551392.7863278089789674
 20
821191.9293619557283819
 30
4.0
  0
VERTEX
  5
BED
  8
SOILS
 10
551474.6558082030387595
 20
821003.560115599189885
 30
4.0
  0
VERTEX
  5
BEE
  8
SOILS
 10
551470.5359537098556757
 20
820875.9290001833578572
 30
4.0
  0
VERTEX
  5
BEF
  8
SOILS
 10
551396.9123342382954434
 20
820781.1307714064605534
 30
4.0
  0
VERTEX
  5
BF0
  8
SOILS
 10
551142.4562756436644122
 20
820779.710214024875313
 30
4.0
  0
VERTEX
  5
BF1
  8
SOILS
 10
550834.7236406621523201
 20
820885.0806236680364236
 30
4.0
  0
VERTEX
  5
BF2
  8
SOILS
 10
550685.5832243203185499
 20
820805.1104935519397259
 30
4.0
  0
SEQEND
  5
BF3
  8
SOILS
  0
POLYLINE
  5
5D
  8
SOILS
 66
     1
 10
0.0
 20
0.0
 30
2.0
 70
     1
  0
VERTEX
  5
BF4
  8
SOILS
 10
554115.6010527624748647
 20
820032.4909044292289764
 30
2.0
  0
VERTEX
  5
BF5
  8
SOILS
 10
554048.1909667496802285
 20
820005.7206063332268968
 30
2.0
  0
VERTEX
  5
BF6
  8
SOILS
 10
554069.2132311471505091
 20
819946.755839150166139
 30
2.0
  0
VERTEX
  5
BF7
  8
SOILS
 10
554101.4866774481488392
 20
819901.9764752275077626
 30
2.0
  0
VERTEX
  5
BF8
  8
SOILS
 10
554136.0360798895126209
 20
819852.2626015207497403
 30
2.0
  0
VERTEX
  5
BF9
  8
SOILS
 10
554157.3422322071855888
 20
819822.9377022838452831
 30
2.0
  0
VERTEX
  5
BFA
  8
SOILS
 10
554225.8417181497206911
 20
819753.8007581497076899
 30
2.0
  0
VERTEX
  5
BFB
  8
SOILS
 10
553923.4452768600312993
 20
819525.3618272684980184
 30
2.0
  0
VERTEX
  5
BFC
  8
SOILS
 10
553718.1239456833573058
 20
819275.8514897138811648
 30
2.0
  0
VERTEX
  5
BFD
  8
SOILS
 10
553577.0680455811088905
 20
819331.7597480437252671
 30
2.0
  0
VERTEX
  5
BFE
  8
SOILS
 10
553563.1187152460915968
 20
819353.9230462450068444
 30
2.0
  0
VERTEX
  5
BFF
  8
SOILS
 10
553446.9770130703691393
 20
819322.7516429480165243
 30
2.0
  0
VERTEX
  5
C00
  8
SOILS
 10
553349.1157517960527912
 20
819339.9502468635328114
 30
2.0
  0
VERTEX
  5
C01
  8
SOILS
 10
553308.250449743703939
 20
819328.1271089259535074
 30
2.0
  0
VERTEX
  5
C02
  8
SOILS
 10
553240.5007190759060904
 20
819356.0727076883194968
 30
2.0
  0
VERTEX
  5
C03
  8
SOILS
 10
553183.5047598538221791
 20
819387.2441109848441556
 30
2.0
  0
VERTEX
  5
C04
  8
SOILS
 10
553111.4554617214016616
 20
819381.8699573770863935
 30
2.0
  0
VERTEX
  5
C05
  8
SOILS
 10
553050.1575086425291374
 20
819351.773384802043438
 30
2.0
  0
VERTEX
  5
C06
  8
SOILS
 10
553006.0651045996928588
 20
819303.4046899589011446
 30
2.0
  0
VERTEX
  5
C07
  8
SOILS
 10
552999.6133270099526271
 20
819256.1108258370077237
 30
2.0
  0
VERTEX
  5
C08
  8
SOILS
 10
552988.8595555640058592
 20
819210.9666231593582779
 30
2.0
  0
VERTEX
  5
C09
  8
SOILS
 10
552969.5017964042490348
 20
819158.2986054298235103
 30
2.0
  0
VERTEX
  5
C0A
  8
SOILS
 10
552914.2334286237601191
 20
819067.014111528871581
 30
2.0
  0
VERTEX
  5
C0B
  8
SOILS
 10
552911.8191681117750704
 20
819030.8137078357394785
 30
2.0
  0
VERTEX
  5
C0C
  8
SOILS
 10
552939.5843771951040253
 20
818974.0996545563684776
 30
2.0
  0
VERTEX
  5
C0D
  8
SOILS
 10
552958.9008876836160198
 20
818923.4198768066707999
 30
2.0
  0
VERTEX
  5
C0E
  8
SOILS
 10
552948.7585671406704932
 20
818852.4009946321602911
 30
2.0
  0
VERTEX
  5
C0F
  8
SOILS
 10
552902.298004042590037
 20
818850.2500208193669096
 30
2.0
  0
VERTEX
  5
C10
  8
SOILS
 10
552857.7955396713223308
 20
818795.5032096062786877
 30
2.0
  0
VERTEX
  5
C11
  8
SOILS
 10
552746.5333127612248063
 20
818838.2746480050263926
 30
2.0
  0
VERTEX
  5
C12
  8
SOILS
 10
552677.8130251036491245
 20
818911.2187764176633209
 30
2.0
  0
VERTEX
  5
C13
  8
SOILS
 10
552681.8869380682008341
 20
819055.1122314141830429
 30
2.0
  0
VERTEX
  5
C14
  8
SOILS
 10
552567.8003903180360794
 20
819136.5618273563450202
 30
2.0
  0
VERTEX
  5
C15
  8
SOILS
 10
552285.1305198447080329
 20
819262.6424894529627636
 30
2.0
  0
VERTEX
  5
C16
  8
SOILS
 10
552043.6923366870032623
 20
819377.900039266096428
 30
2.0
  0
VERTEX
  5
C17
  8
SOILS
 10
551831.0821225178660825
 20
819500.3598735722480342
 30
2.0
  0
VERTEX
  5
C18
  8
SOILS
 10
551416.673699043574743
 20
819784.8999811168760061
 30
2.0
  0
VERTEX
  5
C19
  8
SOILS
 10
551200.4602920496836305
 20
819982.9969263027887791
 30
2.0
  0
VERTEX
  5
C1A
  8
SOILS
 10
551045.5060158546548337
 20
820173.8915869951015338
 30
2.0
  0
VERTEX
  5
C1B
  8
SOILS
 10
550861.7237706721061841
 20
820289.1478244380559772
 30
2.0
  0
VERTEX
  5
C1C
  8
SOILS
 10
550815.5082732141017914
 20
820391.7016362948343158
 30
2.0
  0
VERTEX
  5
C1D
  8
SOILS
 10
550660.3186369488248602
 20
820595.2855988766532391
 30
2.0
  0
VERTEX
  5
C1E
  8
SOILS
 10
550600.9972803451819345
 20
820637.2236100274603814
 30
2.0
  0
VERTEX
  5
C1F
  8
SOILS
 10
550685.5832243203185499
 20
820805.1104935519397259
 30
2.0
  0
VERTEX
  5
C20
  8
SOILS
 10
550834.7236406621523201
 20
820885.0806236680364236
 30
2.0
  0
VERTEX
  5
C21
  8
SOILS
 10
551142.4562756436644122
 20
820779.710214024875313
 30
2.0
  0
VERTEX
  5
C22
  8
SOILS
 10
551396.9123342382954434
 20
820781.1307714064605534
 30
2.0
  0
VERTEX
  5
C23
  8
SOILS
 10
551470.5359537098556757
 20
820875.9290001833578572
 30
2.0
  0
VERTEX
  5
C24
  8
SOILS
 10
551474.6558082030387595
 20
821003.560115599189885
 30
2.0
  0
VERTEX
  5
C25
  8
SOILS
 10
551392.7863278089789674
 20
821191.9293619557283819
 30
2.0
  0
VERTEX
  5
C26
  8
SOILS
 10
551107.1588945019757375
 20
821597.1188991379458457
 30
2.0
  0
VERTEX
  5
C27
  8
SOILS
 10
550974.3957416142802685
 20
821704.5494622451951727
 30
2.0
  0
VERTEX
  5
C28
  8
SOILS
 10
550756.4543380507966504
 20
821758.6006540227681398
 30
2.0
  0
VERTEX
  5
C29
  8
SOILS
 10
550492.3983450119849294
 20
821788.8808147745439783
 30
2.0
  0
VERTEX
  5
C2A
  8
SOILS
 10
550275.9589852237841114
 20
821793.2065520245814696
 30
2.0
  0
VERTEX
  5
C2B
  8
SOILS
 10
550176.3968602940440178
 20
821767.2521285229595378
 30
2.0
  0
VERTEX
  5
C2C
  8
SOILS
 10
550063.8483219713671133
 20
821654.7830559219000861
 30
2.0
  0
VERTEX
  5
C2D
  8
SOILS
 10
550007.5739718631375581
 20
821503.3822521631373093
 30
2.0
  0
VERTEX
  5
C2E
  8
SOILS
 10
549942.730639859684743
 20
821269.3907966754632071
 30
2.0
  0
VERTEX
  5
C2F
  8
SOILS
 10
549883.7638575055170804
 20
821341.9897930258885026
 30
2.0
  0
VERTEX
  5
C30
  8
SOILS
 10
549781.9912515621399507
 20
821348.0936241451418027
 30
2.0
  0
VERTEX
  5
C31
  8
SOILS
 10
549680.2186456195777282
 20
821417.2646898893872276
 30
2.0
  0
VERTEX
  5
C32
  8
SOILS
 10
549623.2251127903582528
 20
821490.5041014674352482
 30
2.0
  0
VERTEX
  5
C33
  8
SOILS
 10
549614.8346476142760366
 20
821716.1765571814030409
 30
2.0
  0
VERTEX
  5
C34
  8
SOILS
 10
549411.1559841424459592
 20
821781.2385936348000541
 30
2.0
  0
VERTEX
  5
C35
  8
SOILS
 10
549342.1081335009075701
 20
822011.2812401955015957
 30
2.0
  0
VERTEX
  5
C36
  8
SOILS
 10
549010.7745355626102537
 20
822114.2602598104858771
 30
2.0
  0
VERTEX
  5
C37
  8
SOILS
 10
548813.7272027228027582
 20
822241.696599729009904
 30
2.0
  0
VERTEX
  5
C38
  8
SOILS
 10
548702.4552702433429658
 20
822299.6219701701775193
 30
2.0
  0
VERTEX
  5
C39
  8
SOILS
 10
548605.0914194261422381
 20
822362.1813177521107718
 30
2.0
  0
VERTEX
  5
C3A
  8
SOILS
 10
548588.8661329504102468
 20
822401.5707796310307458
 30
2.0
  0
VERTEX
  5
C3B
  8
SOILS
 10
548568.0015840642154217
 20
822517.4228328824974597
 30
2.0
  0
VERTEX
  5
C3C
  8
SOILS
 10
548510.0471998149296269
 20
822605.4697109217522666
 30
2.0
  0
VERTEX
  5
C3D
  8
SOILS
 10
548354.1102346674306318
 20
822706.8410777484532446
 30
2.0
  0
VERTEX
  5
C3E
  8
SOILS
 10
548159.2951829043449834
 20
822843.2776485446374863
 30
2.0
  0
VERTEX
  5
C3F
  8
SOILS
 10
548028.6994607588276267
 20
822865.3385819154791534
 30
2.0
  0
VERTEX
  5
C40
  8
SOILS
 10
547864.9956133017549291
 20
822940.715843609184958
 30
2.0
  0
VERTEX
  5
C41
  8
SOILS
 10
547761.9030498531647027
 20
823156.9064287937944755
 30
2.0
  0
VERTEX
  5
C42
  8
SOILS
 10
547604.4301782693946734
 20
823299.4888265371555462
 30
2.0
  0
VERTEX
  5
C43
  8
SOILS
 10
547404.3450020522577688
 20
823486.5133092096075416
 30
2.0
  0
VERTEX
  5
C44
  8
SOILS
 10
547222.7853323762537912
 20
823577.2479202379472554
 30
2.0
  0
VERTEX
  5
C45
  8
SOILS
 10
547041.2256627004826441
 20
823536.5093423855723813
 30
2.0
  0
VERTEX
  5
C46
  8
SOILS
 10
546932.0553118585376069
 20
823514.955933490768075
 30
2.0
  0
VERTEX
  5
C47
  8
SOILS
 10
546969.1304487036541104
 20
823679.0304270980414003
 30
2.0
  0
VERTEX
  5
C48
  8
SOILS
 10
547069.8263107057427987
 20
823798.522397038876079
 30
2.0
  0
VERTEX
  5
C49
  8
SOILS
 10
547277.5114653753116727
 20
823899.1472895466722548
 30
2.0
  0
VERTEX
  5
C4A
  8
SOILS
 10
547516.6642590501578525
 20
823911.7253411690471694
 30
2.0
  0
VERTEX
  5
C4B
  8
SOILS
 10
547749.5232982735615224
 20
823848.8347953397314996
 30
2.0
  0
VERTEX
  5
C4C
  8
SOILS
 10
547963.502045501023531
 20
823710.4756520594237372
 30
2.0
  0
VERTEX
  5
C4D
  8
SOILS
 10
548388.6307825862895697
 20
823425.7636132857296616
 30
2.0
  0
VERTEX
  5
C4E
  8
SOILS
 10
548563.3914226378547028
 20
823350.9189792646793649
 30
2.0
  0
VERTEX
  5
C4F
  8
SOILS
 10
548753.7556392286205664
 20
823335.3264151102630422
 30
2.0
  0
VERTEX
  5
C50
  8
SOILS
 10
548950.3614807066041976
 20
823322.8523254242027178
 30
2.0
  0
VERTEX
  5
C51
  8
SOILS
 10
549106.3977317756507546
 20
823238.6520761857973412
 30
2.0
  0
VERTEX
  5
C52
  8
SOILS
 10
549294.7729302784428
 20
823021.1867226444883272
 30
2.0
  0
VERTEX
  5
C53
  8
SOILS
 10
549637.1365945829311386
 20
822876.8048840856645256
 30
2.0
  0
VERTEX
  5
C54
  8
SOILS
 10
549882.130651617073454
 20
822748.1166944423457608
 30
2.0
  0
VERTEX
  5
C55
  8
SOILS
 10
550322.1482073977822438
 20
822409.6565263629890978
 30
2.0
  0
VERTEX
  5
C56
  8
SOILS
 10
550347.5514944129390642
 20
822161.3912023880984634
 30
2.0
  0
VERTEX
  5
C57
  8
SOILS
 10
550453.5138994248118252
 20
822071.0692830381449312
 30
2.0
  0
VERTEX
  5
C58
  8
SOILS
 10
550625.3497795237926766
 20
822053.8978209514170885
 30
2.0
  0
VERTEX
  5
C59
  8
SOILS
 10
550776.5655029530171305
 20
822132.8866424568695948
 30
2.0
  0
VERTEX
  5
C5A
  8
SOILS
 10
550831.5531270503997803
 20
822201.5725867113796994
 30
2.0
  0
VERTEX
  5
C5B
  8
SOILS
 10
551017.1359941200353205
 20
822050.4635285341646522
 30
2.0
  0
VERTEX
  5
C5C
  8
SOILS
 10
551195.8453677046345547
 20
822002.3833387843333185
 30
2.0
  0
VERTEX
  5
C5D
  8
SOILS
 10
551505.1501461549196392
 20
821964.6061221932759508
 30
2.0
  0
VERTEX
  5
C5E
  8
SOILS
 10
551817.8917522940319031
 20
821878.7487158515723422
 30
2.0
  0
VERTEX
  5
C5F
  8
SOILS
 10
552018.4330669525079429
 20
821782.3832460354315117
 30
2.0
  0
VERTEX
  5
C60
  8
SOILS
 10
552183.1972898639505729
 20
821695.5204053041525185
 30
2.0
  0
VERTEX
  5
C61
  8
SOILS
 10
552610.6427083059679717
 20
821351.6952653611078858
 30
2.0
  0
VERTEX
  5
C62
  8
SOILS
 10
552858.4088601410621777
 20
821134.2979090643348172
 30
2.0
  0
VERTEX
  5
C63
  8
SOILS
 10
553085.0241698670433834
 20
820811.221326302154921
 30
2.0
  0
VERTEX
  5
C64
  8
SOILS
 10
553251.208687161677517
 20
820479.0864364429144189
 30
2.0
  0
VERTEX
  5
C65
  8
SOILS
 10
553289.8736378649482504
 20
820304.4892400611424819
 30
2.0
  0
VERTEX
  5
C66
  8
SOILS
 10
553490.0812309697503224
 20
820256.8544428690802306
 30
2.0
  0
VERTEX
  5
C67
  8
SOILS
 10
553785.6255315634189174
 20
820237.8005239927442744
 30
2.0
  0
VERTEX
  5
C68
  8
SOILS
 10
554014.4341369153698906
 20
820123.4768370558740571
 30
2.0
  0
SEQEND
  5
C69
  8
SOILS
  0
POLYLINE
  5
5E
  8
SOILS
 66
     1
 10
0.0
 20
0.0
 30
2.0
 70
     1
  0
VERTEX
  5
C6A
  8
SOILS
 10
549926.1043763045454398
 20
824013.2149739790474996
 30
2.0
  0
VERTEX
  5
C6B
  8
SOILS
 10
549392.5394785492680967
 20
824060.1648825641022995
 30
2.0
  0
VERTEX
  5
C6C
  8
SOILS
 10
549097.963428178220056
 20
824033.1811224512057379
 30
2.0
  0
VERTEX
  5
C6D
  8
SOILS
 10
548796.0230949363904074
 20
824052.8057384151034057
 30
2.0
  0
VERTEX
  5
C6E
  8
SOILS
 10
548631.5516303017502651
 20
824106.7731718030991033
 30
2.0
  0
VERTEX
  5
C6F
  8
SOILS
 10
548557.9076177089009434
 20
824222.0674432407831773
 30
2.0
  0
VERTEX
  5
C70
  8
SOILS
 10
548481.8087314082076773
 20
824376.6106860928703099
 30
2.0
  0
VERTEX
  5
C71
  8
SOILS
 10
548478.510731399175711
 20
824507.9795584911480546
 30
2.0
  0
VERTEX
  5
C72
  8
SOILS
 10
548533.3597750407643616
 20
824627.9427138505270705
 30
2.0
  0
VERTEX
  5
C73
  8
SOILS
 10
548580.2015881247352809
 20
824678.1323526694905013
 30
2.0
  0
VERTEX
  5
C74
  8
SOILS
 10
548660.6082028631353751
 20
824746.6660943469032645
 30
2.0
  0
VERTEX
  5
C75
  8
SOILS
 10
548816.6915648115100339
 20
824890.8233214163919911
 30
2.0
  0
VERTEX
  5
C76
  8
SOILS
 10
548980.1330418549478054
 20
824984.9716100342338905
 30
2.0
  0
VERTEX
  5
C77
  8
SOILS
 10
549261.5030153007246554
 20
825072.3469085396500304
 30
2.0
  0
VERTEX
  5
C78
  8
SOILS
 10
549391.8967971786623821
 20
825136.1579695489490405
 30
2.0
  0
VERTEX
  5
C79
  8
SOILS
 10
549353.1029984136112034
 20
824758.2656186290550977
 30
2.0
  0
VERTEX
  5
C7A
  8
SOILS
 10
549359.7121205384610221
 20
824586.5482164892600849
 30
2.0
  0
VERTEX
  5
C7B
  8
SOILS
 10
549379.539648805744946
 20
824421.4353703918168321
 30
2.0
  0
VERTEX
  5
C7C
  8
SOILS
 10
549453.3246756540611386
 20
824243.1295243916101754
 30
2.0
  0
VERTEX
  5
C7D
  8
SOILS
 10
549551.8453425536863506
 20
824165.189049681648612
 30
2.0
  0
VERTEX
  5
C7E
  8
SOILS
 10
549652.418489619041793
 20
824118.0145947356941178
 30
2.0
  0
SEQEND
  5
C7F
  8
SOILS
  0
POLYLINE
  5
5F
  8
SOILS
 66
     1
 10
0.0
 20
0.0
 30
3.0
 70
     1
  0
VERTEX
  5
C80
  8
SOILS
 10
549926.1043763045454398
 20
824013.2149739790474996
 30
3.0
  0
VERTEX
  5
C81
  8
SOILS
 10
550124.0828798149013892
 20
823941.9929848216706887
 30
3.0
  0
VERTEX
  5
C82
  8
SOILS
 10
550407.5945529749151319
 20
823786.4923514170804992
 30
3.0
  0
VERTEX
  5
C83
  8
SOILS
 10
550656.9208681923337281
 20
823672.2983162810560316
 30
3.0
  0
VERTEX
  5
C84
  8
SOILS
 10
550760.8069947590120137
 20
823661.9169880475383252
 30
3.0
  0
VERTEX
  5
C85
  8
SOILS
 10
550875.0816368465311825
 20
823713.8234374041203409
 30
3.0
  0
VERTEX
  5
C86
  8
SOILS
 10
550895.8588297814130783
 20
823890.3050583195872605
 30
3.0
  0
VERTEX
  5
C87
  8
SOILS
 10
550947.8017311716685072
 20
824097.9305680301040411
 30
3.0
  0
VERTEX
  5
C88
  8
SOILS
 10
551010.1333099759649485
 20
824160.2182497148169205
 30
3.0
  0
VERTEX
  5
C89
  8
SOILS
 10
551103.6307591289514676
 20
824160.2182497148169205
 30
3.0
  0
VERTEX
  5
C8A
  8
SOILS
 10
551259.4597870860015973
 20
824139.4556891532847658
 30
3.0
  0
VERTEX
  5
C8B
  8
SOILS
 10
551290.6256574348080903
 20
824087.5493357020895928
 30
3.0
  0
VERTEX
  5
C8C
  8
SOILS
 10
551332.1800433043390512
 20
824004.4990934558445588
 30
3.0
  0
VERTEX
  5
C8D
  8
SOILS
 10
551415.2888150432845578
 20
823526.960488255484961
 30
3.0
  0
VERTEX
  5
C8E
  8
SOILS
 10
551451.8899209665833041
 20
823339.3659693180816248
 30
3.0
  0
VERTEX
  5
C8F
  8
SOILS
 10
551532.4981798495864496
 20
823253.7801196079235524
 30
3.0
  0
VERTEX
  5
C90
  8
SOILS
 10
551569.2573897915426642
 20
823454.9823166354326531
 30
3.0
  0
VERTEX
  5
C91
  8
SOILS
 10
551535.9308891564141959
 20
823597.7431966472649947
 30
3.0
  0
VERTEX
  5
C92
  8
SOILS
 10
551474.0360435291659087
 20
823788.0932239460526034
 30
3.0
  0
VERTEX
  5
C93
  8
SOILS
 10
551647.8166989323217422
 20
823840.4383987479377538
 30
3.0
  0
VERTEX
  5
C94
  8
SOILS
 10
551823.9752189606660977
 20
823930.8541039576521143
 30
3.0
  0
VERTEX
  5
C95
  8
SOILS
 10
551812.9885138367535546
 20
823960.1015733865788206
 30
3.0
  0
VERTEX
  5
C96
  8
SOILS
 10
551738.6098789287498221
 20
824017.9245789971901104
 30
3.0
  0
VERTEX
  5
C97
  8
SOILS
 10
551670.5010421745246276
 20
824027.5718080986989662
 30
3.0
  0
VERTEX
  5
C98
  8
SOILS
 10
551591.6263020120095462
 20
824085.3843147521838546
 30
3.0
  0
VERTEX
  5
C99
  8
SOILS
 10
551663.1393674078863114
 20
824223.0846974961459637
 30
3.0
  0
VERTEX
  5
C9A
  8
SOILS
 10
551661.11575608397834
 20
824341.3751335084671155
 30
3.0
  0
VERTEX
  5
C9B
  8
SOILS
 10
551656.8453053296543658
 20
824454.5158311184495687
 30
3.0
  0
VERTEX
  5
C9C
  8
SOILS
 10
551592.7715592602035031
 20
824501.4802904644748196
 30
3.0
  0
VERTEX
  5
C9D
  8
SOILS
 10
551584.2500688903965056
 20
824638.0704085065517575
 30
3.0
  0
VERTEX
  5
C9E
  8
SOILS
 10
551513.1616221774602309
 20
824713.303309541894123
 30
3.0
  0
VERTEX
  5
C9F
  8
SOILS
 10
551458.8007251829840243
 20
824830.329933607019484
 30
3.0
  0
VERTEX
  5
CA0
  8
SOILS
 10
551443.5993763314327225
 20
824956.8305539835710078
 30
3.0
  0
VERTEX
  5
CA1
  8
SOILS
 10
551583.1290755673544481
 20
824931.3955183109501377
 30
3.0
  0
VERTEX
  5
CA2
  8
SOILS
 10
551607.7011521547101438
 20
825012.0891893497901037
 30
3.0
  0
VERTEX
  5
CA3
  8
SOILS
 10
551649.483630562084727
 20
825042.5558501586783677
 30
3.0
  0
VERTEX
  5
CA4
  8
SOILS
 10
551629.2790604288456962
 20
825142.1450190369505435
 30
3.0
  0
VERTEX
  5
CA5
  8
SOILS
 10
551645.9265391951194033
 20
825300.1726948783034459
 30
3.0
  0
VERTEX
  5
CA6
  8
SOILS
 10
551572.8702881855424494
 20
825494.0543088335543871
 30
3.0
  0
VERTEX
  5
CA7
  8
SOILS
 10
551525.0048438446829095
 20
825648.9086749257985502
 30
3.0
  0
VERTEX
  5
CA8
  8
SOILS
 10
551540.1188425673171878
 20
825720.6703583068447188
 30
3.0
  0
VERTEX
  5
CA9
  8
SOILS
 10
551569.3908413777826354
 20
825752.4231413474772125
 30
3.0
  0
VERTEX
  5
CAA
  8
SOILS
 10
551408.7199845127761364
 20
826065.0020258976146579
 30
3.0
  0
VERTEX
  5
CAB
  8
SOILS
 10
551358.5082186494255438
 20
826056.3994430160382763
 30
3.0
  0
VERTEX
  5
CAC
  8
SOILS
 10
551260.9599620045628399
 20
826270.0427187614841387
 30
3.0
  0
VERTEX
  5
CAD
  8
SOILS
 10
551163.4650859936373308
 20
826360.7983277038438246
 30
3.0
  0
VERTEX
  5
CAE
  8
SOILS
 10
551116.7715892179403454
 20
826378.1478541259421036
 30
3.0
  0
VERTEX
  5
CAF
  8
SOILS
 10
551076.2799516062950715
 20
826367.293244970147498
 30
3.0
  0
VERTEX
  5
CB0
  8
SOILS
 10
551012.4609767473302782
 20
826377.4181766150286421
 30
3.0
  0
VERTEX
  5
CB1
  8
SOILS
 10
550909.1379060134058818
 20
826479.1727553715463728
 30
3.0
  0
VERTEX
  5
CB2
  8
SOILS
 10
550881.9283408060437068
 20
826488.6559382707346231
 30
3.0
  0
VERTEX
  5
CB3
  8
SOILS
 10
550777.6953728944063187
 20
826448.0144757709931582
 30
3.0
  0
VERTEX
  5
CB4
  8
SOILS
 10
550698.0878622042946517
 20
826434.8487837079446763
 30
3.0
  0
VERTEX
  5
CB5
  8
SOILS
 10
550611.6088080267654732
 20
826464.0424459824571386
 30
3.0
  0
VERTEX
  5
CB6
  8
SOILS
 10
550478.2591304233064875
 20
826530.9549236051971093
 30
3.0
  0
VERTEX
  5
CB7
  8
SOILS
 10
550414.9982258327072486
 20
826562.568595465272665
 30
3.0
  0
VERTEX
  5
CB8
  8
SOILS
 10
550402.1116554016480222
 20
826617.6015032565919682
 30
3.0
  0
VERTEX
  5
CB9
  8
SOILS
 10
550355.2507375451968983
 20
826670.2931436388753355
 30
3.0
  0
VERTEX
  5
CBA
  8
SOILS
 10
550277.1985444312449545
 20
826759.0487012747908011
 30
3.0
  0
VERTEX
  5
CBB
  8
SOILS
 10
550214.1681471262127161
 20
826766.8034933803137392
 30
3.0
  0
VERTEX
  5
CBC
  8
SOILS
 10
550120.5021184396464378
 20
826757.2205703896470368
 30
3.0
  0
VERTEX
  5
CBD
  8
SOILS
 10
550018.7974514862289652
 20
826729.1581707304576412
 30
3.0
  0
VERTEX
  5
CBE
  8
SOILS
 10
549965.3149085673503578
 20
826727.9704762215260416
 30
3.0
  0
VERTEX
  5
CBF
  8
SOILS
 10
549917.7770272104535252
 20
826693.5220859743421897
 30
3.0
  0
VERTEX
  5
CC0
  8
SOILS
 10
549872.6145840859971941
 20
826730.3458652396220714
 30
3.0
  0
VERTEX
  5
CC1
  8
SOILS
 10
549771.594159810221754
 20
826762.4188664682442322
 30
3.0
  0
VERTEX
  5
CC2
  8
SOILS
 10
549680.1191635280847549
 20
826684.3158130659721792
 30
3.0
  0
VERTEX
  5
CC3
  8
SOILS
 10
549523.2601692411117256
 20
826710.3453521775081754
 30
3.0
  0
VERTEX
  5
CC4
  8
SOILS
 10
549443.4803846854483709
 20
826728.2998809973942116
 30
3.0
  0
VERTEX
  5
CC5
  8
SOILS
 10
549439.0874830354005098
 20
826729.9962628053035587
 30
3.0
  0
VERTEX
  5
CC6
  8
SOILS
 10
549342.0135604806710035
 20
826498.979747976292856
 30
3.0
  0
VERTEX
  5
CC7
  8
SOILS
 10
549319.2396387428743765
 20
826311.2270059720613062
 30
3.0
  0
VERTEX
  5
CC8
  8
SOILS
 10
549334.9800421346444637
 20
826208.8123747061472386
 30
3.0
  0
VERTEX
  5
CC9
  8
SOILS
 10
549385.0789816152537242
 20
826064.183770407224074
 30
3.0
  0
VERTEX
  5
CCA
  8
SOILS
 10
549468.5774299401091412
 20
825964.0563415199285373
 30
3.0
  0
VERTEX
  5
CCB
  8
SOILS
 10
549536.3952406318858266
 20
825860.4609572626650333
 30
3.0
  0
VERTEX
  5
CCC
  8
SOILS
 10
549626.1871196223655716
 20
825826.5097125612664968
 30
3.0
  0
VERTEX
  5
CCD
  8
SOILS
 10
549684.067020578077063
 20
825701.0452700218884274
 30
3.0
  0
VERTEX
  5
CCE
  8
SOILS
 10
549665.0123635811032727
 20
825574.1042450813110918
 30
3.0
  0
VERTEX
  5
CCF
  8
SOILS
 10
549566.5637252470478415
 20
825399.5604660443495959
 30
3.0
  0
VERTEX
  5
CD0
  8
SOILS
 10
549391.8967971786623821
 20
825136.1579695489490405
 30
3.0
  0
VERTEX
  5
CD1
  8
SOILS
 10
549353.1029984136112034
 20
824758.2656186290550977
 30
3.0
  0
VERTEX
  5
CD2
  8
SOILS
 10
549359.7121205384610221
 20
824586.5482164892600849
 30
3.0
  0
VERTEX
  5
CD3
  8
SOILS
 10
549379.539648805744946
 20
824421.4353703918168321
 30
3.0
  0
VERTEX
  5
CD4
  8
SOILS
 10
549453.3246756540611386
 20
824243.1295243916101754
 30
3.0
  0
VERTEX
  5
CD5
  8
SOILS
 10
549551.8453425536863506
 20
824165.189049681648612
 30
3.0
  0
VERTEX
  5
CD6
  8
SOILS
 10
549652.418489619041793
 20
824118.0145947356941178
 30
3.0
  0
SEQEND
  5
CD7
  8
SOILS
  0
POLYLINE
  5
60
  8
SOILS
 66
     1
 10
0.0
 20
0.0
 30
3.0
 70
     1
  0
VERTEX
  5
CD8
  8
SOILS
 10
543204.4453261450398713
 20
824737.1713512191781774
 30
3.0
  0
VERTEX
  5
CD9
  8
SOILS
 10
543196.133640608866699
 20
824738.2908271729247645
 30
3.0
  0
VERTEX
  5
CDA
  8
SOILS
 10
543025.3592854811577126
 20
824695.9970913172001019
 30
3.0
  0
VERTEX
  5
CDB
  8
SOILS
 10
542777.5105734067037702
 20
824516.2444487283937633
 30
3.0
  0
VERTEX
  5
CDC
  8
SOILS
 10
542701.9478589717764407
 20
824668.8074174575740471
 30
3.0
  0
VERTEX
  5
CDD
  8
SOILS
 10
542420.2315607408527285
 20
824814.5434394058538601
 30
3.0
  0
VERTEX
  5
CDE
  8
SOILS
 10
542477.4507480702595785
 20
825036.7013692685868591
 30
3.0
  0
VERTEX
  5
CDF
  8
SOILS
 10
542534.6675090071512386
 20
825023.5028679647948593
 30
3.0
  0
VERTEX
  5
CE0
  8
SOILS
 10
542611.6909117117756978
 20
825054.2976211801869795
 30
3.0
  0
VERTEX
  5
CE1
  8
SOILS
 10
542662.3054587262449786
 20
825109.2872207737527788
 30
3.0
  0
VERTEX
  5
CE2
  8
SOILS
 10
542732.7266475083306432
 20
825131.2825356633402407
 30
3.0
  0
VERTEX
  5
CE3
  8
SOILS
 10
542800.9495247087907046
 20
825124.6839411965338513
 30
3.0
  0
VERTEX
  5
CE4
  8
SOILS
 10
542878.8537078816443682
 20
825183.1828171629458666
 30
3.0
  0
VERTEX
  5
CE5
  8
SOILS
 10
542833.5189908917527646
 20
825237.0687139029614627
 30
3.0
  0
VERTEX
  5
CE6
  8
SOILS
 10
542766.1283663096837699
 20
825275.0329423709772527
 30
3.0
  0
VERTEX
  5
CE7
  8
SOILS
 10
542646.0510555407963693
 20
825336.2667966330191121
 30
3.0
  0
VERTEX
  5
CE8
  8
SOILS
 10
542421.8232742042746395
 20
825421.9947175474371761
 30
3.0
  0
VERTEX
  5
CE9
  8
SOILS
 10
542324.6511083926307037
 20
825450.0636790543794632
 30
3.0
  0
VERTEX
  5
CEA
  8
SOILS
 10
542333.458913074224256
 20
825490.6487096603959799
 30
3.0
  0
VERTEX
  5
CEB
  8
SOILS
 10
542361.1950054483022541
 20
825544.3561241319403052
 30
3.0
  0
VERTEX
  5
CEC
  8
SOILS
 10
542406.7602297231787816
 20
825603.8025309666991234
 30
3.0
  0
VERTEX
  5
CED
  8
SOILS
 10
542450.4401470461161807
 20
825662.6071890556486323
 30
3.0
  0
VERTEX
  5
CEE
  8
SOILS
 10
542464.7024820098886266
 20
825718.7385502210818231
 30
3.0
  0
VERTEX
  5
CEF
  8
SOILS
 10
542484.315012380364351
 20
825743.6866967634996399
 30
3.0
  0
VERTEX
  5
CF0
  8
SOILS
 10
542577.7214170715305954
 20
825781.5708706845762208
 30
3.0
  0
VERTEX
  5
CF1
  8
SOILS
 10
542649.2878631014609709
 20
825799.7051941415993497
 30
3.0
  0
VERTEX
  5
CF2
  8
SOILS
 10
542677.5116603625938296
 20
825806.7578684984473512
 30
3.0
  0
VERTEX
  5
CF3
  8
SOILS
 10
542711.782027670298703
 20
825836.9817409268580377
 30
3.0
  0
VERTEX
  5
CF4
  8
SOILS
 10
542744.0360628311755136
 20
825850.0791897693416104
 30
3.0
  0
VERTEX
  5
CF5
  8
SOILS
 10
542828.705028222175315
 20
825881.3109620688483119
 30
3.0
  0
VERTEX
  5
CF6
  8
SOILS
 10
542871.040724114747718
 20
825891.3847112982766703
 30
3.0
  0
VERTEX
  5
CF7
  8
SOILS
 10
542928.4952715137042105
 20
825887.3557365549495444
 30
3.0
  0
VERTEX
  5
CF8
  8
SOILS
 10
542980.9102017442928627
 20
825886.34783668408636
 30
3.0
  0
VERTEX
  5
CF9
  8
SOILS
 10
543031.4228402742883191
 20
825891.577629633480683
 30
3.0
  0
VERTEX
  5
CFA
  8
SOILS
 10
543104.3674772300291806
 20
825883.6036718013929203
 30
3.0
  0
VERTEX
  5
CFB
  8
SOILS
 10
543213.7832194671500474
 20
825871.0718542664544657
 30
3.0
  0
VERTEX
  5
CFC
  8
SOILS
 10
543266.2102816599654034
 20
825880.1862613015109673
 30
3.0
  0
VERTEX
  5
CFD
  8
SOILS
 10
543316.3613877112511545
 20
825901.8298611320788041
 30
3.0
  0
VERTEX
  5
CFE
  8
SOILS
 10
543350.5541104596341029
 20
825940.5631381993880495
 30
3.0
  0
VERTEX
  5
CFF
  8
SOILS
 10
543375.6284502892522141
 20
826000.9400150974979624
 30
3.0
  0
VERTEX
  5
D00
  8
SOILS
 10
543391.5431585281621665
 20
826035.1561159207485616
 30
3.0
  0
VERTEX
  5
D01
  8
SOILS
 10
543417.1877005890710279
 20
826070.7593914358876646
 30
3.0
  0
VERTEX
  5
D02
  8
SOILS
 10
543442.83466904272791
 20
826122.7397274831309915
 30
3.0
  0
VERTEX
  5
D03
  8
SOILS
 10
543499.927683963556774
 20
826253.9543795466888696
 30
3.0
  0
VERTEX
  5
D04
  8
SOILS
 10
543531.7837907586945221
 20
826297.6392272037919611
 30
3.0
  0
VERTEX
  5
D05
  8
SOILS
 10
543568.9197275782935321
 20
826327.8381646098569036
 30
3.0
  0
VERTEX
  5
D06
  8
SOILS
 10
543580.6713531711138785
 20
826331.7797111349646002
 30
3.0
  0
VERTEX
  5
D07
  8
SOILS
 10
543627.717184275155887
 20
826214.2481262107612565
 30
3.0
  0
VERTEX
  5
D08
  8
SOILS
 10
543660.2699924357002601
 20
825856.4185258803190663
 30
3.0
  0
VERTEX
  5
D09
  8
SOILS
 10
543635.8553863151464611
 20
825531.1189415277913213
 30
3.0
  0
VERTEX
  5
D0A
  8
SOILS
 10
543481.2290618719998747
 20
825205.8193571754964069
 30
3.0
  0
VERTEX
  5
D0B
  8
SOILS
 10
543310.3261714553227648
 20
824921.1822208676021546
 30
3.0
  0
SEQEND
  5
D0C
  8
SOILS
  0
POLYLINE
  5
61
  8
SOILS
 66
     1
 10
0.0
 20
0.0
 30
2.0
 70
     1
  0
VERTEX
  5
D0D
  8
SOILS
 10
546835.2133773436071351
 20
823352.4773399262921885
 30
2.0
  0
VERTEX
  5
D0E
  8
SOILS
 10
546815.2047773251542822
 20
823121.7231115583563223
 30
2.0
  0
VERTEX
  5
D0F
  8
SOILS
 10
547037.7704798169434071
 20
822579.6934591468889266
 30
2.0
  0
VERTEX
  5
D10
  8
SOILS
 10
547037.7704798169434071
 20
822519.5528087818529457
 30
2.0
  0
VERTEX
  5
D11
  8
SOILS
 10
546981.2452407353557646
 20
822504.0615977459819987
 30
2.0
  0
VERTEX
  5
D12
  8
SOILS
 10
546731.4457091114018112
 20
822509.5289295974653214
 30
2.0
  0
VERTEX
  5
D13
  8
SOILS
 10
546680.3895586665021256
 20
822538.6884702619863674
 30
2.0
  0
VERTEX
  5
D14
  8
SOILS
 10
546620.2198780889157206
 20
822587.8944569242885336
 30
2.0
  0
VERTEX
  5
D15
  8
SOILS
 10
546546.6623040664708242
 20
822624.8433161854045466
 30
2.0
  0
VERTEX
  5
D16
  8
SOILS
 10
546551.7304861196316779
 20
822797.041718783788383
 30
2.0
  0
VERTEX
  5
D17
  8
SOILS
 10
546573.061191413551569
 20
823084.8017412294866517
 30
2.0
  0
VERTEX
  5
D18
  8
SOILS
 10
546647.7181742625543848
 20
823255.3261705585755408
 30
2.0
  0
SEQEND
  5
D19
  8
SOILS
  0
POLYLINE
  5
62
  8
SOILS
 66
     1
 10
0.0
 20
0.0
 30
2.0
 70
     1
  0
VERTEX
  5
D1A
  8
SOILS
 10
552479.8072423449484631
 20
823276.2182184612611309
 30
2.0
  0
VERTEX
  5
D1B
  8
SOILS
 10
553297.3583739260211587
 20
823510.6425371068762615
 30
2.0
  0
VERTEX
  5
D1C
  8
SOILS
 10
553373.3845293243648484
 20
823470.3567267748294398
 30
2.0
  0
VERTEX
  5
D1D
  8
SOILS
 10
553411.7093984563834965
 20
823421.1061195448273793
 30
2.0
  0
VERTEX
  5
D1E
  8
SOILS
 10
553456.2895073868567124
 20
823382.0185026796534657
 30
2.0
  0
VERTEX
  5
D1F
  8
SOILS
 10
553528.2466026050969958
 20
823333.5500677452655509
 30
2.0
  0
VERTEX
  5
D20
  8
SOILS
 10
553611.1540070601040497
 20
823303.8432689474429935
 30
2.0
  0
VERTEX
  5
D21
  8
SOILS
 10
553635.0078714754199609
 20
823281.496238999068737
 30
2.0
  0
VERTEX
  5
D22
  8
SOILS
 10
553661.7030414777109399
 20
823246.5675214702496305
 30
2.0
  0
VERTEX
  5
D23
  8
SOILS
 10
553723.8308207829250023
 20
823220.3699990462046117
 30
2.0
  0
VERTEX
  5
D24
  8
SOILS
 10
553725.9975892625516281
 20
823184.9675160833867267
 30
2.0
  0
VERTEX
  5
D25
  8
SOILS
 10
553737.0085583105683327
 20
823156.8421226824866608
 30
2.0
  0
VERTEX
  5
D26
  8
SOILS
 10
553802.438657772843726
 20
823091.8995118647580966
 30
2.0
  0
VERTEX
  5
D27
  8
SOILS
 10
553839.766279598348774
 20
823015.1153899336932227
 30
2.0
  0
VERTEX
  5
D28
  8
SOILS
 10
553878.8433303968049586
 20
822911.0864746201550588
 30
2.0
  0
VERTEX
  5
D29
  8
SOILS
 10
553946.6925431565614417
 20
822822.5107116227736697
 30
2.0
  0
VERTEX
  5
D2A
  8
SOILS
 10
553960.7146652656374499
 20
822768.3479048921726644
 30
2.0
  0
VERTEX
  5
D2B
  8
SOILS
 10
553982.7171922229463235
 20
822747.6242761679459363
 30
2.0
  0
VERTEX
  5
D2C
  8
SOILS
 10
553979.3323747212998569
 20
822688.4167206046404317
 30
2.0
  0
VERTEX
  5
D2D
  8
SOILS
 10
554011.4893541831988841
 20
822647.8172539328224957
 30
2.0
  0
VERTEX
  5
D2E
  8
SOILS
 10
554044.2189622693695128
 20
822577.0647827914217487
 30
2.0
  0
VERTEX
  5
D2F
  8
SOILS
 10
554064.85543026344385
 20
822562.3321213982999325
 30
2.0
  0
VERTEX
  5
D30
  8
SOILS
 10
554075.4660445536719635
 20
822552.610087227425538
 30
2.0
  0
VERTEX
  5
D31
  8
SOILS
 10
554076.6452712960308418
 20
822524.6185555281117558
 30
2.0
  0
VERTEX
  5
D32
  8
SOILS
 10
554103.7650599816115573
 20
822510.4764604655792937
 30
2.0
  0
VERTEX
  5
D33
  8
SOILS
 10
554142.9731359737925231
 20
822504.5839208561228588
 30
2.0
  0
VERTEX
  5
D34
  8
SOILS
 10
554169.6534676600713283
 20
822413.6741863054921851
 30
2.0
  0
VERTEX
  5
D35
  8
SOILS
 10
553913.4349855737527832
 20
822559.9814583486877382
 30
2.0
  0
VERTEX
  5
D36
  8
SOILS
 10
553637.2535264145117253
 20
822709.6128951662685722
 30
2.0
  0
VERTEX
  5
D37
  8
SOILS
 10
553460.8966208287747577
 20
822716.263102391269058
 30
2.0
  0
VERTEX
  5
D38
  8
SOILS
 10
553271.2298395241377875
 20
822673.0363238528370857
 30
2.0
  0
VERTEX
  5
D39
  8
SOILS
 10
553088.2178341863909736
 20
822569.9569130445597693
 30
2.0
  0
VERTEX
  5
D3A
  8
SOILS
 10
552785.4164616951020434
 20
822460.2271991051966324
 30
2.0
  0
VERTEX
  5
D3B
  8
SOILS
 10
552625.6969817053759471
 20
822490.1534672873094678
 30
2.0
  0
VERTEX
  5
D3C
  8
SOILS
 10
552516.9354677895316854
 20
822638.6876529535511509
 30
2.0
  0
VERTEX
  5
D3D
  8
SOILS
 10
552524.9946921735536307
 20
822833.6933366510784253
 30
2.0
  0
SEQEND
  5
D3E
  8
SOILS
  0
POLYLINE
  5
63
  8
SOILS
 66
     1
 10
0.0
 20
0.0
 30
3.0
 70
     1
  0
VERTEX
  5
D3F
  8
SOILS
 10
545030.7172170270932838
 20
826995.2699805034790188
 30
3.0
  0
VERTEX
  5
D40
  8
SOILS
 10
545076.9711782172089443
 20
827027.6317065677139908
 30
3.0
  0
VERTEX
  5
D41
  8
SOILS
 10
545113.9882218051934615
 20
826990.0073818324599415
 30
3.0
  0
VERTEX
  5
D42
  8
SOILS
 10
545133.4357574871974066
 20
826990.0073818324599415
 30
3.0
  0
VERTEX
  5
D43
  8
SOILS
 10
545177.9818969231564552
 20
827021.9885171871865168
 30
3.0
  0
VERTEX
  5
D44
  8
SOILS
 10
545195.7358106576139107
 20
827049.2634950717911124
 30
3.0
  0
VERTEX
  5
D45
  8
SOILS
 10
545211.2137682513566688
 20
827067.634045061073266
 30
3.0
  0
VERTEX
  5
D46
  8
SOILS
 10
545240.2334222440840676
 20
827082.6213061615126207
 30
3.0
  0
VERTEX
  5
D47
  8
SOILS
 10
545286.1844429230550304
 20
827115.4948528597597033
 30
3.0
  0
VERTEX
  5
D48
  8
SOILS
 10
545314.235966318869032
 20
827148.8526639497140422
 30
3.0
  0
VERTEX
  5
D49
  8
SOILS
 10
545329.2310718096559867
 20
827164.8058290926273912
 30
3.0
  0
VERTEX
  5
D4A
  8
SOILS
 10
545341.3217855098191649
 20
827169.6405987858306617
 30
3.0
  0
VERTEX
  5
D4B
  8
SOILS
 10
545363.5718044989043847
 20
827171.090767219546251
 30
3.0
  0
VERTEX
  5
D4C
  8
SOILS
 10
545387.272806188557297
 20
827166.740261917700991
 30
3.0
  0
VERTEX
  5
D4D
  8
SOILS
 10
545401.2779435497941449
 20
827154.5798449865542352
 30
3.0
  0
VERTEX
  5
D4E
  8
SOILS
 10
545417.0228043157840148
 20
827133.9559563539223745
 30
3.0
  0
VERTEX
  5
D4F
  8
SOILS
 10
545422.9965825874824077
 20
827124.7299979005474597
 30
3.0
  0
VERTEX
  5
D50
  8
SOILS
 10
545434.4006272167898715
 20
827124.7299979005474597
 30
3.0
  0
VERTEX
  5
D51
  8
SOILS
 10
545477.8864331416552886
 20
827138.9967680770205334
 30
3.0
  0
VERTEX
  5
D52
  8
SOILS
 10
545497.0961823605466634
 20
827155.4971913535846397
 30
3.0
  0
VERTEX
  5
D53
  8
SOILS
 10
545506.7022701664827764
 20
827180.3272246295819059
 30
3.0
  0
VERTEX
  5
D54
  8
SOILS
 10
545523.0100539863342419
 20
827214.282163898111321
 30
3.0
  0
VERTEX
  5
D55
  8
SOILS
 10
545541.3535810923203826
 20
827229.9019871567143127
 30
3.0
  0
VERTEX
  5
D56
  8
SOILS
 10
545584.1575707317097113
 20
827253.6703134075505659
 30
3.0
  0
VERTEX
  5
D57
  8
SOILS
 10
545607.2592534796567634
 20
827256.3856061585247517
 30
3.0
  0
VERTEX
  5
D58
  8
SOILS
 10
545639.8723947271937504
 20
827250.9537082866299897
 30
3.0
  0
VERTEX
  5
D59
  8
SOILS
 10
545688.1115035089896992
 20
827238.7302976136561483
 30
3.0
  0
VERTEX
  5
D5A
  8
SOILS
 10
545792.0654362863861024
 20
827225.1472720104502514
 30
3.0
  0
VERTEX
  5
D5B
  8
SOILS
 10
545835.3789683456998318
 20
827227.1919438841287047
 30
3.0
  0
VERTEX
  5
D5C
  8
SOILS
 10
545861.3559261752525344
 20
827224.6787560551892966
 30
3.0
  0
VERTEX
  5
D5D
  8
SOILS
 10
545871.3745007020188496
 20
827208.641599256079644
 30
3.0
  0
VERTEX
  5
D5E
  8
SOILS
 10
545862.4817722835578024
 20
827197.531078023603186
 30
3.0
  0
VERTEX
  5
D5F
  8
SOILS
 10
545853.5890438652131706
 20
827173.8270578846568242
 30
3.0
  0
VERTEX
  5
D60
  8
SOILS
 10
545852.8465677682543173
 20
827150.1230377451283857
 30
3.0
  0
VERTEX
  5
D61
  8
SOILS
 10
545854.3290935701224953
 20
827119.7521799182286486
 30
3.0
  0
VERTEX
  5
D62
  8
SOILS
 10
545869.1519251955905929
 20
827081.2341314695077017
 30
3.0
  0
VERTEX
  5
D63
  8
SOILS
 10
545906.6518208859488368
 20
827046.8526720732916147
 30
3.0
  0
VERTEX
  5
D64
  8
SOILS
 10
545921.6275152375455946
 20
827025.2300701568601653
 30
3.0
  0
VERTEX
  5
D65
  8
SOILS
 10
545927.2446138156810775
 20
827007.7283088586991653
 30
3.0
  0
VERTEX
  5
D66
  8
SOILS
 10
545924.4421305079013109
 20
826985.3222222763579339
 30
3.0
  0
VERTEX
  5
D67
  8
SOILS
 10
545916.9712680797092617
 20
826964.78363766905386
 30
3.0
  0
VERTEX
  5
D68
  8
SOILS
 10
545902.0271168299950659
 20
826943.3119582593208179
 30
3.0
  0
VERTEX
  5
D69
  8
SOILS
 10
545893.6196669063065201
 20
826912.5040813484229147
 30
3.0
  0
VERTEX
  5
D6A
  8
SOILS
 10
545896.4221502140862867
 20
826891.9654967410024256
 30
3.0
  0
VERTEX
  5
D6B
  8
SOILS
 10
545986.0894841027911752
 20
826846.220228775520809
 30
3.0
  0
VERTEX
  5
D6C
  8
SOILS
 10
546030.7278264526976272
 20
826888.4562203679233789
 30
3.0
  0
VERTEX
  5
D6D
  8
SOILS
 10
546057.0590375841129571
 20
826892.5849352035438642
 30
3.0
  0
VERTEX
  5
D6E
  8
SOILS
 10
546089.9633459282340482
 20
826850.7951492826687172
 30
3.0
  0
VERTEX
  5
D6F
  8
SOILS
 10
546145.9814689827617258
 20
826913.9988703494891524
 30
3.0
  0
VERTEX
  5
D70
  8
SOILS
 10
546192.8302548773353919
 20
826951.4591488820733503
 30
3.0
  0
VERTEX
  5
D71
  8
SOILS
 10
546241.7608855144353583
 20
826977.4716271890792996
 30
3.0
  0
VERTEX
  5
D72
  8
SOILS
 10
546406.2484577406430617
 20
827000.3646029008086771
 30
3.0
  0
VERTEX
  5
D73
  8
SOILS
 10
546452.0538948709145188
 20
826923.3639399824896827
 30
3.0
  0
VERTEX
  5
D74
  8
SOILS
 10
546505.148214994231239
 20
826883.8235555968713015
 30
3.0
  0
VERTEX
  5
D75
  8
SOILS
 10
546563.2797258939826861
 20
826859.645770023111254
 30
3.0
  0
VERTEX
  5
D76
  8
SOILS
 10
546585.1803443671669811
 20
826865.9005236490629613
 30
3.0
  0
VERTEX
  5
D77
  8
SOILS
 10
546592.4813593225553632
 20
826903.4264206625521183
 30
3.0
  0
VERTEX
  5
D78
  8
SOILS
 10
546617.5095976949669421
 20
826897.1716670372989029
 30
3.0
  0
VERTEX
  5
D79
  8
SOILS
 10
546669.6576247531920671
 20
826904.4684421436395496
 30
3.0
  0
VERTEX
  5
D7A
  8
SOILS
 10
546696.7725606536259875
 20
826924.2747245014179498
 30
3.0
  0
VERTEX
  5
D7B
  8
SOILS
 10
546730.1451627453789115
 20
826930.5294781270204112
 30
3.0
  0
VERTEX
  5
D7C
  8
SOILS
 10
546747.8748125553829595
 20
826941.9956515273079276
 30
3.0
  0
VERTEX
  5
D7D
  8
SOILS
 10
546747.8748125553829595
 20
826954.50384640856646
 30
3.0
  0
VERTEX
  5
D7E
  8
SOILS
 10
546721.8032254185527563
 20
826970.1407304727472365
 30
3.0
  0
VERTEX
  5
D7F
  8
SOILS
 10
546713.4588616993278265
 20
826984.7342806853121147
 30
3.0
  0
VERTEX
  5
D80
  8
SOILS
 10
546721.8032254185527563
 20
827022.2601776993833482
 30
3.0
  0
VERTEX
  5
D81
  8
SOILS
 10
546798.9794908494222909
 20
827093.1438858023611829
 30
3.0
  0
VERTEX
  5
D82
  8
SOILS
 10
546874.0690587519202381
 20
827170.2810351619264111
 30
3.0
  0
VERTEX
  5
D83
  8
SOILS
 10
546955.5497444320935756
 20
827266.8255065132398158
 30
3.0
  0
VERTEX
  5
D84
  8
SOILS
 10
547010.3595240347785875
 20
827240.7382231375668198
 30
3.0
  0
VERTEX
  5
D85
  8
SOILS
 10
546977.7342508250148967
 20
827179.4348132854793221
 30
3.0
  0
VERTEX
  5
D86
  8
SOILS
 10
547059.9477070320863277
 20
827153.3488422797527164
 30
3.0
  0
VERTEX
  5
D87
  8
SOILS
 10
547075.6076440616743639
 20
827316.389770083129406
 30
3.0
  0
VERTEX
  5
D88
  8
SOILS
 10
547109.5358900297433138
 20
827318.9987608947558329
 30
3.0
  0
VERTEX
  5
D89
  8
SOILS
 10
547499.7240638254443184
 20
827176.8271348433336243
 30
3.0
  0
VERTEX
  5
D8A
  8
SOILS
 10
547667.062647209269926
 20
827187.3221547221764922
 30
3.0
  0
VERTEX
  5
D8B
  8
SOILS
 10
547715.5565272007370368
 20
827179.2786413007415831
 30
3.0
  0
VERTEX
  5
D8C
  8
SOILS
 10
547745.0930027909344062
 20
827149.7568866201909259
 30
3.0
  0
VERTEX
  5
D8D
  8
SOILS
 10
547769.0414965122472495
 20
827098.692584571079351
 30
3.0
  0
VERTEX
  5
D8E
  8
SOILS
 10
547799.3738288336899132
 20
826955.0760395643301308
 30
3.0
  0
VERTEX
  5
D8F
  8
SOILS
 10
547821.7257563072489575
 20
826961.4580930435331538
 30
3.0
  0
VERTEX
  5
D90
  8
SOILS
 10
547827.3137381756678224
 20
827009.3307121684774756
 30
3.0
  0
VERTEX
  5
D91
  8
SOILS
 10
547863.2364787578117102
 20
827044.4379119663499296
 30
3.0
  0
VERTEX
  5
D92
  8
SOILS
 10
547929.1785470319446176
 20
827063.8701689817244187
 30
3.0
  0
VERTEX
  5
D93
  8
SOILS
 10
548063.4284162444528192
 20
827010.3950439329491928
 30
3.0
  0
VERTEX
  5
D94
  8
SOILS
 10
548073.386330958805047
 20
826970.3703951567877084
 30
3.0
  0
VERTEX
  5
D95
  8
SOILS
 10
548084.6253809001063928
 20
826916.0802885724697262
 30
3.0
  0
VERTEX
  5
D96
  8
SOILS
 10
548113.3441622260725126
 20
826883.6306372624821961
 30
3.0
  0
VERTEX
  5
D97
  8
SOILS
 10
548146.4353027906036004
 20
826869.9019386308500543
 30
3.0
  0
VERTEX
  5
D98
  8
SOILS
 10
548207.6192154231248423
 20
826866.7811236665584147
 30
3.0
  0
VERTEX
  5
D99
  8
SOILS
 10
548425.0725089715560898
 20
826572.1160844763508067
 30
3.0
  0
VERTEX
  5
D9A
  8
SOILS
 10
548491.2111150365089998
 20
826642.8475577029166743
 30
3.0
  0
VERTEX
  5
D9B
  8
SOILS
 10
548521.2231635514181107
 20
826655.8898870212724432
 30
3.0
  0
VERTEX
  5
D9C
  8
SOILS
 10
548554.7170852670678869
 20
826655.8898870212724432
 30
3.0
  0
VERTEX
  5
D9D
  8
SOILS
 10
548587.7742563370848075
 20
826659.3676665235543624
 30
3.0
  0
VERTEX
  5
D9E
  8
SOILS
 10
548624.3108742150943726
 20
826685.8880318747833371
 30
3.0
  0
VERTEX
  5
D9F
  8
SOILS
 10
548653.0199499715818092
 20
826719.7983505758456886
 30
3.0
  0
VERTEX
  5
DA0
  8
SOILS
 10
548661.7185669920872897
 20
826751.9697795258834958
 30
3.0
  0
VERTEX
  5
DA1
  8
SOILS
 10
548674.7677057188702747
 20
826795.0102536977501586
 30
3.0
  0
VERTEX
  5
DA2
  8
SOILS
 10
548691.5317730796523392
 20
826813.1458989444654435
 30
3.0
  0
VERTEX
  5
DA3
  8
SOILS
 10
548627.7804436711594462
 20
826547.9197151655098423
 30
3.0
  0
VERTEX
  5
DA4
  8
SOILS
 10
548600.8505721143446863
 20
826491.1077406207332388
 30
3.0
  0
VERTEX
  5
DA5
  8
SOILS
 10
548602.3466666939202696
 20
826390.9393734462792054
 30
3.0
  0
VERTEX
  5
DA6
  8
SOILS
 10
548624.8307053081225604
 20
826316.602170153404586
 30
3.0
  0
VERTEX
  5
DA7
  8
SOILS
 10
548676.3067770447814837
 20
826234.2984801315469667
 30
3.0
  0
VERTEX
  5
DA8
  8
SOILS
 10
548732.979265913949348
 20
826147.7209011061349884
 30
3.0
  0
VERTEX
  5
DA9
  8
SOILS
 10
548744.9415957359597087
 20
825997.6754147399915382
 30
3.0
  0
VERTEX
  5
DAA
  8
SOILS
 10
548875.7725805473746732
 20
825747.0839910637587309
 30
3.0
  0
VERTEX
  5
DAB
  8
SOILS
 10
548859.0314073570771143
 20
825628.3624977850122377
 30
3.0
  0
VERTEX
  5
DAC
  8
SOILS
 10
548761.1217757407575846
 20
825546.2133787949569523
 30
3.0
  0
VERTEX
  5
DAD
  8
SOILS
 10
548653.9752906927606091
 20
825546.2133787949569523
 30
3.0
  0
VERTEX
  5
DAE
  8
SOILS
 10
548547.7525755510432646
 20
825636.6697354818461463
 30
3.0
  0
VERTEX
  5
DAF
  8
SOILS
 10
548417.3291860297322273
 20
825718.7103942376561463
 30
3.0
  0
VERTEX
  5
DB0
  8
SOILS
 10
548259.0836126067442819
 20
825786.570550310309045
 30
3.0
  0
VERTEX
  5
DB1
  8
SOILS
 10
548074.4089517156826332
 20
825859.4170983695657924
 30
3.0
  0
VERTEX
  5
DB2
  8
SOILS
 10
547904.3136868373258039
 20
825898.2685269874054939
 30
3.0
  0
VERTEX
  5
DB3
  8
SOILS
 10
547734.218591085402295
 20
825878.8428560976171866
 30
3.0
  0
VERTEX
  5
DB4
  8
SOILS
 10
547260.2436173671158031
 20
825691.8658348902827129
 30
3.0
  0
VERTEX
  5
DB5
  8
SOILS
 10
547018.9389184024184942
 20
825691.8658348902827129
 30
3.0
  0
VERTEX
  5
DB6
  8
SOILS
 10
546836.9716373474802822
 20
825711.6309541845694184
 30
3.0
  0
VERTEX
  5
DB7
  8
SOILS
 10
546718.2971397825749591
 20
825786.738407502300106
 30
3.0
  0
VERTEX
  5
DB8
  8
SOILS
 10
546623.3577108571771532
 20
825889.5170278331497684
 30
3.0
  0
VERTEX
  5
DB9
  8
SOILS
 10
546607.5343881398439407
 20
825964.6244811515789479
 30
3.0
  0
VERTEX
  5
DBA
  8
SOILS
 10
546595.6669383832486346
 20
826174.1347456710645929
 30
3.0
  0
VERTEX
  5
DBB
  8
SOILS
 10
546560.0647582402452826
 20
826284.8193268812028691
 30
3.0
  0
VERTEX
  5
DBC
  8
SOILS
 10
546496.7716364966472611
 20
826340.1616609051125124
 30
3.0
  0
VERTEX
  5
DBD
  8
SOILS
 10
546382.0531810196116567
 20
826340.1616609051125124
 30
3.0
  0
VERTEX
  5
DBE
  8
SOILS
 10
546287.1135829668492079
 20
826328.302589328144677
 30
3.0
  0
VERTEX
  5
DBF
  8
SOILS
 10
546219.8647573892958462
 20
826284.8193268812028691
 30
3.0
  0
VERTEX
  5
DC0
  8
SOILS
 10
546176.3508313245838508
 20
826178.0877695298986509
 30
3.0
  0
VERTEX
  5
DC1
  8
SOILS
 10
546144.7043550162343308
 20
826087.1682207762496546
 30
3.0
  0
VERTEX
  5
DC2
  8
SOILS
 10
546109.1020057466812432
 20
826051.5910060463938862
 30
3.0
  0
VERTEX
  5
DC3
  8
SOILS
 10
546065.5880796816200018
 20
826051.5910060463938862
 30
3.0
  0
VERTEX
  5
DC4
  8
SOILS
 10
546033.9416033732704818
 20
826095.0742684938013554
 30
3.0
  0
VERTEX
  5
DC5
  8
SOILS
 10
545983.8899165053153411
 20
826156.6535436145495623
 30
3.0
  0
VERTEX
  5
DC6
  8
SOILS
 10
545888.0811764632817358
 20
826252.3948401558445767
 30
3.0
  0
VERTEX
  5
DC7
  8
SOILS
 10
545429.522775805555284
 20
826644.7160892488900572
 30
3.0
  0
SEQEND
  5
DC8
  8
SOILS
  0
POLYLINE
  5
64
  8
SOILS
 66
     1
 10
0.0
 20
0.0
 30
2.0
 70
     1
  0
VERTEX
  5
DC9
  8
SOILS
 10
544127.8283176384866238
 20
824704.231106779538095
 30
2.0
  0
VERTEX
  5
DCA
  8
SOILS
 10
544035.7234518096083775
 20
824519.4298899269197136
 30
2.0
  0
VERTEX
  5
DCB
  8
SOILS
 10
543952.5324074605014175
 20
824466.9251500472892076
 30
2.0
  0
VERTEX
  5
DCC
  8
SOILS
 10
543703.973967825062573
 20
824354.8903337507508695
 30
2.0
  0
VERTEX
  5
DCD
  8
SOILS
 10
543703.6281849677907303
 20
824334.8316585661377758
 30
2.0
  0
VERTEX
  5
DCE
  8
SOILS
 10
543602.7145219602389261
 20
824214.7563998659607023
 30
2.0
  0
VERTEX
  5
DCF
  8
SOILS
 10
543472.9680371816502884
 20
824152.3164779200451449
 30
2.0
  0
VERTEX
  5
DD0
  8
SOILS
 10
543352.8324929928639904
 20
824070.6647770556155592
 30
2.0
  0
VERTEX
  5
DD1
  8
SOILS
 10
543324.0020976129453629
 20
823989.0143885612487793
 30
2.0
  0
VERTEX
  5
DD2
  8
SOILS
 10
543304.7802164312452078
 20
823820.9077140113804489
 30
2.0
  0
VERTEX
  5
DD3
  8
SOILS
 10
543299.97353293991182
 20
823662.4075851051602513
 30
2.0
  0
VERTEX
  5
DD4
  8
SOILS
 10
543391.2762553561478853
 20
823489.4989501031814143
 30
2.0
  0
VERTEX
  5
DD5
  8
SOILS
 10
543579.1542510350700468
 20
823514.3631049891700968
 30
2.0
  0
VERTEX
  5
DD6
  8
SOILS
 10
543717.1844397216336802
 20
823536.3781054235296324
 30
2.0
  0
VERTEX
  5
DD7
  8
SOILS
 10
543849.3403322277590632
 20
823553.9901057704119012
 30
2.0
  0
VERTEX
  5
DD8
  8
SOILS
 10
543906.6080474066548049
 20
823545.1841055969707668
 30
2.0
  0
VERTEX
  5
DD9
  8
SOILS
 10
543988.8384883613325655
 20
823537.8466470319544896
 30
2.0
  0
VERTEX
  5
DDA
  8
SOILS
 10
544040.0936029892181978
 20
823548.2865473866695538
 30
2.0
  0
VERTEX
  5
DDB
  8
SOILS
 10
544093.6343793272972107
 20
823538.6078214138979092
 30
2.0
  0
VERTEX
  5
DDC
  8
SOILS
 10
544131.7966801633592695
 20
823495.9111880831187591
 30
2.0
  0
VERTEX
  5
DDD
  8
SOILS
 10
544164.7155468625715002
 20
823440.2089717841008678
 30
2.0
  0
VERTEX
  5
DDE
  8
SOILS
 10
544173.5791585710830986
 20
823385.4359131788369268
 30
2.0
  0
VERTEX
  5
DDF
  8
SOILS
 10
544171.1624716665828601
 20
823339.5226619013119489
 30
2.0
  0
VERTEX
  5
DE0
  8
SOILS
 10
544179.2205210739048198
 20
823300.054457844584249
 30
2.0
  0
VERTEX
  5
DE1
  8
SOILS
 10
544211.4575714875245467
 20
823256.5572790439473465
 30
2.0
  0
VERTEX
  5
DE2
  8
SOILS
 10
544281.5681820332538337
 20
823176.8150759823620319
 30
2.0
  0
VERTEX
  5
DE3
  8
SOILS
 10
544353.3408714232500643
 20
823112.907924797036685
 30
2.0
  0
VERTEX
  5
DE4
  8
SOILS
 10
544359.420411161147058
 20
823108.6881394474767148
 30
2.0
  0
VERTEX
  5
DE5
  8
SOILS
 10
544472.0460918137105182
 20
823167.1256281002424657
 30
2.0
  0
VERTEX
  5
DE6
  8
SOILS
 10
544616.6779825463891029
 20
823247.4199815570609644
 30
2.0
  0
VERTEX
  5
DE7
  8
SOILS
 10
544659.5318071935325861
 20
823370.5380654502660036
 30
2.0
  0
VERTEX
  5
DE8
  8
SOILS
 10
544686.3155533018289134
 20
823482.9501950253034011
 30
2.0
  0
VERTEX
  5
DE9
  8
SOILS
 10
544654.4153869788860902
 20
823606.0417934330180287
 30
2.0
  0
VERTEX
  5
DEA
  8
SOILS
 10
544539.9399665355449542
 20
823743.3154576014494523
 30
2.0
  0
VERTEX
  5
DEB
  8
SOILS
 10
544356.7791585250524804
 20
823819.5786333070136607
 30
2.0
  0
VERTEX
  5
DEC
  8
SOILS
 10
544211.776880371151492
 20
823949.2259538538055494
 30
2.0
  0
VERTEX
  5
DED
  8
SOILS
 10
544158.3550062226131558
 20
824139.8838497003307566
 30
2.0
  0
VERTEX
  5
DEE
  8
SOILS
 10
544135.4599897841690108
 20
824315.2890583027619869
 30
2.0
  0
SEQEND
  5
DEF
  8
SOILS
  0
POLYLINE
  5
65
  8
SOILS
 66
     1
 10
0.0
 20
0.0
 30
2.0
 70
     1
  0
VERTEX
  5
DF0
  8
SOILS
 10
544778.570434492547065
 20
826051.9046636659186333
 30
2.0
  0
VERTEX
  5
DF1
  8
SOILS
 10
544739.5326150455512106
 20
825954.3791137699736282
 30
2.0
  0
VERTEX
  5
DF2
  8
SOILS
 10
544732.7073388925055042
 20
825869.4484109247568995
 30
2.0
  0
VERTEX
  5
DF3
  8
SOILS
 10
544825.6784715579124168
 20
825694.5672675871755928
 30
2.0
  0
VERTEX
  5
DF4
  8
SOILS
 10
544891.3052031823899597
 20
825579.8014901349088177
 30
2.0
  0
VERTEX
  5
DF5
  8
SOILS
 10
544995.2142653906485066
 20
825448.6406760506797582
 30
2.0
  0
VERTEX
  5
DF6
  8
SOILS
 10
545186.6254109296714887
 20
825312.0147339714458212
 30
2.0
  0
VERTEX
  5
DF7
  8
SOILS
 10
545356.1610356358578429
 20
825230.0392034593969584
 30
2.0
  0
VERTEX
  5
DF8
  8
SOILS
 10
545487.4144988848129287
 20
825219.1091211463790387
 30
2.0
  0
VERTEX
  5
DF9
  8
SOILS
 10
545602.2613215097226202
 20
825224.5741623026551679
 30
2.0
  0
VERTEX
  5
DFA
  8
SOILS
 10
545738.9836649666540325
 20
825268.2944915560074151
 30
2.0
  0
VERTEX
  5
DFB
  8
SOILS
 10
545897.5815292568877339
 20
825355.7350632246816531
 30
2.0
  0
VERTEX
  5
DFC
  8
SOILS
 10
545972.9873344377847388
 20
825448.4459860220085829
 30
2.0
  0
VERTEX
  5
DFD
  8
SOILS
 10
545839.781811089720577
 20
825681.391302929725498
 30
2.0
  0
VERTEX
  5
DFE
  8
SOILS
 10
545639.9735260673332959
 20
825925.4291754089063033
 30
2.0
  0
VERTEX
  5
DFF
  8
SOILS
 10
545495.6675424401182681
 20
826014.1702278414741158
 30
2.0
  0
VERTEX
  5
E00
  8
SOILS
 10
545284.7587971388129517
 20
826136.1892074997304007
 30
2.0
  0
VERTEX
  5
E01
  8
SOILS
 10
545129.9103021380724385
 20
826168.9354277470847592
 30
2.0
  0
VERTEX
  5
E02
  8
SOILS
 10
544905.4431785696651787
 20
826149.4303004003595561
 30
2.0
  0
SEQEND
  5
E03
  8
SOILS
  0
POLYLINE
  5
66
  8
SOILS
 66
     1
 10
0.0
 20
0.0
 30
3.0
 70
     1
  0
VERTEX
  5
E04
  8
SOILS
 10
546546.6623040664708242
 20
822624.8433161854045466
 30
3.0
  0
VERTEX
  5
E05
  8
SOILS
 10
546507.3635113227646798
 20
822644.5835751801496372
 30
3.0
  0
VERTEX
  5
E06
  8
SOILS
 10
546520.8348423406714574
 20
822739.6568801836110651
 30
3.0
  0
VERTEX
  5
E07
  8
SOILS
 10
546453.8227349849184975
 20
822860.0917281605070457
 30
3.0
  0
VERTEX
  5
E08
  8
SOILS
 10
546407.7528210749151185
 20
822739.6516307051060721
 30
3.0
  0
VERTEX
  5
E09
  8
SOILS
 10
546349.3422750405734405
 20
822725.3809234190266579
 30
3.0
  0
VERTEX
  5
E0A
  8
SOILS
 10
546305.2086223252117634
 20
822715.6510150308022276
 30
3.0
  0
VERTEX
  5
E0B
  8
SOILS
 10
546228.6268230507848784
 20
822766.8977364584570751
 30
3.0
  0
VERTEX
  5
E0C
  8
SOILS
 10
546224.0821899463189766
 20
822744.1924296024953946
 30
3.0
  0
VERTEX
  5
E0D
  8
SOILS
 10
546322.8048205492086709
 20
822538.5677322562551126
 30
3.0
  0
VERTEX
  5
E0E
  8
SOILS
 10
546317.5759447667514905
 20
822470.6237321096705273
 30
3.0
  0
VERTEX
  5
E0F
  8
SOILS
 10
546270.5136363352648914
 20
822376.5452032806351781
 30
3.0
  0
VERTEX
  5
E10
  8
SOILS
 10
546044.6625984328566119
 20
822319.2471455194754526
 30
3.0
  0
VERTEX
  5
E11
  8
SOILS
 10
546049.986103521543555
 20
822278.1844123705523089
 30
3.0
  0
VERTEX
  5
E12
  8
SOILS
 10
546001.2956857393728569
 20
822259.9332880170550197
 30
3.0
  0
VERTEX
  5
E13
  8
SOILS
 10
545637.54548434400931
 20
822430.147628182079643
 30
3.0
  0
VERTEX
  5
E14
  8
SOILS
 10
545617.5884062432451174
 20
822412.7062358862021938
 30
3.0
  0
VERTEX
  5
E15
  8
SOILS
 10
545574.2603158291894943
 20
822395.384269225760363
 30
3.0
  0
VERTEX
  5
E16
  8
SOILS
 10
545548.8050323809729889
 20
822371.0240642749704421
 30
3.0
  0
VERTEX
  5
E17
  8
SOILS
 10
545524.4319199764868245
 20
822329.8825889482395723
 30
3.0
  0
VERTEX
  5
E18
  8
SOILS
 10
545500.0612339642830193
 20
822308.7704988155746832
 30
3.0
  0
VERTEX
  5
E19
  8
SOILS
 10
545426.0150148257380351
 20
822264.5200198510428891
 30
3.0
  0
VERTEX
  5
E1A
  8
SOILS
 10
545147.5428033327916637
 20
822226.6069737977813929
 30
3.0
  0
VERTEX
  5
E1B
  8
SOILS
 10
545134.4451367562869564
 20
822310.0723694820189849
 30
3.0
  0
VERTEX
  5
E1C
  8
SOILS
 10
545121.5221704384312034
 20
822393.52464146935381
 30
3.0
  0
VERTEX
  5
E1D
  8
SOILS
 10
545112.1708538421662524
 20
822442.7555631550494581
 30
3.0
  0
VERTEX
  5
E1E
  8
SOILS
 10
545079.0457437828881666
 20
822548.3855694097001106
 30
3.0
  0
VERTEX
  5
E1F
  8
SOILS
 10
545052.2316805487498641
 20
822642.1911253567086533
 30
3.0
  0
VERTEX
  5
E20
  8
SOILS
 10
545045.9206337236100808
 20
822718.6537167296046391
 30
3.0
  0
VERTEX
  5
E21
  8
SOILS
 10
545034.8150353683158755
 20
822775.2535938509972766
 30
3.0
  0
VERTEX
  5
E22
  8
SOILS
 10
545007.5035616772947833
 20
822829.2956625760998577
 30
3.0
  0
VERTEX
  5
E23
  8
SOILS
 10
544983.5332304236944765
 20
822858.2675343841547146
 30
3.0
  0
VERTEX
  5
E24
  8
SOILS
 10
544955.6636864634929225
 20
822872.1957131979288533
 30
3.0
  0
VERTEX
  5
E25
  8
SOILS
 10
544905.4955956649500877
 20
822876.0947633490432054
 30
3.0
  0
VERTEX
  5
E26
  8
SOILS
 10
544805.7174843356478959
 20
822858.8239791045198217
 30
3.0
  0
VERTEX
  5
E27
  8
SOILS
 10
544718.2023605718277395
 20
822843.7815984801854938
 30
3.0
  0
VERTEX
  5
E28
  8
SOILS
 10
544659.1172774296719581
 20
822843.7815984801854938
 30
3.0
  0
VERTEX
  5
E29
  8
SOILS
 10
544615.0806804132880643
 20
822852.1387682418571785
 30
3.0
  0
VERTEX
  5
E2A
  8
SOILS
 10
544592.7845599667634815
 20
822869.4095524874283001
 30
3.0
  0
VERTEX
  5
E2B
  8
SOILS
 10
544564.3569457379635423
 20
822906.7385940577369183
 30
3.0
  0
VERTEX
  5
E2C
  8
SOILS
 10
544540.3866144840139896
 20
822935.7091534960782155
 30
3.0
  0
VERTEX
  5
E2D
  8
SOILS
 10
544522.5502034047385678
 20
822952.4234930205857381
 30
3.0
  0
VERTEX
  5
E2E
  8
SOILS
 10
544495.8792973274830729
 20
822965.4526986427372321
 30
3.0
  0
VERTEX
  5
E2F
  8
SOILS
 10
544446.7036010506562889
 20
823009.6178735815919936
 30
3.0
  0
VERTEX
  5
E30
  8
SOILS
 10
544404.6542194704525173
 20
823077.2915255860425532
 30
3.0
  0
VERTEX
  5
E31
  8
SOILS
 10
544359.420411161147058
 20
823108.6881394474767148
 30
3.0
  0
VERTEX
  5
E32
  8
SOILS
 10
544472.0460918137105182
 20
823167.1256281002424657
 30
3.0
  0
VERTEX
  5
E33
  8
SOILS
 10
544616.6779825463891029
 20
823247.4199815570609644
 30
3.0
  0
VERTEX
  5
E34
  8
SOILS
 10
544659.5318071935325861
 20
823370.5380654502660036
 30
3.0
  0
VERTEX
  5
E35
  8
SOILS
 10
544686.3155533018289134
 20
823482.9501950253034011
 30
3.0
  0
VERTEX
  5
E36
  8
SOILS
 10
544654.4153869788860902
 20
823606.0417934330180287
 30
3.0
  0
VERTEX
  5
E37
  8
SOILS
 10
544539.9399665355449542
 20
823743.3154576014494523
 30
3.0
  0
VERTEX
  5
E38
  8
SOILS
 10
544356.7791585250524804
 20
823819.5786333070136607
 30
3.0
  0
VERTEX
  5
E39
  8
SOILS
 10
544211.776880371151492
 20
823949.2259538538055494
 30
3.0
  0
VERTEX
  5
E3A
  8
SOILS
 10
544158.3550062226131558
 20
824139.8838497003307566
 30
3.0
  0
VERTEX
  5
E3B
  8
SOILS
 10
544135.4599897841690108
 20
824315.2890583027619869
 30
3.0
  0
VERTEX
  5
E3C
  8
SOILS
 10
544127.8283176384866238
 20
824704.231106779538095
 30
3.0
  0
VERTEX
  5
E3D
  8
SOILS
 10
544129.8370351741323248
 20
824929.5812547854147851
 30
3.0
  0
VERTEX
  5
E3E
  8
SOILS
 10
544235.3145781792700291
 20
825090.0365790568757802
 30
3.0
  0
VERTEX
  5
E3F
  8
SOILS
 10
544235.3145781792700291
 20
825211.3934215740300715
 30
3.0
  0
VERTEX
  5
E40
  8
SOILS
 10
544218.4475747416727245
 20
825319.266199424630031
 30
3.0
  0
VERTEX
  5
E41
  8
SOILS
 10
544160.8026074832305312
 20
825426.8264485443942249
 30
3.0
  0
VERTEX
  5
E42
  8
SOILS
 10
544129.0166016671573743
 20
825449.0609703140798956
 30
3.0
  0
VERTEX
  5
E43
  8
SOILS
 10
544091.0261837264988571
 20
825454.7113230328541249
 30
3.0
  0
VERTEX
  5
E44
  8
SOILS
 10
544025.3235142241464928
 20
825453.0555025736102834
 30
3.0
  0
VERTEX
  5
E45
  8
SOILS
 10
543982.988739347201772
 20
825462.1208330231020227
 30
3.0
  0
VERTEX
  5
E46
  8
SOILS
 10
543946.7019344184082001
 20
825492.3386011880356818
 30
3.0
  0
VERTEX
  5
E47
  8
SOILS
 10
543931.5823478010715917
 20
825540.6870302519528195
 30
3.0
  0
VERTEX
  5
E48
  8
SOILS
 10
543934.6063327755546197
 20
825576.9482652124715969
 30
3.0
  0
VERTEX
  5
E49
  8
SOILS
 10
543946.7019344184082001
 20
825607.1660333771724254
 30
3.0
  0
VERTEX
  5
E4A
  8
SOILS
 10
543990.9507158922497183
 20
825651.0932967690750957
 30
3.0
  0
VERTEX
  5
E4B
  8
SOILS
 10
544074.0142387271625921
 20
825683.485479885712266
 30
3.0
  0
VERTEX
  5
E4C
  8
SOILS
 10
544266.4557143127312884
 20
825701.0463569695129991
 30
3.0
  0
VERTEX
  5
E4D
  8
SOILS
 10
544357.8279130455339327
 20
825763.2930214323569089
 30
3.0
  0
VERTEX
  5
E4E
  8
SOILS
 10
544348.2599518049973994
 20
825955.0446446635760367
 30
3.0
  0
VERTEX
  5
E4F
  8
SOILS
 10
544447.5938075258163735
 20
826045.5497441776096821
 30
3.0
  0
VERTEX
  5
E50
  8
SOILS
 10
544647.0593913154443726
 20
826063.3272891750093549
 30
3.0
  0
VERTEX
  5
E51
  8
SOILS
 10
544778.570434492547065
 20
826051.9046636659186333
 30
3.0
  0
VERTEX
  5
E52
  8
SOILS
 10
544739.5326150455512106
 20
825954.3791137699736282
 30
3.0
  0
VERTEX
  5
E53
  8
SOILS
 10
544732.7073388925055042
 20
825869.4484109247568995
 30
3.0
  0
VERTEX
  5
E54
  8
SOILS
 10
544825.6784715579124168
 20
825694.5672675871755928
 30
3.0
  0
VERTEX
  5
E55
  8
SOILS
 10
544891.3052031823899597
 20
825579.8014901349088177
 30
3.0
  0
VERTEX
  5
E56
  8
SOILS
 10
544995.2142653906485066
 20
825448.6406760506797582
 30
3.0
  0
VERTEX
  5
E57
  8
SOILS
 10
545186.6254109296714887
 20
825312.0147339714458212
 30
3.0
  0
VERTEX
  5
E58
  8
SOILS
 10
545356.1610356358578429
 20
825230.0392034593969584
 30
3.0
  0
VERTEX
  5
E59
  8
SOILS
 10
545487.4144988848129287
 20
825219.1091211463790387
 30
3.0
  0
VERTEX
  5
E5A
  8
SOILS
 10
545602.2613215097226202
 20
825224.5741623026551679
 30
3.0
  0
VERTEX
  5
E5B
  8
SOILS
 10
545738.9836649666540325
 20
825268.2944915560074151
 30
3.0
  0
VERTEX
  5
E5C
  8
SOILS
 10
545897.5815292568877339
 20
825355.7350632246816531
 30
3.0
  0
VERTEX
  5
E5D
  8
SOILS
 10
545972.9873344377847388
 20
825448.4459860220085829
 30
3.0
  0
VERTEX
  5
E5E
  8
SOILS
 10
546127.0774654214037582
 20
825322.3402525113197044
 30
3.0
  0
VERTEX
  5
E5F
  8
SOILS
 10
546364.9428042945219204
 20
825270.3438602802343667
 30
3.0
  0
VERTEX
  5
E60
  8
SOILS
 10
546573.0748278225073591
 20
825281.4860001541674137
 30
3.0
  0
VERTEX
  5
E61
  8
SOILS
 10
546703.1574270911514759
 20
825188.6353555660462007
 30
3.0
  0
VERTEX
  5
E62
  8
SOILS
 10
546907.5728919052053243
 20
825125.4969971366226673
 30
3.0
  0
VERTEX
  5
E63
  8
SOILS
 10
547104.5550701647298411
 20
825073.5006049056537449
 30
3.0
  0
VERTEX
  5
E64
  8
SOILS
 10
547339.9225771537749097
 20
825074.4869070233544335
 30
3.0
  0
VERTEX
  5
E65
  8
SOILS
 10
547465.0697217516135424
 20
825080.9286981547484174
 30
3.0
  0
VERTEX
  5
E66
  8
SOILS
 10
547574.7194507368840277
 20
825037.5882836546516046
 30
3.0
  0
VERTEX
  5
E67
  8
SOILS
 10
547692.1368297163862735
 20
825028.0706158456159756
 30
3.0
  0
VERTEX
  5
E68
  8
SOILS
 10
547774.761807078961283
 20
825015.2585878121899441
 30
3.0
  0
VERTEX
  5
E69
  8
SOILS
 10
547836.0181362590519711
 20
824995.3287374809151515
 30
3.0
  0
VERTEX
  5
E6A
  8
SOILS
 10
547900.1237425560830161
 20
824948.3511276829522103
 30
3.0
  0
VERTEX
  5
E6B
  8
SOILS
 10
548015.5136309384834021
 20
824848.7017023516818881
 30
3.0
  0
VERTEX
  5
E6C
  8
SOILS
 10
548075.3454061229713261
 20
824814.5362074258737266
 30
3.0
  0
VERTEX
  5
E6D
  8
SOILS
 10
548133.7527964382898062
 20
824813.1126777009340003
 30
3.0
  0
VERTEX
  5
E6E
  8
SOILS
 10
548191.7233325493289158
 20
824841.2677909802878276
 30
3.0
  0
VERTEX
  5
E6F
  8
SOILS
 10
548253.7745571079431102
 20
824892.6452912234235555
 30
3.0
  0
VERTEX
  5
E70
  8
SOILS
 10
548324.6900490303523839
 20
824945.7944533622357994
 30
3.0
  0
VERTEX
  5
E71
  8
SOILS
 10
548356.6020542203914374
 20
824951.1093522085575387
 30
3.0
  0
VERTEX
  5
E72
  8
SOILS
 10
548388.5140594108961523
 20
824942.2512164105428383
 30
3.0
  0
VERTEX
  5
E73
  8
SOILS
 10
548402.6971916208276525
 20
824929.849669985473156
 30
3.0
  0
VERTEX
  5
E74
  8
SOILS
 10
548408.0158873401815072
 20
824906.8184127056738362
 30
3.0
  0
VERTEX
  5
E75
  8
SOILS
 10
548415.1073688820470124
 20
824869.6139471064088866
 30
3.0
  0
VERTEX
  5
E76
  8
SOILS
 10
548415.1073688820470124
 20
824830.6379064499633387
 30
3.0
  0
VERTEX
  5
E77
  8
SOILS
 10
548399.1514508500695229
 20
824798.7484265343518928
 30
3.0
  0
VERTEX
  5
E78
  8
SOILS
 10
548372.5579722522525117
 20
824772.1738454651786014
 30
3.0
  0
VERTEX
  5
E79
  8
SOILS
 10
548078.8331364436307922
 20
824659.610357852652669
 30
3.0
  0
VERTEX
  5
E7A
  8
SOILS
 10
547975.6968140200478956
 20
824659.610357852652669
 30
3.0
  0
VERTEX
  5
E7B
  8
SOILS
 10
547879.4361674983520061
 20
824666.4812138517154381
 30
3.0
  0
VERTEX
  5
E7C
  8
SOILS
 10
547748.7968032114440575
 20
824652.7394150157924742
 30
3.0
  0
VERTEX
  5
E7D
  8
SOILS
 10
547611.281593895284459
 20
824614.949403090053238
 30
3.0
  0
VERTEX
  5
E7E
  8
SOILS
 10
547521.8967924027238041
 20
824542.8048506566556171
 30
3.0
  0
VERTEX
  5
E7F
  8
SOILS
 10
547417.5549350294750184
 20
824452.6339293502969667
 30
3.0
  0
VERTEX
  5
E80
  8
SOILS
 10
547302.9536843391833827
 20
824436.8873963471269235
 30
3.0
  0
VERTEX
  5
E81
  8
SOILS
 10
547194.0822763185715303
 20
824421.1407765051117167
 30
3.0
  0
VERTEX
  5
E82
  8
SOILS
 10
547132.4841421258170158
 20
824406.8257622903911397
 30
3.0
  0
VERTEX
  5
E83
  8
SOILS
 10
547106.6987507878802717
 20
824385.3531541309785098
 30
3.0
  0
VERTEX
  5
E84
  8
SOILS
 10
547099.5362360423896462
 20
824333.8189119148300961
 30
3.0
  0
VERTEX
  5
E85
  8
SOILS
 10
547112.4287625845754519
 20
824272.2640381754608825
 30
3.0
  0
VERTEX
  5
E86
  8
SOILS
 10
547108.1312537371413782
 20
824215.0038076414493844
 30
3.0
  0
VERTEX
  5
E87
  8
SOILS
 10
547076.6158506030915305
 20
824152.0175019507296383
 30
3.0
  0
VERTEX
  5
E88
  8
SOILS
 10
547037.937932723085396
 20
824139.1339196878252551
 30
3.0
  0
VERTEX
  5
E89
  8
SOILS
 10
546923.6265651558060199
 20
824077.6091786157339811
 30
3.0
  0
VERTEX
  5
E8A
  8
SOILS
 10
546825.7252207465935498
 20
823966.1258646283531561
 30
3.0
  0
VERTEX
  5
E8B
  8
SOILS
 10
546791.5736401072936133
 20
823888.7700975120533258
 30
3.0
  0
VERTEX
  5
E8C
  8
SOILS
 10
546746.0381428794935346
 20
823854.6425506417872384
 30
3.0
  0
VERTEX
  5
E8D
  8
SOILS
 10
546686.8419457448180765
 20
823852.3673171695554629
 30
3.0
  0
VERTEX
  5
E8E
  8
SOILS
 10
546623.0921819750219584
 20
823861.4679905460216105
 30
3.0
  0
VERTEX
  5
E8F
  8
SOILS
 10
546568.4497206024825573
 20
823852.3673171695554629
 30
3.0
  0
VERTEX
  5
E90
  8
SOILS
 10
546552.5122373788617551
 20
823806.8639502883888781
 30
3.0
  0
VERTEX
  5
E91
  8
SOILS
 10
546536.5747541547752917
 20
823781.8370767945889384
 30
3.0
  0
VERTEX
  5
E92
  8
SOILS
 10
546497.8696068798890337
 20
823775.0115500527899712
 30
3.0
  0
VERTEX
  5
E93
  8
SOILS
 10
546461.4412429224466905
 20
823779.5619301595725119
 30
3.0
  0
VERTEX
  5
E94
  8
SOILS
 10
546399.9682624709093943
 20
823806.8639502883888781
 30
3.0
  0
VERTEX
  5
E95
  8
SOILS
 10
546329.3881487477337942
 20
823863.7432240180205554
 30
3.0
  0
VERTEX
  5
E96
  8
SOILS
 10
546255.1687672020634636
 20
823871.3234568436164409
 30
3.0
  0
VERTEX
  5
E97
  8
SOILS
 10
546171.0964037419762462
 20
823859.3216241577174515
 30
3.0
  0
VERTEX
  5
E98
  8
SOILS
 10
546052.9947382301324978
 20
823827.3165633195312694
 30
3.0
  0
VERTEX
  5
E99
  8
SOILS
 10
545898.8619873239658773
 20
823751.3046957950573415
 30
3.0
  0
VERTEX
  5
E9A
  8
SOILS
 10
545822.7964189783670008
 20
823685.2944423469016328
 30
3.0
  0
VERTEX
  5
E9B
  8
SOILS
 10
545790.7689002682454884
 20
823613.2831857177661732
 30
3.0
  0
VERTEX
  5
E9C
  8
SOILS
 10
545746.8949035089462996
 20
823561.9344287388958037
 30
3.0
  0
VERTEX
  5
E9D
  8
SOILS
 10
545690.225289793452248
 20
823525.1252481577685103
 30
3.0
  0
VERTEX
  5
E9E
  8
SOILS
 10
545673.2245071545476094
 20
823482.6530365600483492
 30
3.0
  0
VERTEX
  5
E9F
  8
SOILS
 10
545667.5575796086341143
 20
823352.4051467722747475
 30
3.0
  0
VERTEX
  5
EA0
  8
SOILS
 10
545645.2384395038243383
 20
823280.4981821698602289
 30
3.0
  0
VERTEX
  5
EA1
  8
SOILS
 10
545598.1190709511283785
 20
823176.5164260903839022
 30
3.0
  0
VERTEX
  5
EA2
  8
SOILS
 10
545537.256637800950557
 20
823147.0876648848643526
 30
3.0
  0
VERTEX
  5
EA3
  8
SOILS
 10
545435.1648417304968461
 20
823121.5826632468961179
 30
3.0
  0
VERTEX
  5
EA4
  8
SOILS
 10
545378.0680140303447843
 20
823073.9381402370054275
 30
3.0
  0
VERTEX
  5
EA5
  8
SOILS
 10
545343.416156682302244
 20
823002.2099743726430461
 30
3.0
  0
VERTEX
  5
EA6
  8
SOILS
 10
545318.6648058439604938
 20
822920.5883941537467763
 30
3.0
  0
VERTEX
  5
EA7
  8
SOILS
 10
545328.5653123538941145
 20
822836.4933300899574533
 30
3.0
  0
VERTEX
  5
EA8
  8
SOILS
 10
545364.7327138491673395
 20
822746.9592761663952842
 30
3.0
  0
VERTEX
  5
EA9
  8
SOILS
 10
545352.2511651311069727
 20
822653.4137566400459036
 30
3.0
  0
VERTEX
  5
EAA
  8
SOILS
 10
545302.3249702566536143
 20
822572.3409904189174995
 30
3.0
  0
VERTEX
  5
EAB
  8
SOILS
 10
545460.4040520614944398
 20
822630.795169688644819
 30
3.0
  0
VERTEX
  5
EAC
  8
SOILS
 10
545635.9437214997597039
 20
822719.8828767136437818
 30
3.0
  0
VERTEX
  5
EAD
  8
SOILS
 10
545713.4161864884663373
 20
822911.993889627745375
 30
3.0
  0
VERTEX
  5
EAE
  8
SOILS
 10
545819.5822529653087258
 20
823058.227765966556035
 30
3.0
  0
VERTEX
  5
EAF
  8
SOILS
 10
545991.7435381072573364
 20
823241.7368877028347924
 30
3.0
  0
VERTEX
  5
EB0
  8
SOILS
 10
546169.6434464108897373
 20
823362.1647068829042837
 30
3.0
  0
VERTEX
  5
EB1
  8
SOILS
 10
546320.0445239811670035
 20
823404.4007780380779877
 30
3.0
  0
VERTEX
  5
EB2
  8
SOILS
 10
546596.8023224205244333
 20
823437.3852918179472908
 30
3.0
  0
VERTEX
  5
EB3
  8
SOILS
 10
546851.2970290227094665
 20
823424.3435016713337973
 30
3.0
  0
VERTEX
  5
EB4
  8
SOILS
 10
546839.2891490251058713
 20
823399.4822052591480315
 30
3.0
  0
VERTEX
  5
EB5
  8
SOILS
 10
546835.2133773436071351
 20
823352.4773399262921885
 30
3.0
  0
VERTEX
  5
EB6
  8
SOILS
 10
546647.7181742625543848
 20
823255.3261705585755408
 30
3.0
  0
VERTEX
  5
EB7
  8
SOILS
 10
546573.061191413551569
 20
823084.8017412294866517
 30
3.0
  0
VERTEX
  5
EB8
  8
SOILS
 10
546551.7304861196316779
 20
822797.041718783788383
 30
3.0
  0
SEQEND
  5
EB9
  8
SOILS
  0
ENDSEC
  0
EOF
